ISO-10303-21;
HEADER;
FILE_DESCRIPTION (( 'STEP AP203' ),
    '1' );
FILE_NAME ('388805.step',
    '2021-12-13T10:25:54',
    ( '' ),
    ( '' ),
    'SwSTEP 2.0',
    'SolidWorks 2019',
    '' );
FILE_SCHEMA (( 'CONFIG_CONTROL_DESIGN' ));
ENDSEC;

DATA;
#1 = DIRECTION ( 'NONE',  ( -3.491481338843133355E-15, 1.215841905902890654E-16, -1.000000000000000000 ) ) ;
#2 = DIRECTION ( 'NONE',  ( 4.245089325443411538E-31, 1.000000000000000000, 1.215841905902890654E-16 ) ) ;
#3 = FACE_OUTER_BOUND ( 'NONE', #212, .T. ) ;
#4 = APPROVAL ( #211, 'UNSPECIFIED' ) ;
#5 = ORIENTED_EDGE ( 'NONE', *, *, #188, .T. ) ;
#6 =( NAMED_UNIT ( * ) SI_UNIT ( $, .STERADIAN. ) SOLID_ANGLE_UNIT ( ) );
#7 = VERTEX_POINT ( 'NONE', #215 ) ;
#8 = CARTESIAN_POINT ( 'NONE',  ( 2.845553184111004326E-14, -1.024368317439181216E-15, 8.149988236952310672 ) ) ;
#9 = COORDINATED_UNIVERSAL_TIME_OFFSET ( 1, 0, .AHEAD. ) ;
#10 = ADVANCED_FACE ( 'NONE', ( #111, #67 ), #286, .T. ) ;
#11 = PLANE ( 'NONE',  #268 ) ;
#12 = APPROVAL_ROLE ( '' ) ;
#13 = DIRECTION ( 'NONE',  ( 0.0000000000000000000, 1.000000000000000000, 0.0000000000000000000 ) ) ;
#14 = CYLINDRICAL_SURFACE ( 'NONE', #292, 0.5500000000000001554 ) ;
#15 = COORDINATED_UNIVERSAL_TIME_OFFSET ( 1, 0, .AHEAD. ) ;
#16 = CARTESIAN_POINT ( 'NONE',  ( 2.845553184111004326E-14, 1.959999999999999076, 8.149988236952310672 ) ) ;
#17 = AXIS2_PLACEMENT_3D ( 'NONE', #271, #122, #218 ) ;
#18 = ORIENTED_EDGE ( 'NONE', *, *, #128, .T. ) ;
#19 = MANIFOLD_SOLID_BREP ( 'Corps-Déplacer/Copier3[2]', #287 ) ;
#20 = MANIFOLD_SOLID_BREP ( 'Corps-Déplacer/Copier3[1]', #101 ) ;
#21 = ORIENTED_EDGE ( 'NONE', *, *, #188, .F. ) ;
#22 = ORIENTED_EDGE ( 'NONE', *, *, #200, .T. ) ;
#23 = CC_DESIGN_PERSON_AND_ORGANIZATION_ASSIGNMENT ( #251, #125, ( #152 ) ) ;
#24 = CC_DESIGN_APPROVAL ( #205, ( #244 ) ) ;
#25 = ORIENTED_EDGE ( 'NONE', *, *, #80, .F. ) ;
#26 = CC_DESIGN_PERSON_AND_ORGANIZATION_ASSIGNMENT ( #202, #82, ( #53 ) ) ;
#27 = DIRECTION ( 'NONE',  ( 0.0000000000000000000, 1.000000000000000000, 0.0000000000000000000 ) ) ;
#28 = APPLICATION_PROTOCOL_DEFINITION ( 'international standard', 'config_control_design', 1994, #227 ) ;
#29 = EDGE_LOOP ( 'NONE', ( #18 ) ) ;
#30 = AXIS2_PLACEMENT_3D ( 'NONE', #258, #207, #70 ) ;
#31 = DIRECTION ( 'NONE',  ( -4.275831445896958607E-31, -1.000000000000000000, -1.224646799147353207E-16 ) ) ;
#32 = DIRECTION ( 'NONE',  ( -3.491481338843133355E-15, 1.215841905902890654E-16, -1.000000000000000000 ) ) ;
#33 = APPROVAL_STATUS ( 'not_yet_approved' ) ;
#34 = ADVANCED_FACE ( 'NONE', ( #184, #157 ), #87, .T. ) ;
#35 = DIRECTION ( 'NONE',  ( 3.491481338843133355E-15, -1.224646799147353207E-16, 1.000000000000000000 ) ) ;
#36 = COORDINATED_UNIVERSAL_TIME_OFFSET ( 1, 0, .AHEAD. ) ;
#37 = DIRECTION ( 'NONE',  ( -3.491481338843133355E-15, 1.215841905902890654E-16, -1.000000000000000000 ) ) ;
#38 = COORDINATED_UNIVERSAL_TIME_OFFSET ( 1, 0, .AHEAD. ) ;
#39 = AXIS2_PLACEMENT_3D ( 'NONE', #230, #163, #27 ) ;
#40 = DIRECTION ( 'NONE',  ( 0.0000000000000000000, 1.000000000000000000, 0.0000000000000000000 ) ) ;
#41 = SECURITY_CLASSIFICATION_LEVEL ( 'unclassified' ) ;
#42 = VERTEX_POINT ( 'NONE', #223 ) ;
#43 = CIRCLE ( 'NONE', #208, 0.8349999999999999645 ) ;
#44 = ORIENTED_EDGE ( 'NONE', *, *, #128, .F. ) ;
#45 = ADVANCED_FACE ( 'NONE', ( #166 ), #109, .T. ) ;
#46 = EDGE_LOOP ( 'NONE', ( #103 ) ) ;
#47 = DIRECTION ( 'NONE',  ( -3.491481338843133355E-15, 1.215841905902890654E-16, -1.000000000000000000 ) ) ;
#48 = LOCAL_TIME ( 11, 25, 54.00000000000000000, #9 ) ;
#49 = DIRECTION ( 'NONE',  ( 0.0000000000000000000, 1.000000000000000000, 0.0000000000000000000 ) ) ;
#50 = CIRCLE ( 'NONE', #30, 1.999999999999996669 ) ;
#51 = EDGE_LOOP ( 'NONE', ( #22 ) ) ;
#52 = EDGE_LOOP ( 'NONE', ( #189 ) ) ;
#53 = PRODUCT_DEFINITION_FORMATION_WITH_SPECIFIED_SOURCE ( 'ANY', '', #246, .NOT_KNOWN. ) ;
#54 = CARTESIAN_POINT ( 'NONE',  ( -1.068994477736138921E-31, 3.749527889212575189E-33, -3.061721871010599170E-17 ) ) ;
#55 = CIRCLE ( 'NONE', #171, 1.959999999999999964 ) ;
#56 = CARTESIAN_POINT ( 'NONE',  ( 1.103308103074430172E-14, 0.8349999999999995204, 3.160000000000000142 ) ) ;
#57 = APPROVAL_STATUS ( 'not_yet_approved' ) ;
#58 = CARTESIAN_POINT ( 'NONE',  ( 1.103308103074430172E-14, -4.176646365942710475E-16, 3.160000000000000142 ) ) ;
#59 = DATE_AND_TIME ( #148, #222 ) ;
#60 = DIRECTION ( 'NONE',  ( 3.491481338843133355E-15, -1.224646799147353207E-16, 1.000000000000000000 ) ) ;
#61 = FACE_OUTER_BOUND ( 'NONE', #88, .T. ) ;
#62 = CARTESIAN_POINT ( 'NONE',  ( 2.137183397710479182E-32, 0.5499999999999997113, 6.121136532892404794E-18 ) ) ;
#63 = ORIENTED_EDGE ( 'NONE', *, *, #121, .T. ) ;
#64 = EDGE_CURVE ( 'NONE', #116, #116, #149, .T. ) ;
#65 = AXIS2_PLACEMENT_3D ( 'NONE', #112, #191, #2 ) ;
#66 = CIRCLE ( 'NONE', #96, 1.999999999999997780 ) ;
#67 = FACE_BOUND ( 'NONE', #178, .T. ) ;
#68 = DIRECTION ( 'NONE',  ( 4.275831445896958607E-31, 1.000000000000000000, 1.224646799147353207E-16 ) ) ;
#69 = APPROVAL_PERSON_ORGANIZATION ( #84, #214, #12 ) ;
#70 = DIRECTION ( 'NONE',  ( 0.0000000000000000000, 1.000000000000000000, 0.0000000000000000000 ) ) ;
#71 = PERSON_AND_ORGANIZATION ( #231, #164 ) ;
#72 = AXIS2_PLACEMENT_3D ( 'NONE', #209, #47, #261 ) ;
#73 = DIRECTION ( 'NONE',  ( 0.0000000000000000000, 1.000000000000000000, 0.0000000000000000000 ) ) ;
#74 = ADVANCED_FACE ( 'NONE', ( #264, #187 ), #301, .T. ) ;
#75 = FACE_OUTER_BOUND ( 'NONE', #132, .T. ) ;
#76 = APPROVAL_DATE_TIME ( #59, #214 ) ;
#77 = CARTESIAN_POINT ( 'NONE',  ( 8.379555213223518475E-15, 4.124339402320103632E-33, 2.399999999999999911 ) ) ;
#78 = APPROVAL_DATE_TIME ( #95, #205 ) ;
#79 = DIRECTION ( 'NONE',  ( -3.491481338843133355E-15, 1.215841905902890654E-16, -1.000000000000000000 ) ) ;
#80 = EDGE_CURVE ( 'NONE', #7, #7, #50, .T. ) ;
#81 = DIRECTION ( 'NONE',  ( 0.0000000000000000000, 1.000000000000000000, 0.0000000000000000000 ) ) ;
#82 = PERSON_AND_ORGANIZATION_ROLE ( 'design_supplier' ) ;
#83 = CARTESIAN_POINT ( 'NONE',  ( 3.386736898677838724E-14, 1.959999999999998632, 9.699999999999999289 ) ) ;
#84 = PERSON_AND_ORGANIZATION ( #231, #164 ) ;
#85 = MECHANICAL_CONTEXT ( 'NONE', #227, 'mechanical' ) ;
#86 = EDGE_LOOP ( 'NONE', ( #225 ) ) ;
#87 = CONICAL_SURFACE ( 'NONE', #179, 0.8349999999999999645, 0.2217440814658726000 ) ;
#88 = EDGE_LOOP ( 'NONE', ( #134 ) ) ;
#89 = ORIENTED_EDGE ( 'NONE', *, *, #105, .T. ) ;
#90 = CARTESIAN_POINT ( 'NONE',  ( 1.326762908760390423E-13, -4.653657836759941941E-15, 38.00000000000000000 ) ) ;
#91 = CYLINDRICAL_SURFACE ( 'NONE', #300, 1.999999999999997335 ) ;
#92 = EDGE_LOOP ( 'NONE', ( #131 ) ) ;
#93 = FACE_OUTER_BOUND ( 'NONE', #154, .T. ) ;
#94 = VERTEX_POINT ( 'NONE', #269 ) ;
#95 = DATE_AND_TIME ( #221, #48 ) ;
#96 = AXIS2_PLACEMENT_3D ( 'NONE', #144, #32, #174 ) ;
#97 = CARTESIAN_POINT ( 'NONE',  ( 1.326762908760390423E-13, 1.599999999999993205, 38.00000000000000000 ) ) ;
#98 = DIRECTION ( 'NONE',  ( -3.491481338843133355E-15, 1.215841905902890654E-16, -1.000000000000000000 ) ) ;
#99 = FACE_OUTER_BOUND ( 'NONE', #229, .T. ) ;
#100 = CARTESIAN_POINT ( 'NONE',  ( 1.103308103074430172E-14, 0.5499999999999997113, 3.160000000000000142 ) ) ;
#101 = CLOSED_SHELL ( 'NONE', ( #234, #34, #74, #10, #136, #146, #165, #45, #298 ) ) ;
#102 =( LENGTH_UNIT ( ) NAMED_UNIT ( * ) SI_UNIT ( .MILLI., .METRE. ) );
#103 = ORIENTED_EDGE ( 'NONE', *, *, #260, .F. ) ;
#104 = EDGE_LOOP ( 'NONE', ( #180 ) ) ;
#105 = EDGE_CURVE ( 'NONE', #94, #94, #158, .T. ) ;
#106 = CONICAL_SURFACE ( 'NONE', #280, 1.999999999999997780, 0.7853981633974516097 ) ;
#107 = ORIENTED_EDGE ( 'NONE', *, *, #64, .F. ) ;
#108 = CARTESIAN_POINT ( 'NONE',  ( 8.379555213223518475E-15, -3.252606517456513302E-16, 2.399999999999999911 ) ) ;
#109 = PLANE ( 'NONE',  #65 ) ;
#110 = AXIS2_PLACEMENT_3D ( 'NONE', #56, #98, #143 ) ;
#111 = FACE_OUTER_BOUND ( 'NONE', #160, .T. ) ;
#112 = CARTESIAN_POINT ( 'NONE',  ( 8.379555213223518475E-15, 0.5499999999999997113, 2.399999999999999911 ) ) ;
#113 = VERTEX_POINT ( 'NONE', #282 ) ;
#114 = DIRECTION ( 'NONE',  ( 0.0000000000000000000, -1.000000000000000000, 0.0000000000000000000 ) ) ;
#115 = APPLICATION_CONTEXT ( 'configuration controlled 3d designs of mechanical parts and assemblies' ) ;
#116 = VERTEX_POINT ( 'NONE', #97 ) ;
#117 = ADVANCED_BREP_SHAPE_REPRESENTATION ( '388805', ( #20, #19, #138 ), #197 ) ;
#118 = FACE_OUTER_BOUND ( 'NONE', #52, .T. ) ;
#119 = APPROVAL_ROLE ( '' ) ;
#120 = CYLINDRICAL_SURFACE ( 'NONE', #217, 0.5499999999999999334 ) ;
#121 = EDGE_CURVE ( 'NONE', #176, #176, #239, .T. ) ;
#122 = DIRECTION ( 'NONE',  ( -3.491481338843133355E-15, 1.224646799147353207E-16, -1.000000000000000000 ) ) ;
#123 = PERSON_AND_ORGANIZATION ( #231, #164 ) ;
#124 = FACE_OUTER_BOUND ( 'NONE', #104, .T. ) ;
#125 = PERSON_AND_ORGANIZATION_ROLE ( 'creator' ) ;
#126 = CARTESIAN_POINT ( 'NONE',  ( 0.0000000000000000000, 0.0000000000000000000, 0.0000000000000000000 ) ) ;
#127 = CARTESIAN_POINT ( 'NONE',  ( 1.312796983405018142E-13, 1.999999999999993117, 37.60000000000000142 ) ) ;
#128 = EDGE_CURVE ( 'NONE', #151, #151, #55, .T. ) ;
#129 = CIRCLE ( 'NONE', #224, 1.959999999999999964 ) ;
#130 = EDGE_LOOP ( 'NONE', ( #21 ) ) ;
#131 = ORIENTED_EDGE ( 'NONE', *, *, #279, .T. ) ;
#132 = EDGE_LOOP ( 'NONE', ( #107 ) ) ;
#133 = EDGE_LOOP ( 'NONE', ( #182 ) ) ;
#134 = ORIENTED_EDGE ( 'NONE', *, *, #183, .F. ) ;
#135 = CC_DESIGN_APPROVAL ( #4, ( #152 ) ) ;
#136 = ADVANCED_FACE ( 'NONE', ( #137, #3 ), #91, .T. ) ;
#137 = FACE_OUTER_BOUND ( 'NONE', #254, .T. ) ;
#138 = AXIS2_PLACEMENT_3D ( 'NONE', #126, #203, #167 ) ;
#139 = APPLICATION_PROTOCOL_DEFINITION ( 'international standard', 'config_control_design', 1994, #115 ) ;
#140 = CARTESIAN_POINT ( 'NONE',  ( 1.103308103074430172E-14, -4.176646365942710475E-16, 3.160000000000000142 ) ) ;
#141 = FACE_BOUND ( 'NONE', #278, .T. ) ;
#142 = CIRCLE ( 'NONE', #17, 0.5500000000000000444 ) ;
#143 = DIRECTION ( 'NONE',  ( 4.245089325443411538E-31, 1.000000000000000000, 1.215841905902890654E-16 ) ) ;
#144 = CARTESIAN_POINT ( 'NONE',  ( 1.312796983405018142E-13, -4.605024160523826591E-15, 37.60000000000000142 ) ) ;
#145 = DATE_TIME_ROLE ( 'creation_date' ) ;
#146 = ADVANCED_FACE ( 'NONE', ( #141, #61 ), #106, .T. ) ;
#147 = CARTESIAN_POINT ( 'NONE',  ( 1.312796983405018142E-13, -4.605024160523826591E-15, 37.60000000000000142 ) ) ;
#148 = CALENDAR_DATE ( 2021, 13, 12 ) ;
#149 = CIRCLE ( 'NONE', #262, 1.599999999999997646 ) ;
#150 = DIRECTION ( 'NONE',  ( -3.491481338843133355E-15, 1.215841905902890654E-16, -1.000000000000000000 ) ) ;
#151 = VERTEX_POINT ( 'NONE', #83 ) ;
#152 = PRODUCT_DEFINITION ( 'UNKNOWN', '', #53, #235 ) ;
#153 = LOCAL_TIME ( 11, 25, 54.00000000000000000, #15 ) ;
#154 = EDGE_LOOP ( 'NONE', ( #5 ) ) ;
#155 = AXIS2_PLACEMENT_3D ( 'NONE', #294, #37, #81 ) ;
#156 = LOCAL_TIME ( 11, 25, 54.00000000000000000, #38 ) ;
#157 = FACE_BOUND ( 'NONE', #133, .T. ) ;
#158 = CIRCLE ( 'NONE', #39, 0.5500000000000000444 ) ;
#159 = CC_DESIGN_PERSON_AND_ORGANIZATION_ASSIGNMENT ( #248, #177, ( #53 ) ) ;
#160 = EDGE_LOOP ( 'NONE', ( #228 ) ) ;
#161 = EDGE_LOOP ( 'NONE', ( #237 ) ) ;
#162 = CC_DESIGN_SECURITY_CLASSIFICATION ( #244, ( #53 ) ) ;
#163 = DIRECTION ( 'NONE',  ( -3.491481338843133355E-15, 1.215841905902890654E-16, -1.000000000000000000 ) ) ;
#164 = ORGANIZATION ( 'UNSPECIFIED', 'UNSPECIFIED', '' ) ;
#165 = ADVANCED_FACE ( 'NONE', ( #75 ), #216, .T. ) ;
#166 = FACE_OUTER_BOUND ( 'NONE', #252, .T. ) ;
#167 = DIRECTION ( 'NONE',  ( 1.000000000000000000, 0.0000000000000000000, 0.0000000000000000000 ) ) ;
#168 = DIRECTION ( 'NONE',  ( -4.275831445896958607E-31, -1.000000000000000000, -1.224646799147353207E-16 ) ) ;
#169 = CARTESIAN_POINT ( 'NONE',  ( 1.326762908760390423E-13, -4.653657836759941941E-15, 38.00000000000000000 ) ) ;
#170 = COORDINATED_UNIVERSAL_TIME_OFFSET ( 1, 0, .AHEAD. ) ;
#171 = AXIS2_PLACEMENT_3D ( 'NONE', #259, #210, #49 ) ;
#172 = CC_DESIGN_PERSON_AND_ORGANIZATION_ASSIGNMENT ( #71, #263, ( #246 ) ) ;
#173 = DIRECTION ( 'NONE',  ( -3.491481338843133355E-15, 1.215841905902890654E-16, -1.000000000000000000 ) ) ;
#174 = DIRECTION ( 'NONE',  ( 0.0000000000000000000, 1.000000000000000000, 0.0000000000000000000 ) ) ;
#175 = PERSON_AND_ORGANIZATION ( #231, #164 ) ;
#176 = VERTEX_POINT ( 'NONE', #62 ) ;
#177 = PERSON_AND_ORGANIZATION_ROLE ( 'creator' ) ;
#178 = EDGE_LOOP ( 'NONE', ( #44 ) ) ;
#179 = AXIS2_PLACEMENT_3D ( 'NONE', #140, #257, #114 ) ;
#180 = ORIENTED_EDGE ( 'NONE', *, *, #105, .F. ) ;
#181 = APPROVAL_PERSON_ORGANIZATION ( #123, #205, #119 ) ;
#182 = ORIENTED_EDGE ( 'NONE', *, *, #279, .F. ) ;
#183 = EDGE_CURVE ( 'NONE', #250, #250, #66, .T. ) ;
#184 = FACE_OUTER_BOUND ( 'NONE', #51, .T. ) ;
#185 = AXIS2_PLACEMENT_3D ( 'NONE', #54, #35, #168 ) ;
#186 = CARTESIAN_POINT ( 'NONE',  ( -2.137988955472277843E-31, 7.499055778425150378E-33, -6.123443742021198339E-17 ) ) ;
#187 = FACE_OUTER_BOUND ( 'NONE', #161, .T. ) ;
#188 = EDGE_CURVE ( 'NONE', #42, #42, #142, .T. ) ;
#189 = ORIENTED_EDGE ( 'NONE', *, *, #260, .T. ) ;
#190 = AXIS2_PLACEMENT_3D ( 'NONE', #108, #284, #206 ) ;
#191 = DIRECTION ( 'NONE',  ( -3.491481338843133355E-15, 1.215841905902890654E-16, -1.000000000000000000 ) ) ;
#192 = DIRECTION ( 'NONE',  ( -3.491481338843133355E-15, 1.215841905902890654E-16, -1.000000000000000000 ) ) ;
#193 = CALENDAR_DATE ( 2021, 13, 12 ) ;
#194 = ADVANCED_FACE ( 'NONE', ( #99 ), #195, .F. ) ;
#195 = PLANE ( 'NONE',  #185 ) ;
#196 = DATE_AND_TIME ( #297, #156 ) ;
#197 =( GEOMETRIC_REPRESENTATION_CONTEXT ( 3 ) GLOBAL_UNCERTAINTY_ASSIGNED_CONTEXT ( ( #232 ) ) GLOBAL_UNIT_ASSIGNED_CONTEXT ( ( #102, #295, #6 ) ) REPRESENTATION_CONTEXT ( 'NONE', 'WORKASPACE' ) );
#198 = DIRECTION ( 'NONE',  ( 7.703719777548953922E-31, 1.000000000000000000, 2.168404344971011826E-16 ) ) ;
#199 = DIRECTION ( 'NONE',  ( -4.245089325443411538E-31, -1.000000000000000000, -1.215841905902890654E-16 ) ) ;
#200 = EDGE_CURVE ( 'NONE', #275, #275, #129, .T. ) ;
#201 = DIRECTION ( 'NONE',  ( -3.491481338843133355E-15, 1.215841905902890654E-16, -1.000000000000000000 ) ) ;
#202 = PERSON_AND_ORGANIZATION ( #231, #164 ) ;
#203 = DIRECTION ( 'NONE',  ( 0.0000000000000000000, 0.0000000000000000000, 1.000000000000000000 ) ) ;
#204 = AXIS2_PLACEMENT_3D ( 'NONE', #186, #283, #68 ) ;
#205 = APPROVAL ( #33, 'UNSPECIFIED' ) ;
#206 = DIRECTION ( 'NONE',  ( 7.860938548519330173E-31, 1.000000000000000000, 2.212657494868376441E-16 ) ) ;
#207 = DIRECTION ( 'NONE',  ( -3.491481338843133355E-15, 1.215841905902890654E-16, -1.000000000000000000 ) ) ;
#208 = AXIS2_PLACEMENT_3D ( 'NONE', #58, #79, #40 ) ;
#209 = CARTESIAN_POINT ( 'NONE',  ( 3.386736898677838724E-14, 1.999999999999995337, 9.699999999999999289 ) ) ;
#210 = DIRECTION ( 'NONE',  ( -3.491481338843133355E-15, 1.215841905902890654E-16, -1.000000000000000000 ) ) ;
#211 = APPROVAL_STATUS ( 'not_yet_approved' ) ;
#212 = EDGE_LOOP ( 'NONE', ( #25 ) ) ;
#213 = PLANE ( 'NONE',  #110 ) ;
#214 = APPROVAL ( #57, 'UNSPECIFIED' ) ;
#215 = CARTESIAN_POINT ( 'NONE',  ( 3.386736898677838724E-14, 1.999999999999995337, 9.699999999999999289 ) ) ;
#216 = PLANE ( 'NONE',  #233 ) ;
#217 = AXIS2_PLACEMENT_3D ( 'NONE', #247, #289, #240 ) ;
#218 = DIRECTION ( 'NONE',  ( 0.0000000000000000000, 1.000000000000000000, 0.0000000000000000000 ) ) ;
#219 = PRODUCT_RELATED_PRODUCT_CATEGORY ( 'detail', '', ( #246 ) ) ;
#220 = CARTESIAN_POINT ( 'NONE',  ( 8.379555213223518475E-15, -3.252606517456513302E-16, 2.399999999999999911 ) ) ;
#221 = CALENDAR_DATE ( 2021, 13, 12 ) ;
#222 = LOCAL_TIME ( 11, 25, 54.00000000000000000, #170 ) ;
#223 = CARTESIAN_POINT ( 'NONE',  ( 8.379555213223518475E-15, 0.5499999999999997113, 2.399999999999999911 ) ) ;
#224 = AXIS2_PLACEMENT_3D ( 'NONE', #8, #150, #13 ) ;
#225 = ORIENTED_EDGE ( 'NONE', *, *, #121, .F. ) ;
#226 = ADVANCED_FACE ( 'NONE', ( #249, #93 ), #120, .T. ) ;
#227 = APPLICATION_CONTEXT ( 'configuration controlled 3d designs of mechanical parts and assemblies' ) ;
#228 = ORIENTED_EDGE ( 'NONE', *, *, #80, .T. ) ;
#229 = EDGE_LOOP ( 'NONE', ( #63 ) ) ;
#230 = CARTESIAN_POINT ( 'NONE',  ( 8.379555213223518475E-15, -3.252606517456513302E-16, 2.399999999999999911 ) ) ;
#231 = PERSON ( 'UNSPECIFIED', 'UNSPECIFIED', 'UNSPECIFIED', ('UNSPECIFIED'), ('UNSPECIFIED'), ('UNSPECIFIED') ) ;
#232 = UNCERTAINTY_MEASURE_WITH_UNIT (LENGTH_MEASURE( 1.000000000000000082E-05 ), #102, 'distance_accuracy_value', 'NONE');
#233 = AXIS2_PLACEMENT_3D ( 'NONE', #169, #293, #199 ) ;
#234 = ADVANCED_FACE ( 'NONE', ( #265, #266 ), #213, .T. ) ;
#235 = DESIGN_CONTEXT ( 'detailed design', #115, 'design' ) ;
#236 = PERSON_AND_ORGANIZATION ( #231, #164 ) ;
#237 = ORIENTED_EDGE ( 'NONE', *, *, #200, .F. ) ;
#238 = FACE_OUTER_BOUND ( 'NONE', #130, .T. ) ;
#239 = CIRCLE ( 'NONE', #204, 0.5499999999999997113 ) ;
#240 = DIRECTION ( 'NONE',  ( 4.275831445896958607E-31, 1.000000000000000000, 1.224646799147353207E-16 ) ) ;
#241 = APPROVAL_DATE_TIME ( #276, #4 ) ;
#242 = CARTESIAN_POINT ( 'NONE',  ( 8.379555213223518475E-15, -3.252606517456513302E-16, 2.399999999999999911 ) ) ;
#243 = SHAPE_DEFINITION_REPRESENTATION ( #285, #117 ) ;
#244 = SECURITY_CLASSIFICATION ( '', '', #41 ) ;
#245 = CC_DESIGN_DATE_AND_TIME_ASSIGNMENT ( #270, #145, ( #152 ) ) ;
#246 = PRODUCT ( '388805', '388805', '', ( #85 ) ) ;
#247 = CARTESIAN_POINT ( 'NONE',  ( 0.0000000000000000000, 0.0000000000000000000, 0.0000000000000000000 ) ) ;
#248 = PERSON_AND_ORGANIZATION ( #231, #164 ) ;
#249 = FACE_OUTER_BOUND ( 'NONE', #86, .T. ) ;
#250 = VERTEX_POINT ( 'NONE', #127 ) ;
#251 = PERSON_AND_ORGANIZATION ( #231, #164 ) ;
#252 = EDGE_LOOP ( 'NONE', ( #89 ) ) ;
#253 = ADVANCED_FACE ( 'NONE', ( #238 ), #11, .T. ) ;
#254 = EDGE_LOOP ( 'NONE', ( #299 ) ) ;
#255 = CC_DESIGN_PERSON_AND_ORGANIZATION_ASSIGNMENT ( #175, #267, ( #244 ) ) ;
#256 = LOCAL_TIME ( 11, 25, 54.00000000000000000, #36 ) ;
#257 = DIRECTION ( 'NONE',  ( 3.491481338843133355E-15, -1.215841905902890654E-16, 1.000000000000000000 ) ) ;
#258 = CARTESIAN_POINT ( 'NONE',  ( 3.386736898677838724E-14, -1.212825243054761399E-15, 9.699999999999999289 ) ) ;
#259 = CARTESIAN_POINT ( 'NONE',  ( 3.386736898677838724E-14, -1.212825243054761399E-15, 9.699999999999999289 ) ) ;
#260 = EDGE_CURVE ( 'NONE', #296, #296, #303, .T. ) ;
#261 = DIRECTION ( 'NONE',  ( 4.245089325443411538E-31, 1.000000000000000000, 1.215841905902890654E-16 ) ) ;
#262 = AXIS2_PLACEMENT_3D ( 'NONE', #90, #1, #73 ) ;
#263 = PERSON_AND_ORGANIZATION_ROLE ( 'design_owner' ) ;
#264 = FACE_OUTER_BOUND ( 'NONE', #29, .T. ) ;
#265 = FACE_OUTER_BOUND ( 'NONE', #92, .T. ) ;
#266 = FACE_BOUND ( 'NONE', #46, .T. ) ;
#267 = PERSON_AND_ORGANIZATION_ROLE ( 'classification_officer' ) ;
#268 = AXIS2_PLACEMENT_3D ( 'NONE', #77, #60, #31 ) ;
#269 = CARTESIAN_POINT ( 'NONE',  ( 8.379555213223518475E-15, 0.5499999999999997113, 2.399999999999999911 ) ) ;
#270 = DATE_AND_TIME ( #272, #153 ) ;
#271 = CARTESIAN_POINT ( 'NONE',  ( 8.379555213223518475E-15, -2.939152317953647106E-16, 2.399999999999999911 ) ) ;
#272 = CALENDAR_DATE ( 2021, 13, 12 ) ;
#273 = DIRECTION ( 'NONE',  ( 0.0000000000000000000, 1.000000000000000000, 0.0000000000000000000 ) ) ;
#274 = DATE_TIME_ROLE ( 'classification_date' ) ;
#275 = VERTEX_POINT ( 'NONE', #16 ) ;
#276 = DATE_AND_TIME ( #193, #256 ) ;
#277 = CC_DESIGN_APPROVAL ( #214, ( #53 ) ) ;
#278 = EDGE_LOOP ( 'NONE', ( #281 ) ) ;
#279 = EDGE_CURVE ( 'NONE', #113, #113, #43, .T. ) ;
#280 = AXIS2_PLACEMENT_3D ( 'NONE', #147, #173, #273 ) ;
#281 = ORIENTED_EDGE ( 'NONE', *, *, #64, .T. ) ;
#282 = CARTESIAN_POINT ( 'NONE',  ( 1.103308103074430172E-14, 0.8349999999999995204, 3.160000000000000142 ) ) ;
#283 = DIRECTION ( 'NONE',  ( -3.491481338843133355E-15, 1.224646799147353207E-16, -1.000000000000000000 ) ) ;
#284 = DIRECTION ( 'NONE',  ( -3.491481338843133355E-15, 1.215841905902890654E-16, -1.000000000000000000 ) ) ;
#285 = PRODUCT_DEFINITION_SHAPE ( 'NONE', 'NONE',  #152 ) ;
#286 = PLANE ( 'NONE',  #72 ) ;
#287 = CLOSED_SHELL ( 'NONE', ( #194, #226, #253 ) ) ;
#288 = APPROVAL_ROLE ( '' ) ;
#289 = DIRECTION ( 'NONE',  ( -3.491481338843133355E-15, 1.224646799147353207E-16, -1.000000000000000000 ) ) ;
#290 = APPROVAL_PERSON_ORGANIZATION ( #236, #4, #288 ) ;
#291 = DIRECTION ( 'NONE',  ( 0.0000000000000000000, 1.000000000000000000, 0.0000000000000000000 ) ) ;
#292 = AXIS2_PLACEMENT_3D ( 'NONE', #242, #201, #291 ) ;
#293 = DIRECTION ( 'NONE',  ( 3.491481338843133355E-15, -1.215841905902890654E-16, 1.000000000000000000 ) ) ;
#294 = CARTESIAN_POINT ( 'NONE',  ( 1.103308103074430172E-14, -4.176646365942710475E-16, 3.160000000000000142 ) ) ;
#295 =( NAMED_UNIT ( * ) PLANE_ANGLE_UNIT ( ) SI_UNIT ( $, .RADIAN. ) );
#296 = VERTEX_POINT ( 'NONE', #100 ) ;
#297 = CALENDAR_DATE ( 2021, 13, 12 ) ;
#298 = ADVANCED_FACE ( 'NONE', ( #118, #124 ), #14, .T. ) ;
#299 = ORIENTED_EDGE ( 'NONE', *, *, #183, .T. ) ;
#300 = AXIS2_PLACEMENT_3D ( 'NONE', #220, #192, #198 ) ;
#301 = CYLINDRICAL_SURFACE ( 'NONE', #190, 1.959999999999999964 ) ;
#302 = CC_DESIGN_DATE_AND_TIME_ASSIGNMENT ( #196, #274, ( #244 ) ) ;
#303 = CIRCLE ( 'NONE', #155, 0.5500000000000001554 ) ;
ENDSEC;
END-ISO-10303-21;
