ISO-10303-21;
HEADER;
FILE_DESCRIPTION (( 'STEP AP203' ),
    '1' );
FILE_NAME ('388804.step',
    '2021-12-13T10:25:54',
    ( '' ),
    ( '' ),
    'SwSTEP 2.0',
    'SolidWorks 2019',
    '' );
FILE_SCHEMA (( 'CONFIG_CONTROL_DESIGN' ));
ENDSEC;

DATA;
#1 = VERTEX_POINT ( 'NONE', #277 ) ;
#2 = CARTESIAN_POINT ( 'NONE',  ( 2.824604296077945336E-14, -1.960000000000000853, 8.089988236952311951 ) ) ;
#3 = ORIENTED_EDGE ( 'NONE', *, *, #302, .T. ) ;
#4 = EDGE_CURVE ( 'NONE', #108, #108, #42, .T. ) ;
#5 = PERSON_AND_ORGANIZATION ( #18, #13 ) ;
#6 = DIRECTION ( 'NONE',  ( 0.0000000000000000000, -1.000000000000000000, 0.0000000000000000000 ) ) ;
#7 = AXIS2_PLACEMENT_3D ( 'NONE', #243, #150, #48 ) ;
#8 = DIRECTION ( 'NONE',  ( 0.0000000000000000000, -1.000000000000000000, 0.0000000000000000000 ) ) ;
#9 = FACE_OUTER_BOUND ( 'NONE', #311, .T. ) ;
#10 = DATE_AND_TIME ( #208, #91 ) ;
#11 = SECURITY_CLASSIFICATION_LEVEL ( 'unclassified' ) ;
#12 = MANIFOLD_SOLID_BREP ( 'Corps-Déplacer/Copier4[2]', #244 ) ;
#13 = ORGANIZATION ( 'UNSPECIFIED', 'UNSPECIFIED', '' ) ;
#14 = COORDINATED_UNIVERSAL_TIME_OFFSET ( 1, 0, .AHEAD. ) ;
#15 = ORIENTED_EDGE ( 'NONE', *, *, #77, .F. ) ;
#16 = PERSON_AND_ORGANIZATION ( #18, #13 ) ;
#17 = EDGE_LOOP ( 'NONE', ( #205 ) ) ;
#18 = PERSON ( 'UNSPECIFIED', 'UNSPECIFIED', 'UNSPECIFIED', ('UNSPECIFIED'), ('UNSPECIFIED'), ('UNSPECIFIED') ) ;
#19 = DIRECTION ( 'NONE',  ( -3.491481338843133355E-15, 1.224646799147353207E-16, -1.000000000000000000 ) ) ;
#20 = DIRECTION ( 'NONE',  ( 0.0000000000000000000, -1.000000000000000000, 0.0000000000000000000 ) ) ;
#21 = EDGE_CURVE ( 'NONE', #301, #301, #257, .T. ) ;
#22 = DIRECTION ( 'NONE',  ( 3.491481338843133355E-15, -1.224191981463286756E-16, 1.000000000000000000 ) ) ;
#23 = DIRECTION ( 'NONE',  ( -4.275831445896958607E-31, -1.000000000000000000, -1.224646799147353207E-16 ) ) ;
#24 = PLANE ( 'NONE',  #165 ) ;
#25 = AXIS2_PLACEMENT_3D ( 'NONE', #136, #31, #191 ) ;
#26 = PRODUCT_DEFINITION_FORMATION_WITH_SPECIFIED_SOURCE ( 'ANY', '', #175, .NOT_KNOWN. ) ;
#27 = CARTESIAN_POINT ( 'NONE',  ( 1.082359215041370867E-14, -0.8350000000000000755, 3.099999999999998757 ) ) ;
#28 = FACE_OUTER_BOUND ( 'NONE', #104, .T. ) ;
#29 = CC_DESIGN_DATE_AND_TIME_ASSIGNMENT ( #183, #260, ( #147 ) ) ;
#30 = VERTEX_POINT ( 'NONE', #105 ) ;
#31 = DIRECTION ( 'NONE',  ( 3.491481338843133355E-15, -1.224191981463286756E-16, 1.000000000000000000 ) ) ;
#32 = CARTESIAN_POINT ( 'NONE',  ( 2.824604296077945336E-14, -9.920981801803856884E-16, 8.089988236952311951 ) ) ;
#33 = EDGE_LOOP ( 'NONE', ( #184 ) ) ;
#34 = APPLICATION_CONTEXT ( 'configuration controlled 3d designs of mechanical parts and assemblies' ) ;
#35 = CC_DESIGN_DATE_AND_TIME_ASSIGNMENT ( #38, #282, ( #151 ) ) ;
#36 = EDGE_LOOP ( 'NONE', ( #256 ) ) ;
#37 = DATE_AND_TIME ( #206, #287 ) ;
#38 = DATE_AND_TIME ( #187, #203 ) ;
#39 = ADVANCED_FACE ( 'NONE', ( #118, #210 ), #265, .F. ) ;
#40 = ORIENTED_EDGE ( 'NONE', *, *, #110, .T. ) ;
#41 = DIRECTION ( 'NONE',  ( 3.491481338843133355E-15, -1.224191981463286756E-16, 1.000000000000000000 ) ) ;
#42 = CIRCLE ( 'NONE', #190, 0.8349999999999996314 ) ;
#43 = FACE_OUTER_BOUND ( 'NONE', #36, .T. ) ;
#44 = AXIS2_PLACEMENT_3D ( 'NONE', #275, #202, #59 ) ;
#45 = PLANE ( 'NONE',  #291 ) ;
#46 = PLANE ( 'NONE',  #7 ) ;
#47 = ORIENTED_EDGE ( 'NONE', *, *, #302, .F. ) ;
#48 = DIRECTION ( 'NONE',  ( 4.274243458440464303E-31, 1.000000000000000000, 1.224191981463286756E-16 ) ) ;
#49 = AXIS2_PLACEMENT_3D ( 'NONE', #196, #266, #125 ) ;
#50 = CC_DESIGN_APPROVAL ( #293, ( #26 ) ) ;
#51 = ADVANCED_FACE ( 'NONE', ( #263, #312 ), #92, .F. ) ;
#52 = MECHANICAL_CONTEXT ( 'NONE', #34, 'mechanical' ) ;
#53 = VERTEX_POINT ( 'NONE', #2 ) ;
#54 = DESIGN_CONTEXT ( 'detailed design', #116, 'design' ) ;
#55 = VERTEX_POINT ( 'NONE', #223 ) ;
#56 = ADVANCED_FACE ( 'NONE', ( #28 ), #288, .F. ) ;
#57 = ORIENTED_EDGE ( 'NONE', *, *, #163, .F. ) ;
#58 = LOCAL_TIME ( 11, 25, 54.00000000000000000, #14 ) ;
#59 = DIRECTION ( 'NONE',  ( 1.000000000000000000, 0.0000000000000000000, 0.0000000000000000000 ) ) ;
#60 = DIRECTION ( 'NONE',  ( 0.0000000000000000000, -1.000000000000000000, 0.0000000000000000000 ) ) ;
#61 = PERSON_AND_ORGANIZATION_ROLE ( 'design_supplier' ) ;
#62 = PERSON_AND_ORGANIZATION ( #18, #13 ) ;
#63 = APPROVAL_DATE_TIME ( #230, #189 ) ;
#64 = PERSON_AND_ORGANIZATION_ROLE ( 'design_owner' ) ;
#65 = DIRECTION ( 'NONE',  ( 3.491481338843133355E-15, -1.224191981463286756E-16, 1.000000000000000000 ) ) ;
#66 = CARTESIAN_POINT ( 'NONE',  ( 7.681258945454894959E-15, 0.4999999999999996669, 2.200000000000000178 ) ) ;
#67 = DIRECTION ( 'NONE',  ( -3.491481338843133355E-15, 1.224646799147353207E-16, -1.000000000000000000 ) ) ;
#68 = AXIS2_PLACEMENT_3D ( 'NONE', #173, #95, #195 ) ;
#69 = FACE_OUTER_BOUND ( 'NONE', #161, .T. ) ;
#70 = DIRECTION ( 'NONE',  ( 4.275831445896958607E-31, 1.000000000000000000, 1.224646799147353207E-16 ) ) ;
#71 = CC_DESIGN_PERSON_AND_ORGANIZATION_ASSIGNMENT ( #162, #285, ( #147 ) ) ;
#72 = CYLINDRICAL_SURFACE ( 'NONE', #114, 0.4999999999999996669 ) ;
#73 = EDGE_LOOP ( 'NONE', ( #156 ) ) ;
#74 = PRODUCT_DEFINITION_SHAPE ( 'NONE', 'NONE',  #147 ) ;
#75 =( NAMED_UNIT ( * ) SI_UNIT ( $, .STERADIAN. ) SOLID_ANGLE_UNIT ( ) );
#76 = EDGE_LOOP ( 'NONE', ( #3 ) ) ;
#77 = EDGE_CURVE ( 'NONE', #137, #137, #232, .T. ) ;
#78 = CARTESIAN_POINT ( 'NONE',  ( 1.047444401652940953E-14, -3.689859016384390588E-16, 3.000000000000002665 ) ) ;
#79 = EDGE_LOOP ( 'NONE', ( #258 ) ) ;
#80 = ADVANCED_BREP_SHAPE_REPRESENTATION ( '388804', ( #221, #12, #44 ), #97 ) ;
#81 = EDGE_LOOP ( 'NONE', ( #214 ) ) ;
#82 = AXIS2_PLACEMENT_3D ( 'NONE', #182, #278, #60 ) ;
#83 = AXIS2_PLACEMENT_3D ( 'NONE', #94, #96, #23 ) ;
#84 = DIRECTION ( 'NONE',  ( 0.0000000000000000000, -1.000000000000000000, 0.0000000000000000000 ) ) ;
#85 = DIRECTION ( 'NONE',  ( 3.491481338843133355E-15, -1.224191981463286756E-16, 1.000000000000000000 ) ) ;
#86 = CC_DESIGN_APPROVAL ( #189, ( #147 ) ) ;
#87 = CALENDAR_DATE ( 2021, 13, 12 ) ;
#88 = SHAPE_DEFINITION_REPRESENTATION ( #74, #80 ) ;
#89 = CALENDAR_DATE ( 2021, 13, 12 ) ;
#90 = EDGE_LOOP ( 'NONE', ( #298 ) ) ;
#91 = LOCAL_TIME ( 11, 25, 54.00000000000000000, #119 ) ;
#92 = PLANE ( 'NONE',  #25 ) ;
#93 = EDGE_CURVE ( 'NONE', #159, #159, #215, .T. ) ;
#94 = CARTESIAN_POINT ( 'NONE',  ( -9.620986915887150220E-32, 3.374587943547111471E-33, -2.755560171223760929E-17 ) ) ;
#95 = DIRECTION ( 'NONE',  ( 3.491481338843133355E-15, -1.224191981463286756E-16, 1.000000000000000000 ) ) ;
#96 = DIRECTION ( 'NONE',  ( 3.491481338843133355E-15, -1.224646799147353207E-16, 1.000000000000000000 ) ) ;
#97 =( GEOMETRIC_REPRESENTATION_CONTEXT ( 3 ) GLOBAL_UNCERTAINTY_ASSIGNED_CONTEXT ( ( #109 ) ) GLOBAL_UNIT_ASSIGNED_CONTEXT ( ( #226, #201, #75 ) ) REPRESENTATION_CONTEXT ( 'NONE', 'WORKASPACE' ) );
#98 = FACE_BOUND ( 'NONE', #81, .T. ) ;
#99 = APPROVAL ( #166, 'UNSPECIFIED' ) ;
#100 = EDGE_LOOP ( 'NONE', ( #144 ) ) ;
#101 = DIRECTION ( 'NONE',  ( 3.491481338843133355E-15, -1.224191981463286756E-16, 1.000000000000000000 ) ) ;
#102 = CIRCLE ( 'NONE', #68, 1.999999999999996669 ) ;
#103 = ADVANCED_FACE ( 'NONE', ( #228, #9 ), #111, .T. ) ;
#104 = EDGE_LOOP ( 'NONE', ( #160 ) ) ;
#105 = CARTESIAN_POINT ( 'NONE',  ( 1.326762908760390423E-13, -1.600000000000002309, 38.00000000000000000 ) ) ;
#106 = CIRCLE ( 'NONE', #296, 0.4999999999999998890 ) ;
#107 = CIRCLE ( 'NONE', #139, 0.4999999999999996669 ) ;
#108 = VERTEX_POINT ( 'NONE', #27 ) ;
#109 = UNCERTAINTY_MEASURE_WITH_UNIT (LENGTH_MEASURE( 1.000000000000000082E-05 ), #226, 'distance_accuracy_value', 'NONE');
#110 = EDGE_CURVE ( 'NONE', #55, #55, #106, .T. ) ;
#111 = CYLINDRICAL_SURFACE ( 'NONE', #49, 1.999999999999997335 ) ;
#112 = COORDINATED_UNIVERSAL_TIME_OFFSET ( 1, 0, .AHEAD. ) ;
#113 = ADVANCED_FACE ( 'NONE', ( #316 ), #46, .F. ) ;
#114 = AXIS2_PLACEMENT_3D ( 'NONE', #267, #264, #145 ) ;
#115 = PERSON_AND_ORGANIZATION_ROLE ( 'classification_officer' ) ;
#116 = APPLICATION_CONTEXT ( 'configuration controlled 3d designs of mechanical parts and assemblies' ) ;
#117 = PERSON_AND_ORGANIZATION ( #18, #13 ) ;
#118 = FACE_OUTER_BOUND ( 'NONE', #236, .T. ) ;
#119 = COORDINATED_UNIVERSAL_TIME_OFFSET ( 1, 0, .AHEAD. ) ;
#120 = ORIENTED_EDGE ( 'NONE', *, *, #93, .F. ) ;
#121 = AXIS2_PLACEMENT_3D ( 'NONE', #66, #134, #167 ) ;
#122 = APPROVAL_PERSON_ORGANIZATION ( #16, #293, #185 ) ;
#123 = CARTESIAN_POINT ( 'NONE',  ( 1.326762908760390423E-13, -4.653657836759941941E-15, 38.00000000000000000 ) ) ;
#124 = CYLINDRICAL_SURFACE ( 'NONE', #227, 0.4999999999999997780 ) ;
#125 = DIRECTION ( 'NONE',  ( 0.0000000000000000000, -1.000000000000000000, 0.0000000000000000000 ) ) ;
#126 = CARTESIAN_POINT ( 'NONE',  ( 1.082359215041370867E-14, -3.812278214530708738E-16, 3.099999999999998757 ) ) ;
#127 = APPROVAL_PERSON_ORGANIZATION ( #306, #189, #141 ) ;
#128 = EDGE_LOOP ( 'NONE', ( #224 ) ) ;
#129 = DIRECTION ( 'NONE',  ( 0.0000000000000000000, -1.000000000000000000, 0.0000000000000000000 ) ) ;
#130 = CARTESIAN_POINT ( 'NONE',  ( 3.351822085289406759E-14, -1.999999999999997780, 9.599999999999997868 ) ) ;
#131 = CARTESIAN_POINT ( 'NONE',  ( 1.312796983405018142E-13, -2.000000000000002665, 37.60000000000000142 ) ) ;
#132 = AXIS2_PLACEMENT_3D ( 'NONE', #138, #65, #188 ) ;
#133 = CARTESIAN_POINT ( 'NONE',  ( 7.681258945454896537E-15, -0.5000000000000002220, 2.200000000000000622 ) ) ;
#134 = DIRECTION ( 'NONE',  ( 3.491481338843133355E-15, -1.224191981463286756E-16, 1.000000000000000000 ) ) ;
#135 = APPLICATION_PROTOCOL_DEFINITION ( 'international standard', 'config_control_design', 1994, #34 ) ;
#136 = CARTESIAN_POINT ( 'NONE',  ( 1.082359215041371182E-14, 0.5025015644561812156, 3.099999999999999645 ) ) ;
#137 = VERTEX_POINT ( 'NONE', #297 ) ;
#138 = CARTESIAN_POINT ( 'NONE',  ( 7.681258945454896537E-15, -2.710505431213753196E-16, 2.200000000000000622 ) ) ;
#139 = AXIS2_PLACEMENT_3D ( 'NONE', #153, #249, #178 ) ;
#140 = COORDINATED_UNIVERSAL_TIME_OFFSET ( 1, 0, .AHEAD. ) ;
#141 = APPROVAL_ROLE ( '' ) ;
#142 = AXIS2_PLACEMENT_3D ( 'NONE', #32, #272, #8 ) ;
#143 = ORIENTED_EDGE ( 'NONE', *, *, #172, .T. ) ;
#144 = ORIENTED_EDGE ( 'NONE', *, *, #77, .T. ) ;
#145 = DIRECTION ( 'NONE',  ( 0.0000000000000000000, -1.000000000000000000, 0.0000000000000000000 ) ) ;
#146 = CARTESIAN_POINT ( 'NONE',  ( 1.312796983405018142E-13, -4.604690157501411131E-15, 37.60000000000000142 ) ) ;
#147 = PRODUCT_DEFINITION ( 'UNKNOWN', '', #26, #54 ) ;
#148 = FACE_OUTER_BOUND ( 'NONE', #254, .T. ) ;
#149 = ORIENTED_EDGE ( 'NONE', *, *, #4, .F. ) ;
#150 = DIRECTION ( 'NONE',  ( -3.491481338843133355E-15, 1.224191981463286756E-16, -1.000000000000000000 ) ) ;
#151 = SECURITY_CLASSIFICATION ( '', '', #11 ) ;
#152 = PRODUCT_RELATED_PRODUCT_CATEGORY ( 'detail', '', ( #175 ) ) ;
#153 = CARTESIAN_POINT ( 'NONE',  ( -1.924197383177430044E-31, 6.749175887094222942E-33, -5.511120342447521859E-17 ) ) ;
#154 = FACE_OUTER_BOUND ( 'NONE', #321, .T. ) ;
#155 = AXIS2_PLACEMENT_3D ( 'NONE', #146, #41, #242 ) ;
#156 = ORIENTED_EDGE ( 'NONE', *, *, #314, .F. ) ;
#157 = CARTESIAN_POINT ( 'NONE',  ( 1.047444401652940007E-14, -4.336808689942017736E-16, 3.000000000000000000 ) ) ;
#158 = ADVANCED_FACE ( 'NONE', ( #171, #295 ), #45, .F. ) ;
#159 = VERTEX_POINT ( 'NONE', #199 ) ;
#160 = ORIENTED_EDGE ( 'NONE', *, *, #21, .F. ) ;
#161 = EDGE_LOOP ( 'NONE', ( #15 ) ) ;
#162 = PERSON_AND_ORGANIZATION ( #18, #13 ) ;
#163 = EDGE_CURVE ( 'NONE', #253, #253, #194, .T. ) ;
#164 = PERSON_AND_ORGANIZATION ( #18, #13 ) ;
#165 = AXIS2_PLACEMENT_3D ( 'NONE', #292, #217, #318 ) ;
#166 = APPROVAL_STATUS ( 'not_yet_approved' ) ;
#167 = DIRECTION ( 'NONE',  ( -4.274243458440464303E-31, -1.000000000000000000, -1.224191981463286756E-16 ) ) ;
#168 = DIRECTION ( 'NONE',  ( 3.491481338843133355E-15, -1.224191981463286756E-16, 1.000000000000000000 ) ) ;
#169 = AXIS2_PLACEMENT_3D ( 'NONE', #157, #237, #211 ) ;
#170 = AXIS2_PLACEMENT_3D ( 'NONE', #123, #22, #20 ) ;
#171 = FACE_OUTER_BOUND ( 'NONE', #33, .T. ) ;
#172 = EDGE_CURVE ( 'NONE', #30, #30, #207, .T. ) ;
#173 = CARTESIAN_POINT ( 'NONE',  ( 3.351822085289406759E-14, -1.176952609404206932E-15, 9.599999999999997868 ) ) ;
#174 = FACE_BOUND ( 'NONE', #181, .T. ) ;
#175 = PRODUCT ( '388804', '388804', '', ( #52 ) ) ;
#176 = DIRECTION ( 'NONE',  ( 3.491481338843133355E-15, -1.224191981463286756E-16, 1.000000000000000000 ) ) ;
#177 = EDGE_LOOP ( 'NONE', ( #143 ) ) ;
#178 = DIRECTION ( 'NONE',  ( 4.275831445896957731E-31, 1.000000000000000000, 1.224646799147353207E-16 ) ) ;
#179 = ORIENTED_EDGE ( 'NONE', *, *, #284, .T. ) ;
#180 = VERTEX_POINT ( 'NONE', #130 ) ;
#181 = EDGE_LOOP ( 'NONE', ( #303 ) ) ;
#182 = CARTESIAN_POINT ( 'NONE',  ( 1.082359215041370867E-14, -3.812278214530708738E-16, 3.099999999999998757 ) ) ;
#183 = DATE_AND_TIME ( #87, #58 ) ;
#184 = ORIENTED_EDGE ( 'NONE', *, *, #234, .F. ) ;
#185 = APPROVAL_ROLE ( '' ) ;
#186 = CIRCLE ( 'NONE', #142, 1.959999999999999964 ) ;
#187 = CALENDAR_DATE ( 2021, 13, 12 ) ;
#188 = DIRECTION ( 'NONE',  ( 0.0000000000000000000, -1.000000000000000000, 0.0000000000000000000 ) ) ;
#189 = APPROVAL ( #283, 'UNSPECIFIED' ) ;
#190 = AXIS2_PLACEMENT_3D ( 'NONE', #304, #85, #84 ) ;
#191 = DIRECTION ( 'NONE',  ( -4.274243458440464303E-31, -1.000000000000000000, -1.224191981463286756E-16 ) ) ;
#192 = FACE_OUTER_BOUND ( 'NONE', #76, .T. ) ;
#193 = CARTESIAN_POINT ( 'NONE',  ( 0.0000000000000000000, 0.0000000000000000000, 0.0000000000000000000 ) ) ;
#194 = CIRCLE ( 'NONE', #155, 1.999999999999997780 ) ;
#195 = DIRECTION ( 'NONE',  ( 0.0000000000000000000, -1.000000000000000000, 0.0000000000000000000 ) ) ;
#196 = CARTESIAN_POINT ( 'NONE',  ( 1.326762908760390423E-13, -4.653657836759941941E-15, 38.00000000000000000 ) ) ;
#197 = CYLINDRICAL_SURFACE ( 'NONE', #246, 1.959999999999999964 ) ;
#198 = AXIS2_PLACEMENT_3D ( 'NONE', #248, #218, #220 ) ;
#199 = CARTESIAN_POINT ( 'NONE',  ( 1.082359215041370867E-14, -0.5025015644561821038, 3.099999999999998757 ) ) ;
#200 = ADVANCED_FACE ( 'NONE', ( #247 ), #24, .T. ) ;
#201 =( NAMED_UNIT ( * ) PLANE_ANGLE_UNIT ( ) SI_UNIT ( $, .RADIAN. ) );
#202 = DIRECTION ( 'NONE',  ( 0.0000000000000000000, 0.0000000000000000000, 1.000000000000000000 ) ) ;
#203 = LOCAL_TIME ( 11, 25, 54.00000000000000000, #112 ) ;
#204 = ORIENTED_EDGE ( 'NONE', *, *, #163, .T. ) ;
#205 = ORIENTED_EDGE ( 'NONE', *, *, #21, .T. ) ;
#206 = CALENDAR_DATE ( 2021, 13, 12 ) ;
#207 = CIRCLE ( 'NONE', #170, 1.599999999999997646 ) ;
#208 = CALENDAR_DATE ( 2021, 13, 12 ) ;
#209 = PERSON_AND_ORGANIZATION ( #18, #13 ) ;
#210 = FACE_OUTER_BOUND ( 'NONE', #252, .T. ) ;
#211 = DIRECTION ( 'NONE',  ( -4.333255223781041089E-31, -1.000000000000000000, -1.224191981463286756E-16 ) ) ;
#212 = DIRECTION ( 'NONE',  ( -4.274243458440464303E-31, -1.000000000000000000, -1.224191981463286756E-16 ) ) ;
#213 = PLANE ( 'NONE',  #83 ) ;
#214 = ORIENTED_EDGE ( 'NONE', *, *, #172, .F. ) ;
#215 = CIRCLE ( 'NONE', #82, 0.5025015644561816597 ) ;
#216 = DIRECTION ( 'NONE',  ( 3.491481338843133355E-15, -1.224191981463286756E-16, 1.000000000000000000 ) ) ;
#217 = DIRECTION ( 'NONE',  ( 3.491481338843133355E-15, -1.224646799147353207E-16, 1.000000000000000000 ) ) ;
#218 = DIRECTION ( 'NONE',  ( -3.491481338843133355E-15, 1.224191981463286756E-16, -1.000000000000000000 ) ) ;
#219 = LOCAL_TIME ( 11, 25, 54.00000000000000000, #140 ) ;
#220 = DIRECTION ( 'NONE',  ( 0.0000000000000000000, 1.000000000000000000, 0.0000000000000000000 ) ) ;
#221 = MANIFOLD_SOLID_BREP ( 'Corps-Déplacer/Copier4[1]', #307 ) ;
#222 = ADVANCED_FACE ( 'NONE', ( #315 ), #213, .F. ) ;
#223 = CARTESIAN_POINT ( 'NONE',  ( 7.681258945454894959E-15, 0.4999999999999996669, 2.200000000000000178 ) ) ;
#224 = ORIENTED_EDGE ( 'NONE', *, *, #93, .T. ) ;
#225 = CARTESIAN_POINT ( 'NONE',  ( 3.351822085289406759E-14, -1.176952609404206932E-15, 9.599999999999997868 ) ) ;
#226 =( LENGTH_UNIT ( ) NAMED_UNIT ( * ) SI_UNIT ( .MILLI., .METRE. ) );
#227 = AXIS2_PLACEMENT_3D ( 'NONE', #193, #67, #70 ) ;
#228 = FACE_OUTER_BOUND ( 'NONE', #286, .T. ) ;
#229 = PERSON_AND_ORGANIZATION_ROLE ( 'creator' ) ;
#230 = DATE_AND_TIME ( #89, #219 ) ;
#231 = COORDINATED_UNIVERSAL_TIME_OFFSET ( 1, 0, .AHEAD. ) ;
#232 = CIRCLE ( 'NONE', #319, 1.959999999999999964 ) ;
#233 = CONICAL_SURFACE ( 'NONE', #198, 1.999999999999997780, 0.7853981633974516097 ) ;
#234 = EDGE_CURVE ( 'NONE', #180, #180, #102, .T. ) ;
#235 = APPROVAL_ROLE ( '' ) ;
#236 = EDGE_LOOP ( 'NONE', ( #120 ) ) ;
#237 = DIRECTION ( 'NONE',  ( 3.491481338843133355E-15, -1.224191981463286756E-16, 1.000000000000000000 ) ) ;
#238 = CARTESIAN_POINT ( 'NONE',  ( 7.681258945454894959E-15, -2.694222958124177006E-16, 2.200000000000000178 ) ) ;
#239 = ADVANCED_FACE ( 'NONE', ( #69, #192 ), #197, .T. ) ;
#240 = AXIS2_PLACEMENT_3D ( 'NONE', #78, #176, #273 ) ;
#241 = FACE_OUTER_BOUND ( 'NONE', #276, .T. ) ;
#242 = DIRECTION ( 'NONE',  ( 0.0000000000000000000, -1.000000000000000000, 0.0000000000000000000 ) ) ;
#243 = CARTESIAN_POINT ( 'NONE',  ( 1.326762908760390423E-13, -4.653657836759941941E-15, 38.00000000000000000 ) ) ;
#244 = CLOSED_SHELL ( 'NONE', ( #222, #261, #200 ) ) ;
#245 = ADVANCED_FACE ( 'NONE', ( #43, #290 ), #72, .T. ) ;
#246 = AXIS2_PLACEMENT_3D ( 'NONE', #289, #168, #129 ) ;
#247 = FACE_OUTER_BOUND ( 'NONE', #79, .T. ) ;
#248 = CARTESIAN_POINT ( 'NONE',  ( 1.312796983405018142E-13, -4.604690157501411131E-15, 37.60000000000000142 ) ) ;
#249 = DIRECTION ( 'NONE',  ( -3.491481338843133355E-15, 1.224646799147353207E-16, -1.000000000000000000 ) ) ;
#250 = CC_DESIGN_PERSON_AND_ORGANIZATION_ASSIGNMENT ( #209, #115, ( #151 ) ) ;
#251 = ORIENTED_EDGE ( 'NONE', *, *, #234, .T. ) ;
#252 = EDGE_LOOP ( 'NONE', ( #179 ) ) ;
#253 = VERTEX_POINT ( 'NONE', #131 ) ;
#254 = EDGE_LOOP ( 'NONE', ( #47 ) ) ;
#255 = VERTEX_POINT ( 'NONE', #299 ) ;
#256 = ORIENTED_EDGE ( 'NONE', *, *, #284, .F. ) ;
#257 = CIRCLE ( 'NONE', #132, 0.5000000000000000000 ) ;
#258 = ORIENTED_EDGE ( 'NONE', *, *, #110, .F. ) ;
#259 = APPROVAL_STATUS ( 'not_yet_approved' ) ;
#260 = DATE_TIME_ROLE ( 'creation_date' ) ;
#261 = ADVANCED_FACE ( 'NONE', ( #294, #241 ), #124, .T. ) ;
#262 = AXIS2_PLACEMENT_3D ( 'NONE', #126, #216, #269 ) ;
#263 = FACE_OUTER_BOUND ( 'NONE', #281, .T. ) ;
#264 = DIRECTION ( 'NONE',  ( 3.491481338843133355E-15, -1.224191981463286756E-16, 1.000000000000000000 ) ) ;
#265 = TOROIDAL_SURFACE ( 'NONE', #169, 2.500000000000000000, 2.000000000000000444 ) ;
#266 = DIRECTION ( 'NONE',  ( 3.491481338843133355E-15, -1.224191981463286756E-16, 1.000000000000000000 ) ) ;
#267 = CARTESIAN_POINT ( 'NONE',  ( 1.326762908760390423E-13, -4.653657836759941941E-15, 38.00000000000000000 ) ) ;
#268 = ADVANCED_FACE ( 'NONE', ( #148, #174 ), #323, .T. ) ;
#269 = DIRECTION ( 'NONE',  ( 0.0000000000000000000, -1.000000000000000000, 0.0000000000000000000 ) ) ;
#270 = CC_DESIGN_SECURITY_CLASSIFICATION ( #151, ( #26 ) ) ;
#271 = CC_DESIGN_PERSON_AND_ORGANIZATION_ASSIGNMENT ( #62, #229, ( #26 ) ) ;
#272 = DIRECTION ( 'NONE',  ( 3.491481338843133355E-15, -1.224191981463286756E-16, 1.000000000000000000 ) ) ;
#273 = DIRECTION ( 'NONE',  ( 0.0000000000000000000, -1.000000000000000000, 0.0000000000000000000 ) ) ;
#274 = CC_DESIGN_APPROVAL ( #99, ( #151 ) ) ;
#275 = CARTESIAN_POINT ( 'NONE',  ( 0.0000000000000000000, 0.0000000000000000000, 0.0000000000000000000 ) ) ;
#276 = EDGE_LOOP ( 'NONE', ( #40 ) ) ;
#277 = CARTESIAN_POINT ( 'NONE',  ( 2.137183397710476993E-32, 0.4999999999999996669, 6.121136532892404794E-18 ) ) ;
#278 = DIRECTION ( 'NONE',  ( 3.491481338843133355E-15, -1.224191981463286756E-16, 1.000000000000000000 ) ) ;
#279 = ADVANCED_FACE ( 'NONE', ( #98, #154 ), #233, .T. ) ;
#280 = APPROVAL_DATE_TIME ( #10, #99 ) ;
#281 = EDGE_LOOP ( 'NONE', ( #149 ) ) ;
#282 = DATE_TIME_ROLE ( 'classification_date' ) ;
#283 = APPROVAL_STATUS ( 'not_yet_approved' ) ;
#284 = EDGE_CURVE ( 'NONE', #255, #255, #308, .T. ) ;
#285 = PERSON_AND_ORGANIZATION_ROLE ( 'creator' ) ;
#286 = EDGE_LOOP ( 'NONE', ( #57 ) ) ;
#287 = LOCAL_TIME ( 11, 25, 54.00000000000000000, #231 ) ;
#288 = PLANE ( 'NONE',  #121 ) ;
#289 = CARTESIAN_POINT ( 'NONE',  ( 1.326762908760390423E-13, -4.653657836759941941E-15, 38.00000000000000000 ) ) ;
#290 = FACE_OUTER_BOUND ( 'NONE', #17, .T. ) ;
#291 = AXIS2_PLACEMENT_3D ( 'NONE', #322, #101, #212 ) ;
#292 = CARTESIAN_POINT ( 'NONE',  ( 7.681258945454894959E-15, 3.749399456654639914E-33, 2.200000000000000178 ) ) ;
#293 = APPROVAL ( #259, 'UNSPECIFIED' ) ;
#294 = FACE_OUTER_BOUND ( 'NONE', #73, .T. ) ;
#295 = FACE_BOUND ( 'NONE', #100, .T. ) ;
#296 = AXIS2_PLACEMENT_3D ( 'NONE', #238, #19, #320 ) ;
#297 = CARTESIAN_POINT ( 'NONE',  ( 3.351822085289406759E-14, -1.960000000000001297, 9.599999999999997868 ) ) ;
#298 = ORIENTED_EDGE ( 'NONE', *, *, #314, .T. ) ;
#299 = CARTESIAN_POINT ( 'NONE',  ( 1.047444401652940953E-14, -0.4999999999999997780, 3.000000000000002665 ) ) ;
#300 = DIRECTION ( 'NONE',  ( 3.491481338843133355E-15, -1.224191981463286756E-16, 1.000000000000000000 ) ) ;
#301 = VERTEX_POINT ( 'NONE', #133 ) ;
#302 = EDGE_CURVE ( 'NONE', #53, #53, #186, .T. ) ;
#303 = ORIENTED_EDGE ( 'NONE', *, *, #4, .T. ) ;
#304 = CARTESIAN_POINT ( 'NONE',  ( 1.082359215041370867E-14, -3.812278214530708738E-16, 3.099999999999998757 ) ) ;
#305 = CC_DESIGN_PERSON_AND_ORGANIZATION_ASSIGNMENT ( #117, #61, ( #26 ) ) ;
#306 = PERSON_AND_ORGANIZATION ( #18, #13 ) ;
#307 = CLOSED_SHELL ( 'NONE', ( #245, #39, #51, #268, #239, #158, #103, #279, #113, #56 ) ) ;
#308 = CIRCLE ( 'NONE', #240, 0.4999999999999994449 ) ;
#309 = APPROVAL_DATE_TIME ( #37, #293 ) ;
#310 = APPLICATION_PROTOCOL_DEFINITION ( 'international standard', 'config_control_design', 1994, #116 ) ;
#311 = EDGE_LOOP ( 'NONE', ( #251 ) ) ;
#312 = FACE_BOUND ( 'NONE', #128, .T. ) ;
#313 = APPROVAL_PERSON_ORGANIZATION ( #164, #99, #235 ) ;
#314 = EDGE_CURVE ( 'NONE', #1, #1, #107, .T. ) ;
#315 = FACE_OUTER_BOUND ( 'NONE', #90, .T. ) ;
#316 = FACE_OUTER_BOUND ( 'NONE', #177, .T. ) ;
#317 = CC_DESIGN_PERSON_AND_ORGANIZATION_ASSIGNMENT ( #5, #64, ( #175 ) ) ;
#318 = DIRECTION ( 'NONE',  ( -4.275831445896958607E-31, -1.000000000000000000, -1.224646799147353207E-16 ) ) ;
#319 = AXIS2_PLACEMENT_3D ( 'NONE', #225, #300, #6 ) ;
#320 = DIRECTION ( 'NONE',  ( 0.0000000000000000000, 1.000000000000000000, 0.0000000000000000000 ) ) ;
#321 = EDGE_LOOP ( 'NONE', ( #204 ) ) ;
#322 = CARTESIAN_POINT ( 'NONE',  ( 3.351822085289407390E-14, 1.999999999999995337, 9.599999999999999645 ) ) ;
#323 = CONICAL_SURFACE ( 'NONE', #262, 0.8349999999999996314, 0.2217440814658725445 ) ;
ENDSEC;
END-ISO-10303-21;
