ISO-10303-21;
HEADER;
FILE_DESCRIPTION (( 'STEP AP203' ),
    '1' );
FILE_NAME ('388803.step',
    '2021-12-13T10:25:53',
    ( '' ),
    ( '' ),
    'SwSTEP 2.0',
    'SolidWorks 2019',
    '' );
FILE_SCHEMA (( 'CONFIG_CONTROL_DESIGN' ));
ENDSEC;

DATA;
#1 = CARTESIAN_POINT ( 'NONE',  ( -1.710405810882582464E-31, 5.999295995763294823E-33, -4.898796942873845995E-17 ) ) ;
#2 = PERSON_AND_ORGANIZATION_ROLE ( 'design_owner' ) ;
#3 = VERTEX_POINT ( 'NONE', #31 ) ;
#4 = ORIENTED_EDGE ( 'NONE', *, *, #183, .T. ) ;
#5 = LOCAL_TIME ( 11, 25, 53.00000000000000000, #18 ) ;
#6 = MANIFOLD_SOLID_BREP ( 'Corps-Déplacer/Copier4[2]', #39 ) ;
#7 = COORDINATED_UNIVERSAL_TIME_OFFSET ( 1, 0, .AHEAD. ) ;
#8 = EDGE_LOOP ( 'NONE', ( #102 ) ) ;
#9 = EDGE_LOOP ( 'NONE', ( #209 ) ) ;
#10 = ORIENTED_EDGE ( 'NONE', *, *, #96, .T. ) ;
#11 = ORIENTED_EDGE ( 'NONE', *, *, #220, .F. ) ;
#12 = APPROVAL_STATUS ( 'not_yet_approved' ) ;
#13 = FACE_OUTER_BOUND ( 'NONE', #258, .T. ) ;
#14 = PRODUCT ( '388803', '388803', '', ( #111 ) ) ;
#15 = ADVANCED_FACE ( 'NONE', ( #311 ), #77, .T. ) ;
#16 =( NAMED_UNIT ( * ) PLANE_ANGLE_UNIT ( ) SI_UNIT ( $, .RADIAN. ) );
#17 = CARTESIAN_POINT ( 'NONE',  ( 3.316907271900976056E-14, 1.999999999999995337, 9.500000000000000000 ) ) ;
#18 = COORDINATED_UNIVERSAL_TIME_OFFSET ( 1, 0, .AHEAD. ) ;
#19 = DIRECTION ( 'NONE',  ( 0.0000000000000000000, -1.000000000000000000, 0.0000000000000000000 ) ) ;
#20 = AXIS2_PLACEMENT_3D ( 'NONE', #272, #126, #94 ) ;
#21 = CARTESIAN_POINT ( 'NONE',  ( 0.0000000000000000000, 0.0000000000000000000, 0.0000000000000000000 ) ) ;
#22 = AXIS2_PLACEMENT_3D ( 'NONE', #37, #285, #19 ) ;
#23 = DIRECTION ( 'NONE',  ( 0.0000000000000000000, -1.000000000000000000, 0.0000000000000000000 ) ) ;
#24 = PRODUCT_DEFINITION ( 'UNKNOWN', '', #35, #28 ) ;
#25 = CARTESIAN_POINT ( 'NONE',  ( 6.982962677686266711E-15, 0.4499999999999997335, 2.000000000000000000 ) ) ;
#26 = AXIS2_PLACEMENT_3D ( 'NONE', #69, #247, #146 ) ;
#27 = EDGE_LOOP ( 'NONE', ( #178 ) ) ;
#28 = DESIGN_CONTEXT ( 'detailed design', #159, 'design' ) ;
#29 = EDGE_LOOP ( 'NONE', ( #166 ) ) ;
#30 = PERSON_AND_ORGANIZATION ( #99, #196 ) ;
#31 = CARTESIAN_POINT ( 'NONE',  ( 1.326762908760390423E-13, -1.600000000000002309, 38.00000000000000000 ) ) ;
#32 = DATE_AND_TIME ( #104, #44 ) ;
#33 = ORIENTED_EDGE ( 'NONE', *, *, #273, .T. ) ;
#34 = ORIENTED_EDGE ( 'NONE', *, *, #127, .F. ) ;
#35 = PRODUCT_DEFINITION_FORMATION_WITH_SPECIFIED_SOURCE ( 'ANY', '', #14, .NOT_KNOWN. ) ;
#36 = FACE_BOUND ( 'NONE', #132, .T. ) ;
#37 = CARTESIAN_POINT ( 'NONE',  ( 9.426999614876463215E-15, -3.562679071643484125E-16, 2.700000000000001066 ) ) ;
#38 = PERSON_AND_ORGANIZATION ( #99, #196 ) ;
#39 = CLOSED_SHELL ( 'NONE', ( #157, #280, #15 ) ) ;
#40 = COORDINATED_UNIVERSAL_TIME_OFFSET ( 1, 0, .AHEAD. ) ;
#41 = APPROVAL_STATUS ( 'not_yet_approved' ) ;
#42 = FACE_OUTER_BOUND ( 'NONE', #185, .T. ) ;
#43 = EDGE_LOOP ( 'NONE', ( #253 ) ) ;
#44 = LOCAL_TIME ( 11, 25, 53.00000000000000000, #7 ) ;
#45 = CYLINDRICAL_SURFACE ( 'NONE', #276, 1.959999999999999964 ) ;
#46 = FACE_OUTER_BOUND ( 'NONE', #43, .T. ) ;
#47 = AXIS2_PLACEMENT_3D ( 'NONE', #17, #138, #114 ) ;
#48 = DIRECTION ( 'NONE',  ( 3.491481338843133355E-15, -1.217390914899601702E-16, 1.000000000000000000 ) ) ;
#49 = EDGE_LOOP ( 'NONE', ( #301 ) ) ;
#50 = AXIS2_PLACEMENT_3D ( 'NONE', #194, #210, #112 ) ;
#51 = EDGE_LOOP ( 'NONE', ( #268 ) ) ;
#52 = APPROVAL_ROLE ( '' ) ;
#53 = ORIENTED_EDGE ( 'NONE', *, *, #96, .F. ) ;
#54 = CARTESIAN_POINT ( 'NONE',  ( 1.326762908760390423E-13, -4.653657836759941941E-15, 38.00000000000000000 ) ) ;
#55 = CYLINDRICAL_SURFACE ( 'NONE', #121, 1.999999999999997335 ) ;
#56 = ADVANCED_BREP_SHAPE_REPRESENTATION ( '388803', ( #117, #6, #298 ), #304 ) ;
#57 = DIRECTION ( 'NONE',  ( -4.310172480332858299E-31, -1.000000000000000000, -1.217390914899601702E-16 ) ) ;
#58 = AXIS2_PLACEMENT_3D ( 'NONE', #83, #236, #289 ) ;
#59 = DIRECTION ( 'NONE',  ( 0.0000000000000000000, 0.0000000000000000000, 1.000000000000000000 ) ) ;
#60 = FACE_OUTER_BOUND ( 'NONE', #9, .T. ) ;
#61 = CIRCLE ( 'NONE', #58, 0.8350000000000000755 ) ;
#62 = CARTESIAN_POINT ( 'NONE',  ( 3.316907271900976688E-14, -1.184093729296077521E-15, 9.500000000000001776 ) ) ;
#63 = ORIENTED_EDGE ( 'NONE', *, *, #73, .F. ) ;
#64 = ADVANCED_FACE ( 'NONE', ( #105, #207 ), #55, .T. ) ;
#65 = DIRECTION ( 'NONE',  ( 3.491481338843133355E-15, -1.217390914899601456E-16, 1.000000000000000000 ) ) ;
#66 = APPROVAL_PERSON_ORGANIZATION ( #235, #110, #211 ) ;
#67 = VERTEX_POINT ( 'NONE', #25 ) ;
#68 = VERTEX_POINT ( 'NONE', #203 ) ;
#69 = CARTESIAN_POINT ( 'NONE',  ( 2.800163926706042077E-14, -1.003918441868196603E-15, 8.019988236952306337 ) ) ;
#70 = ADVANCED_FACE ( 'NONE', ( #309 ), #283, .F. ) ;
#71 = DIRECTION ( 'NONE',  ( 0.0000000000000000000, -1.000000000000000000, 0.0000000000000000000 ) ) ;
#72 = EDGE_LOOP ( 'NONE', ( #33 ) ) ;
#73 = EDGE_CURVE ( 'NONE', #68, #68, #224, .T. ) ;
#74 = CARTESIAN_POINT ( 'NONE',  ( 3.316907271900976688E-14, -1.960000000000001297, 9.500000000000001776 ) ) ;
#75 = EDGE_LOOP ( 'NONE', ( #275 ) ) ;
#76 = LOCAL_TIME ( 11, 25, 53.00000000000000000, #312 ) ;
#77 = PLANE ( 'NONE',  #147 ) ;
#78 = CC_DESIGN_DATE_AND_TIME_ASSIGNMENT ( #32, #137, ( #24 ) ) ;
#79 = DATE_AND_TIME ( #139, #76 ) ;
#80 = VERTEX_POINT ( 'NONE', #226 ) ;
#81 = FACE_OUTER_BOUND ( 'NONE', #320, .T. ) ;
#82 = EDGE_CURVE ( 'NONE', #67, #67, #122, .T. ) ;
#83 = CARTESIAN_POINT ( 'NONE',  ( 1.057918845669468712E-14, -3.964418073560346191E-16, 3.029999999999998028 ) ) ;
#84 = DIRECTION ( 'NONE',  ( -4.275831445896958607E-31, -1.000000000000000000, -1.224646799147353207E-16 ) ) ;
#85 = CC_DESIGN_APPROVAL ( #300, ( #24 ) ) ;
#86 = CIRCLE ( 'NONE', #317, 0.4500000000000000111 ) ;
#87 = DIRECTION ( 'NONE',  ( 0.0000000000000000000, -1.000000000000000000, 0.0000000000000000000 ) ) ;
#88 = APPROVAL_DATE_TIME ( #199, #93 ) ;
#89 = DIRECTION ( 'NONE',  ( 4.275831445896958607E-31, 1.000000000000000000, 1.224646799147353207E-16 ) ) ;
#90 = PERSON_AND_ORGANIZATION ( #99, #196 ) ;
#91 = CC_DESIGN_PERSON_AND_ORGANIZATION_ASSIGNMENT ( #90, #269, ( #284 ) ) ;
#92 = DIRECTION ( 'NONE',  ( 0.0000000000000000000, -1.000000000000000000, 0.0000000000000000000 ) ) ;
#93 = APPROVAL ( #41, 'UNSPECIFIED' ) ;
#94 = DIRECTION ( 'NONE',  ( -4.250497661449128079E-31, -1.000000000000000000, -1.217390914899601456E-16 ) ) ;
#95 = DIRECTION ( 'NONE',  ( 4.275831445896958607E-31, 1.000000000000000000, 1.224646799147353207E-16 ) ) ;
#96 = EDGE_CURVE ( 'NONE', #249, #249, #193, .T. ) ;
#97 = EDGE_LOOP ( 'NONE', ( #231 ) ) ;
#98 =( LENGTH_UNIT ( ) NAMED_UNIT ( * ) SI_UNIT ( .MILLI., .METRE. ) );
#99 = PERSON ( 'UNSPECIFIED', 'UNSPECIFIED', 'UNSPECIFIED', ('UNSPECIFIED'), ('UNSPECIFIED'), ('UNSPECIFIED') ) ;
#100 = AXIS2_PLACEMENT_3D ( 'NONE', #1, #176, #95 ) ;
#101 = AXIS2_PLACEMENT_3D ( 'NONE', #21, #319, #89 ) ;
#102 = ORIENTED_EDGE ( 'NONE', *, *, #273, .F. ) ;
#103 = ADVANCED_FACE ( 'NONE', ( #81, #192 ), #189, .T. ) ;
#104 = CALENDAR_DATE ( 2021, 13, 12 ) ;
#105 = FACE_OUTER_BOUND ( 'NONE', #108, .T. ) ;
#106 = DIRECTION ( 'NONE',  ( -3.491481338843133355E-15, 1.217390914899601456E-16, -1.000000000000000000 ) ) ;
#107 = CC_DESIGN_APPROVAL ( #93, ( #284 ) ) ;
#108 = EDGE_LOOP ( 'NONE', ( #182 ) ) ;
#109 = EDGE_LOOP ( 'NONE', ( #162 ) ) ;
#110 = APPROVAL ( #12, 'UNSPECIFIED' ) ;
#111 = MECHANICAL_CONTEXT ( 'NONE', #145, 'mechanical' ) ;
#112 = DIRECTION ( 'NONE',  ( 0.0000000000000000000, -1.000000000000000000, 0.0000000000000000000 ) ) ;
#113 = CALENDAR_DATE ( 2021, 13, 12 ) ;
#114 = DIRECTION ( 'NONE',  ( -4.250497661449128079E-31, -1.000000000000000000, -1.217390914899601456E-16 ) ) ;
#115 = APPROVAL_PERSON_ORGANIZATION ( #171, #93, #201 ) ;
#116 = ADVANCED_FACE ( 'NONE', ( #140, #60 ), #310, .F. ) ;
#117 = MANIFOLD_SOLID_BREP ( 'Corps-Déplacer/Copier4[1]', #265 ) ;
#118 = PLANE ( 'NONE',  #47 ) ;
#119 = CARTESIAN_POINT ( 'NONE',  ( 6.982962677686266711E-15, 0.4499999999999997335, 2.000000000000000000 ) ) ;
#120 = ADVANCED_FACE ( 'NONE', ( #172, #36 ), #118, .F. ) ;
#121 = AXIS2_PLACEMENT_3D ( 'NONE', #165, #167, #71 ) ;
#122 = CIRCLE ( 'NONE', #148, 0.4500000000000000111 ) ;
#123 = CARTESIAN_POINT ( 'NONE',  ( 3.316907271900976688E-14, -1.184093729296077521E-15, 9.500000000000001776 ) ) ;
#124 = FACE_OUTER_BOUND ( 'NONE', #229, .T. ) ;
#125 = PRODUCT_RELATED_PRODUCT_CATEGORY ( 'detail', '', ( #14 ) ) ;
#126 = DIRECTION ( 'NONE',  ( 3.491481338843133355E-15, -1.217390914899601456E-16, 1.000000000000000000 ) ) ;
#127 = EDGE_CURVE ( 'NONE', #323, #323, #61, .T. ) ;
#128 = DIRECTION ( 'NONE',  ( -3.491481338843133355E-15, 1.217390914899601702E-16, -1.000000000000000000 ) ) ;
#129 = CARTESIAN_POINT ( 'NONE',  ( 1.312796983405018142E-13, -2.000000000000002665, 37.60000000000000142 ) ) ;
#130 = EDGE_LOOP ( 'NONE', ( #11 ) ) ;
#131 = APPLICATION_PROTOCOL_DEFINITION ( 'international standard', 'config_control_design', 1994, #159 ) ;
#132 = EDGE_LOOP ( 'NONE', ( #133 ) ) ;
#133 = ORIENTED_EDGE ( 'NONE', *, *, #263, .T. ) ;
#134 = CONICAL_SURFACE ( 'NONE', #251, 1.999999999999997780, 0.7853981633974516097 ) ;
#135 = EDGE_LOOP ( 'NONE', ( #156 ) ) ;
#136 = AXIS2_PLACEMENT_3D ( 'NONE', #241, #314, #84 ) ;
#137 = DATE_TIME_ROLE ( 'creation_date' ) ;
#138 = DIRECTION ( 'NONE',  ( 3.491481338843133355E-15, -1.217390914899601456E-16, 1.000000000000000000 ) ) ;
#139 = CALENDAR_DATE ( 2021, 13, 12 ) ;
#140 = FACE_OUTER_BOUND ( 'NONE', #230, .T. ) ;
#141 = CC_DESIGN_PERSON_AND_ORGANIZATION_ASSIGNMENT ( #282, #2, ( #14 ) ) ;
#142 = AXIS2_PLACEMENT_3D ( 'NONE', #119, #65, #177 ) ;
#143 = PERSON_AND_ORGANIZATION_ROLE ( 'creator' ) ;
#144 = CARTESIAN_POINT ( 'NONE',  ( 6.982962677686266711E-15, -2.449293598294706414E-16, 2.000000000000000000 ) ) ;
#145 = APPLICATION_CONTEXT ( 'configuration controlled 3d designs of mechanical parts and assemblies' ) ;
#146 = DIRECTION ( 'NONE',  ( 0.0000000000000000000, -1.000000000000000000, 0.0000000000000000000 ) ) ;
#147 = AXIS2_PLACEMENT_3D ( 'NONE', #279, #188, #307 ) ;
#148 = AXIS2_PLACEMENT_3D ( 'NONE', #144, #244, #168 ) ;
#149 = PLANE ( 'NONE',  #20 ) ;
#150 = FACE_OUTER_BOUND ( 'NONE', #296, .T. ) ;
#151 = DIRECTION ( 'NONE',  ( 0.0000000000000000000, 1.000000000000000000, 0.0000000000000000000 ) ) ;
#152 = ORIENTED_EDGE ( 'NONE', *, *, #202, .F. ) ;
#153 = CC_DESIGN_APPROVAL ( #110, ( #35 ) ) ;
#154 = CIRCLE ( 'NONE', #277, 1.999999999999997780 ) ;
#155 = DIRECTION ( 'NONE',  ( 3.491481338843133355E-15, -1.217390914899601702E-16, 1.000000000000000000 ) ) ;
#156 = ORIENTED_EDGE ( 'NONE', *, *, #233, .T. ) ;
#157 = ADVANCED_FACE ( 'NONE', ( #13 ), #264, .F. ) ;
#158 = VERTEX_POINT ( 'NONE', #129 ) ;
#159 = APPLICATION_CONTEXT ( 'configuration controlled 3d designs of mechanical parts and assemblies' ) ;
#160 = APPROVAL_DATE_TIME ( #79, #300 ) ;
#161 = CC_DESIGN_PERSON_AND_ORGANIZATION_ASSIGNMENT ( #318, #315, ( #35 ) ) ;
#162 = ORIENTED_EDGE ( 'NONE', *, *, #82, .T. ) ;
#163 = LOCAL_TIME ( 11, 25, 53.00000000000000000, #261 ) ;
#164 = CARTESIAN_POINT ( 'NONE',  ( 3.316907271900976688E-14, -1.999999999999997780, 9.500000000000001776 ) ) ;
#165 = CARTESIAN_POINT ( 'NONE',  ( 1.326762908760390423E-13, -4.653657836759941941E-15, 38.00000000000000000 ) ) ;
#166 = ORIENTED_EDGE ( 'NONE', *, *, #82, .F. ) ;
#167 = DIRECTION ( 'NONE',  ( 3.491481338843133355E-15, -1.217390914899601702E-16, 1.000000000000000000 ) ) ;
#168 = DIRECTION ( 'NONE',  ( 0.0000000000000000000, 1.000000000000000000, 0.0000000000000000000 ) ) ;
#169 = PERSON_AND_ORGANIZATION ( #99, #196 ) ;
#170 = DIRECTION ( 'NONE',  ( 0.0000000000000000000, -1.000000000000000000, 0.0000000000000000000 ) ) ;
#171 = PERSON_AND_ORGANIZATION ( #99, #196 ) ;
#172 = FACE_OUTER_BOUND ( 'NONE', #130, .T. ) ;
#173 = APPROVAL_PERSON_ORGANIZATION ( #30, #300, #52 ) ;
#174 = DATE_AND_TIME ( #175, #5 ) ;
#175 = CALENDAR_DATE ( 2021, 13, 12 ) ;
#176 = DIRECTION ( 'NONE',  ( -3.491481338843133355E-15, 1.224646799147353207E-16, -1.000000000000000000 ) ) ;
#177 = DIRECTION ( 'NONE',  ( -4.250497661449128079E-31, -1.000000000000000000, -1.217390914899601456E-16 ) ) ;
#178 = ORIENTED_EDGE ( 'NONE', *, *, #127, .T. ) ;
#179 = ADVANCED_FACE ( 'NONE', ( #195, #291 ), #305, .T. ) ;
#180 = DIRECTION ( 'NONE',  ( 3.491481338843133355E-15, -1.217390914899601702E-16, 1.000000000000000000 ) ) ;
#181 = DIRECTION ( 'NONE',  ( 0.0000000000000000000, -1.000000000000000000, 0.0000000000000000000 ) ) ;
#182 = ORIENTED_EDGE ( 'NONE', *, *, #183, .F. ) ;
#183 = EDGE_CURVE ( 'NONE', #158, #158, #154, .T. ) ;
#184 = AXIS2_PLACEMENT_3D ( 'NONE', #204, #322, #92 ) ;
#185 = EDGE_LOOP ( 'NONE', ( #34 ) ) ;
#186 = CC_DESIGN_PERSON_AND_ORGANIZATION_ASSIGNMENT ( #38, #143, ( #35 ) ) ;
#187 = CARTESIAN_POINT ( 'NONE',  ( 0.0000000000000000000, 0.0000000000000000000, 0.0000000000000000000 ) ) ;
#188 = DIRECTION ( 'NONE',  ( 3.491481338843133355E-15, -1.224646799147353207E-16, 1.000000000000000000 ) ) ;
#189 = CYLINDRICAL_SURFACE ( 'NONE', #50, 0.4500000000000001221 ) ;
#190 = VERTEX_POINT ( 'NONE', #74 ) ;
#191 = CIRCLE ( 'NONE', #223, 1.959999999999999964 ) ;
#192 = FACE_OUTER_BOUND ( 'NONE', #135, .T. ) ;
#193 = CIRCLE ( 'NONE', #303, 0.4774128663098306524 ) ;
#194 = CARTESIAN_POINT ( 'NONE',  ( 1.326762908760390423E-13, -4.653657836759941941E-15, 38.00000000000000000 ) ) ;
#195 = FACE_OUTER_BOUND ( 'NONE', #8, .T. ) ;
#196 = ORGANIZATION ( 'UNSPECIFIED', 'UNSPECIFIED', '' ) ;
#197 = ADVANCED_FACE ( 'NONE', ( #270, #150 ), #134, .T. ) ;
#198 = CIRCLE ( 'NONE', #234, 1.999999999999996669 ) ;
#199 = DATE_AND_TIME ( #216, #259 ) ;
#200 = FACE_OUTER_BOUND ( 'NONE', #72, .T. ) ;
#201 = APPROVAL_ROLE ( '' ) ;
#202 = EDGE_CURVE ( 'NONE', #286, #286, #274, .T. ) ;
#203 = CARTESIAN_POINT ( 'NONE',  ( 9.426999614876463215E-15, -0.4500000000000006217, 2.700000000000001066 ) ) ;
#204 = CARTESIAN_POINT ( 'NONE',  ( 1.326762908760390423E-13, -4.653657836759941941E-15, 38.00000000000000000 ) ) ;
#205 = DIRECTION ( 'NONE',  ( 0.0000000000000000000, -1.000000000000000000, 0.0000000000000000000 ) ) ;
#206 = EDGE_LOOP ( 'NONE', ( #10 ) ) ;
#207 = FACE_OUTER_BOUND ( 'NONE', #51, .T. ) ;
#208 = AXIS2_PLACEMENT_3D ( 'NONE', #238, #215, #57 ) ;
#209 = ORIENTED_EDGE ( 'NONE', *, *, #73, .T. ) ;
#210 = DIRECTION ( 'NONE',  ( 3.491481338843133355E-15, -1.217390914899601702E-16, 1.000000000000000000 ) ) ;
#211 = APPROVAL_ROLE ( '' ) ;
#212 = CARTESIAN_POINT ( 'NONE',  ( 1.057918845669468712E-14, -3.964418073560346191E-16, 3.029999999999998028 ) ) ;
#213 = DATE_AND_TIME ( #113, #163 ) ;
#214 = DIRECTION ( 'NONE',  ( 3.491481338843133355E-15, -1.217390914899601702E-16, 1.000000000000000000 ) ) ;
#215 = DIRECTION ( 'NONE',  ( 3.491481338843133355E-15, -1.217390914899601702E-16, 1.000000000000000000 ) ) ;
#216 = CALENDAR_DATE ( 2021, 13, 12 ) ;
#217 = DIRECTION ( 'NONE',  ( 0.0000000000000000000, -1.000000000000000000, 0.0000000000000000000 ) ) ;
#218 = CIRCLE ( 'NONE', #26, 1.959999999999999964 ) ;
#219 = DIRECTION ( 'NONE',  ( 0.0000000000000000000, -1.000000000000000000, 0.0000000000000000000 ) ) ;
#220 = EDGE_CURVE ( 'NONE', #237, #237, #198, .T. ) ;
#221 = PLANE ( 'NONE',  #142 ) ;
#222 = CARTESIAN_POINT ( 'NONE',  ( 1.057918845669468712E-14, -0.4774128663098310410, 3.029999999999998028 ) ) ;
#223 = AXIS2_PLACEMENT_3D ( 'NONE', #62, #48, #219 ) ;
#224 = CIRCLE ( 'NONE', #22, 0.4500000000000002331 ) ;
#225 = FACE_OUTER_BOUND ( 'NONE', #97, .T. ) ;
#226 = CARTESIAN_POINT ( 'NONE',  ( 2.800163926706042077E-14, -1.960000000000000853, 8.019988236952306337 ) ) ;
#227 = CARTESIAN_POINT ( 'NONE',  ( 6.982962677686273021E-15, -0.4500000000000002331, 2.000000000000001776 ) ) ;
#228 = UNCERTAINTY_MEASURE_WITH_UNIT (LENGTH_MEASURE( 1.000000000000000082E-05 ), #98, 'distance_accuracy_value', 'NONE');
#229 = EDGE_LOOP ( 'NONE', ( #152 ) ) ;
#230 = EDGE_LOOP ( 'NONE', ( #53 ) ) ;
#231 = ORIENTED_EDGE ( 'NONE', *, *, #263, .F. ) ;
#232 = CIRCLE ( 'NONE', #184, 1.599999999999997646 ) ;
#233 = EDGE_CURVE ( 'NONE', #308, #308, #86, .T. ) ;
#234 = AXIS2_PLACEMENT_3D ( 'NONE', #123, #316, #23 ) ;
#235 = PERSON_AND_ORGANIZATION ( #99, #196 ) ;
#236 = DIRECTION ( 'NONE',  ( 3.491481338843133355E-15, -1.217390914899601702E-16, 1.000000000000000000 ) ) ;
#237 = VERTEX_POINT ( 'NONE', #164 ) ;
#238 = CARTESIAN_POINT ( 'NONE',  ( 9.426999614876461637E-15, -4.336808689942017736E-16, 2.700000000000000178 ) ) ;
#239 = CC_DESIGN_DATE_AND_TIME_ASSIGNMENT ( #174, #290, ( #284 ) ) ;
#240 = CARTESIAN_POINT ( 'NONE',  ( 1.057918845669468712E-14, -3.964418073560346191E-16, 3.029999999999998028 ) ) ;
#241 = CARTESIAN_POINT ( 'NONE',  ( -8.552029054412912320E-32, 2.999647997881647411E-33, -2.449398471436922997E-17 ) ) ;
#242 = SHAPE_DEFINITION_REPRESENTATION ( #292, #56 ) ;
#243 = CC_DESIGN_PERSON_AND_ORGANIZATION_ASSIGNMENT ( #169, #254, ( #24 ) ) ;
#244 = DIRECTION ( 'NONE',  ( -3.491481338843133355E-15, 1.224646799147353207E-16, -1.000000000000000000 ) ) ;
#245 = CYLINDRICAL_SURFACE ( 'NONE', #101, 0.4499999999999999001 ) ;
#246 = AXIS2_PLACEMENT_3D ( 'NONE', #212, #313, #87 ) ;
#247 = DIRECTION ( 'NONE',  ( 3.491481338843133355E-15, -1.217390914899601702E-16, 1.000000000000000000 ) ) ;
#248 = FACE_BOUND ( 'NONE', #206, .T. ) ;
#249 = VERTEX_POINT ( 'NONE', #222 ) ;
#250 = CC_DESIGN_SECURITY_CLASSIFICATION ( #284, ( #35 ) ) ;
#251 = AXIS2_PLACEMENT_3D ( 'NONE', #295, #128, #151 ) ;
#252 = CARTESIAN_POINT ( 'NONE',  ( 6.982962677686273021E-15, -2.710505431213761085E-16, 2.000000000000001776 ) ) ;
#253 = ORIENTED_EDGE ( 'NONE', *, *, #233, .F. ) ;
#254 = PERSON_AND_ORGANIZATION_ROLE ( 'creator' ) ;
#255 = ADVANCED_FACE ( 'NONE', ( #225, #200 ), #45, .T. ) ;
#256 =( NAMED_UNIT ( * ) SI_UNIT ( $, .STERADIAN. ) SOLID_ANGLE_UNIT ( ) );
#257 = ORIENTED_EDGE ( 'NONE', *, *, #202, .T. ) ;
#258 = EDGE_LOOP ( 'NONE', ( #257 ) ) ;
#259 = LOCAL_TIME ( 11, 25, 53.00000000000000000, #40 ) ;
#260 = AXIS2_PLACEMENT_3D ( 'NONE', #54, #106, #262 ) ;
#261 = COORDINATED_UNIVERSAL_TIME_OFFSET ( 1, 0, .AHEAD. ) ;
#262 = DIRECTION ( 'NONE',  ( 4.250497661449128079E-31, 1.000000000000000000, 1.217390914899601456E-16 ) ) ;
#263 = EDGE_CURVE ( 'NONE', #190, #190, #191, .T. ) ;
#264 = PLANE ( 'NONE',  #136 ) ;
#265 = CLOSED_SHELL ( 'NONE', ( #103, #116, #266, #179, #255, #120, #64, #197, #70, #288 ) ) ;
#266 = ADVANCED_FACE ( 'NONE', ( #42, #248 ), #149, .F. ) ;
#267 = CARTESIAN_POINT ( 'NONE',  ( 1.326762908760390423E-13, -4.653657836759941941E-15, 38.00000000000000000 ) ) ;
#268 = ORIENTED_EDGE ( 'NONE', *, *, #220, .T. ) ;
#269 = PERSON_AND_ORGANIZATION_ROLE ( 'classification_officer' ) ;
#270 = FACE_BOUND ( 'NONE', #49, .T. ) ;
#271 = FACE_OUTER_BOUND ( 'NONE', #109, .T. ) ;
#272 = CARTESIAN_POINT ( 'NONE',  ( 1.057918845669469344E-14, 0.4774128663098302638, 3.029999999999999805 ) ) ;
#273 = EDGE_CURVE ( 'NONE', #80, #80, #218, .T. ) ;
#274 = CIRCLE ( 'NONE', #100, 0.4499999999999997335 ) ;
#275 = ORIENTED_EDGE ( 'NONE', *, *, #293, .T. ) ;
#276 = AXIS2_PLACEMENT_3D ( 'NONE', #267, #294, #217 ) ;
#277 = AXIS2_PLACEMENT_3D ( 'NONE', #299, #155, #181 ) ;
#278 = DIRECTION ( 'NONE',  ( 1.000000000000000000, 0.0000000000000000000, 0.0000000000000000000 ) ) ;
#279 = CARTESIAN_POINT ( 'NONE',  ( 6.982962677686266711E-15, 3.374459510989176196E-33, 2.000000000000000000 ) ) ;
#280 = ADVANCED_FACE ( 'NONE', ( #124, #271 ), #245, .T. ) ;
#281 = APPLICATION_PROTOCOL_DEFINITION ( 'international standard', 'config_control_design', 1994, #145 ) ;
#282 = PERSON_AND_ORGANIZATION ( #99, #196 ) ;
#283 = PLANE ( 'NONE',  #260 ) ;
#284 = SECURITY_CLASSIFICATION ( '', '', #321 ) ;
#285 = DIRECTION ( 'NONE',  ( 3.491481338843133355E-15, -1.217390914899601702E-16, 1.000000000000000000 ) ) ;
#286 = VERTEX_POINT ( 'NONE', #306 ) ;
#287 = APPROVAL_STATUS ( 'not_yet_approved' ) ;
#288 = ADVANCED_FACE ( 'NONE', ( #46 ), #221, .F. ) ;
#289 = DIRECTION ( 'NONE',  ( 0.0000000000000000000, -1.000000000000000000, 0.0000000000000000000 ) ) ;
#290 = DATE_TIME_ROLE ( 'classification_date' ) ;
#291 = FACE_BOUND ( 'NONE', #27, .T. ) ;
#292 = PRODUCT_DEFINITION_SHAPE ( 'NONE', 'NONE',  #24 ) ;
#293 = EDGE_CURVE ( 'NONE', #3, #3, #232, .T. ) ;
#294 = DIRECTION ( 'NONE',  ( 3.491481338843133355E-15, -1.217390914899601702E-16, 1.000000000000000000 ) ) ;
#295 = CARTESIAN_POINT ( 'NONE',  ( 1.312796983405018142E-13, -4.604962200163957823E-15, 37.60000000000000142 ) ) ;
#296 = EDGE_LOOP ( 'NONE', ( #4 ) ) ;
#297 = APPROVAL_DATE_TIME ( #213, #110 ) ;
#298 = AXIS2_PLACEMENT_3D ( 'NONE', #187, #59, #278 ) ;
#299 = CARTESIAN_POINT ( 'NONE',  ( 1.312796983405018142E-13, -4.604962200163957823E-15, 37.60000000000000142 ) ) ;
#300 = APPROVAL ( #287, 'UNSPECIFIED' ) ;
#301 = ORIENTED_EDGE ( 'NONE', *, *, #293, .F. ) ;
#302 = CARTESIAN_POINT ( 'NONE',  ( 1.057918845669468712E-14, -0.8350000000000004086, 3.029999999999998028 ) ) ;
#303 = AXIS2_PLACEMENT_3D ( 'NONE', #240, #214, #170 ) ;
#304 =( GEOMETRIC_REPRESENTATION_CONTEXT ( 3 ) GLOBAL_UNCERTAINTY_ASSIGNED_CONTEXT ( ( #228 ) ) GLOBAL_UNIT_ASSIGNED_CONTEXT ( ( #98, #16, #256 ) ) REPRESENTATION_CONTEXT ( 'NONE', 'WORKASPACE' ) );
#305 = CONICAL_SURFACE ( 'NONE', #246, 0.8350000000000000755, 0.2217440814658726833 ) ;
#306 = CARTESIAN_POINT ( 'NONE',  ( 2.137183397710476993E-32, 0.4499999999999997335, 6.121136532892404794E-18 ) ) ;
#307 = DIRECTION ( 'NONE',  ( -4.275831445896958607E-31, -1.000000000000000000, -1.224646799147353207E-16 ) ) ;
#308 = VERTEX_POINT ( 'NONE', #227 ) ;
#309 = FACE_OUTER_BOUND ( 'NONE', #75, .T. ) ;
#310 = TOROIDAL_SURFACE ( 'NONE', #208, 2.450000000000000178, 2.000000000000000000 ) ;
#311 = FACE_OUTER_BOUND ( 'NONE', #29, .T. ) ;
#312 = COORDINATED_UNIVERSAL_TIME_OFFSET ( 1, 0, .AHEAD. ) ;
#313 = DIRECTION ( 'NONE',  ( 3.491481338843133355E-15, -1.217390914899601702E-16, 1.000000000000000000 ) ) ;
#314 = DIRECTION ( 'NONE',  ( 3.491481338843133355E-15, -1.224646799147353207E-16, 1.000000000000000000 ) ) ;
#315 = PERSON_AND_ORGANIZATION_ROLE ( 'design_supplier' ) ;
#316 = DIRECTION ( 'NONE',  ( 3.491481338843133355E-15, -1.217390914899601702E-16, 1.000000000000000000 ) ) ;
#317 = AXIS2_PLACEMENT_3D ( 'NONE', #252, #180, #205 ) ;
#318 = PERSON_AND_ORGANIZATION ( #99, #196 ) ;
#319 = DIRECTION ( 'NONE',  ( -3.491481338843133355E-15, 1.224646799147353207E-16, -1.000000000000000000 ) ) ;
#320 = EDGE_LOOP ( 'NONE', ( #63 ) ) ;
#321 = SECURITY_CLASSIFICATION_LEVEL ( 'unclassified' ) ;
#322 = DIRECTION ( 'NONE',  ( 3.491481338843133355E-15, -1.217390914899601702E-16, 1.000000000000000000 ) ) ;
#323 = VERTEX_POINT ( 'NONE', #302 ) ;
ENDSEC;
END-ISO-10303-21;
