ISO-10303-21;
HEADER;
FILE_DESCRIPTION (( 'STEP AP203' ),
    '1' );
FILE_NAME ('388802.step',
    '2021-12-13T10:25:52',
    ( '' ),
    ( '' ),
    'SwSTEP 2.0',
    'SolidWorks 2019',
    '' );
FILE_SCHEMA (( 'CONFIG_CONTROL_DESIGN' ));
ENDSEC;

DATA;
#1 = CARTESIAN_POINT ( 'NONE',  ( 2.779215038672983719E-14, 1.959999999999998632, 7.959988236952307616 ) ) ;
#2 = ORIENTED_EDGE ( 'NONE', *, *, #249, .F. ) ;
#3 = CARTESIAN_POINT ( 'NONE',  ( 1.326762908760390423E-13, 1.599999999999993205, 38.00000000000000000 ) ) ;
#4 = ADVANCED_FACE ( 'NONE', ( #7, #170 ), #304, .T. ) ;
#5 = AXIS2_PLACEMENT_3D ( 'NONE', #336, #256, #22 ) ;
#6 = APPROVAL_PERSON_ORGANIZATION ( #90, #253, #269 ) ;
#7 = FACE_OUTER_BOUND ( 'NONE', #43, .T. ) ;
#8 = APPROVAL ( #221, 'UNSPECIFIED' ) ;
#9 = PERSON_AND_ORGANIZATION ( #282, #133 ) ;
#10 = EDGE_LOOP ( 'NONE', ( #69 ) ) ;
#11 = DATE_TIME_ROLE ( 'creation_date' ) ;
#12 = ORIENTED_EDGE ( 'NONE', *, *, #149, .T. ) ;
#13 = COORDINATED_UNIVERSAL_TIME_OFFSET ( 1, 0, .AHEAD. ) ;
#14 = CARTESIAN_POINT ( 'NONE',  ( 8.379555213223518475E-15, -2.939152317953647106E-16, 2.399999999999999911 ) ) ;
#15 = FACE_BOUND ( 'NONE', #318, .T. ) ;
#16 = FACE_BOUND ( 'NONE', #91, .T. ) ;
#17 = ADVANCED_BREP_SHAPE_REPRESENTATION ( '388802', ( #23, #21, #292 ), #154 ) ;
#18 = AXIS2_PLACEMENT_3D ( 'NONE', #264, #107, #313 ) ;
#19 = DATE_AND_TIME ( #203, #177 ) ;
#20 = CARTESIAN_POINT ( 'NONE',  ( 1.326762908760390423E-13, -4.653657836759941941E-15, 38.00000000000000000 ) ) ;
#21 = MANIFOLD_SOLID_BREP ( 'Corps-Déplacer/Copier1[2]', #189 ) ;
#22 = DIRECTION ( 'NONE',  ( 4.275831445896959482E-31, 1.000000000000000000, 1.224646799147353454E-16 ) ) ;
#23 = MANIFOLD_SOLID_BREP ( 'Corps-Déplacer/Copier1[1]', #25 ) ;
#24 = DIRECTION ( 'NONE',  ( -3.491481338843133355E-15, 1.224646799147353207E-16, -1.000000000000000000 ) ) ;
#25 = CLOSED_SHELL ( 'NONE', ( #181, #156, #58, #138, #229, #131, #338, #334, #218, #4, #95 ) ) ;
#26 = LOCAL_TIME ( 11, 25, 52.00000000000000000, #13 ) ;
#27 = CARTESIAN_POINT ( 'NONE',  ( 1.036969957636410670E-14, 0.4783089375244193864, 2.970000000000000195 ) ) ;
#28 = VERTEX_POINT ( 'NONE', #3 ) ;
#29 = AXIS2_PLACEMENT_3D ( 'NONE', #36, #143, #270 ) ;
#30 = DIRECTION ( 'NONE',  ( -3.491481338843133355E-15, 1.224646799147353207E-16, -1.000000000000000000 ) ) ;
#31 = CC_DESIGN_APPROVAL ( #33, ( #263 ) ) ;
#32 = ORIENTED_EDGE ( 'NONE', *, *, #305, .T. ) ;
#33 = APPROVAL ( #276, 'UNSPECIFIED' ) ;
#34 = FACE_BOUND ( 'NONE', #61, .T. ) ;
#35 = EDGE_LOOP ( 'NONE', ( #160 ) ) ;
#36 = CARTESIAN_POINT ( 'NONE',  ( 1.326762908760390423E-13, -4.653657836759941941E-15, 38.00000000000000000 ) ) ;
#37 = CIRCLE ( 'NONE', #227, 1.999999999999996669 ) ;
#38 = ADVANCED_FACE ( 'NONE', ( #116, #65 ), #326, .T. ) ;
#39 = ORIENTED_EDGE ( 'NONE', *, *, #287, .T. ) ;
#40 = CALENDAR_DATE ( 2021, 13, 12 ) ;
#41 = EDGE_LOOP ( 'NONE', ( #135 ) ) ;
#42 = APPROVAL_DATE_TIME ( #272, #8 ) ;
#43 = EDGE_LOOP ( 'NONE', ( #290 ) ) ;
#44 = LOCAL_TIME ( 11, 25, 52.00000000000000000, #68 ) ;
#45 = FACE_OUTER_BOUND ( 'NONE', #41, .T. ) ;
#46 = DIRECTION ( 'NONE',  ( -4.275831445896958607E-31, -1.000000000000000000, -1.224646799147353207E-16 ) ) ;
#47 = DIRECTION ( 'NONE',  ( 3.491481338843133355E-15, -1.224646799147353207E-16, 1.000000000000000000 ) ) ;
#48 = CC_DESIGN_PERSON_AND_ORGANIZATION_ASSIGNMENT ( #223, #226, ( #263 ) ) ;
#49 = CARTESIAN_POINT ( 'NONE',  ( -7.483071192938671135E-32, 2.624708052216182667E-33, -2.143236771650084449E-17 ) ) ;
#50 = DIRECTION ( 'NONE',  ( 0.0000000000000000000, -1.000000000000000000, 0.0000000000000000000 ) ) ;
#51 = DIRECTION ( 'NONE',  ( -3.491481338843133355E-15, 1.224646799147353207E-16, -1.000000000000000000 ) ) ;
#52 = CIRCLE ( 'NONE', #161, 0.3999999999999997446 ) ;
#53 = FACE_OUTER_BOUND ( 'NONE', #294, .T. ) ;
#54 = CARTESIAN_POINT ( 'NONE',  ( 6.284666409917640040E-15, 0.3999999999999997446, 1.800000000000000044 ) ) ;
#55 = ORIENTED_EDGE ( 'NONE', *, *, #83, .F. ) ;
#56 = VERTEX_POINT ( 'NONE', #1 ) ;
#57 = ORIENTED_EDGE ( 'NONE', *, *, #305, .F. ) ;
#58 = ADVANCED_FACE ( 'NONE', ( #303, #96 ), #207, .F. ) ;
#59 = AXIS2_PLACEMENT_3D ( 'NONE', #327, #114, #166 ) ;
#60 = CARTESIAN_POINT ( 'NONE',  ( 8.379555213223518475E-15, 0.3999999999999997446, 2.399999999999999911 ) ) ;
#61 = EDGE_LOOP ( 'NONE', ( #163 ) ) ;
#62 = CC_DESIGN_PERSON_AND_ORGANIZATION_ASSIGNMENT ( #141, #120, ( #193 ) ) ;
#63 = EDGE_LOOP ( 'NONE', ( #187 ) ) ;
#64 = DATE_AND_TIME ( #297, #26 ) ;
#65 = FACE_OUTER_BOUND ( 'NONE', #245, .T. ) ;
#66 = AXIS2_PLACEMENT_3D ( 'NONE', #330, #97, #254 ) ;
#67 = DIRECTION ( 'NONE',  ( 0.0000000000000000000, 1.000000000000000000, 0.0000000000000000000 ) ) ;
#68 = COORDINATED_UNIVERSAL_TIME_OFFSET ( 1, 0, .AHEAD. ) ;
#69 = ORIENTED_EDGE ( 'NONE', *, *, #205, .T. ) ;
#70 = APPROVAL_ROLE ( '' ) ;
#71 = CIRCLE ( 'NONE', #66, 1.959999999999999964 ) ;
#72 = DIRECTION ( 'NONE',  ( 0.0000000000000000000, 1.000000000000000000, 0.0000000000000000000 ) ) ;
#73 = CC_DESIGN_PERSON_AND_ORGANIZATION_ASSIGNMENT ( #9, #293, ( #167 ) ) ;
#74 = CARTESIAN_POINT ( 'NONE',  ( 3.316907271900976056E-14, -1.163414459189985485E-15, 9.500000000000000000 ) ) ;
#75 = CIRCLE ( 'NONE', #262, 0.4000000000000000222 ) ;
#76 = APPLICATION_CONTEXT ( 'configuration controlled 3d designs of mechanical parts and assemblies' ) ;
#77 = CARTESIAN_POINT ( 'NONE',  ( 1.036969957636410670E-14, 9.848239633547490009E-33, 2.970000000000000195 ) ) ;
#78 = VERTEX_POINT ( 'NONE', #184 ) ;
#79 = DIRECTION ( 'NONE',  ( 3.491481338843133355E-15, -1.224646799147353207E-16, 1.000000000000000000 ) ) ;
#80 = CIRCLE ( 'NONE', #267, 0.3999999999999999667 ) ;
#81 = VERTEX_POINT ( 'NONE', #180 ) ;
#82 = EDGE_LOOP ( 'NONE', ( #238 ) ) ;
#83 = EDGE_CURVE ( 'NONE', #339, #339, #86, .T. ) ;
#84 = CARTESIAN_POINT ( 'NONE',  ( 6.284666409917640040E-15, 0.3999999999999997446, 1.800000000000000044 ) ) ;
#85 = APPROVAL_PERSON_ORGANIZATION ( #117, #8, #93 ) ;
#86 = CIRCLE ( 'NONE', #215, 0.4783089375244197194 ) ;
#87 = DIRECTION ( 'NONE',  ( 1.000000000000000000, 0.0000000000000000000, 0.0000000000000000000 ) ) ;
#88 = APPROVAL_PERSON_ORGANIZATION ( #230, #33, #70 ) ;
#89 = EDGE_LOOP ( 'NONE', ( #185 ) ) ;
#90 = PERSON_AND_ORGANIZATION ( #282, #133 ) ;
#91 = EDGE_LOOP ( 'NONE', ( #55 ) ) ;
#92 = CARTESIAN_POINT ( 'NONE',  ( 8.379555213223518475E-15, -4.336808689942017736E-16, 2.399999999999999911 ) ) ;
#93 = APPROVAL_ROLE ( '' ) ;
#94 = DIRECTION ( 'NONE',  ( 4.336184387722548362E-31, 1.000000000000000000, 1.224646799147353207E-16 ) ) ;
#95 = ADVANCED_FACE ( 'NONE', ( #140 ), #248, .F. ) ;
#96 = FACE_OUTER_BOUND ( 'NONE', #288, .T. ) ;
#97 = DIRECTION ( 'NONE',  ( -3.491481338843133355E-15, 1.224646799147353207E-16, -1.000000000000000000 ) ) ;
#98 = AXIS2_PLACEMENT_3D ( 'NONE', #186, #132, #209 ) ;
#99 = EDGE_CURVE ( 'NONE', #260, #260, #75, .T. ) ;
#100 = SHAPE_DEFINITION_REPRESENTATION ( #129, #17 ) ;
#101 = DIRECTION ( 'NONE',  ( -3.491481338843133355E-15, 1.224646799147353207E-16, -1.000000000000000000 ) ) ;
#102 = SECURITY_CLASSIFICATION_LEVEL ( 'unclassified' ) ;
#103 = CARTESIAN_POINT ( 'NONE',  ( 6.284666409917640040E-15, 2.999519565323711795E-33, 1.800000000000000044 ) ) ;
#104 = FACE_OUTER_BOUND ( 'NONE', #301, .T. ) ;
#105 = CIRCLE ( 'NONE', #343, 1.599999999999997646 ) ;
#106 = FACE_OUTER_BOUND ( 'NONE', #191, .T. ) ;
#107 = DIRECTION ( 'NONE',  ( -3.491481338843133355E-15, 1.224646799147353207E-16, -1.000000000000000000 ) ) ;
#108 = CC_DESIGN_DATE_AND_TIME_ASSIGNMENT ( #247, #11, ( #167 ) ) ;
#109 = CARTESIAN_POINT ( 'NONE',  ( 2.137183397710481372E-32, 0.3999999999999997446, 6.121136532892404794E-18 ) ) ;
#110 = VERTEX_POINT ( 'NONE', #84 ) ;
#111 = EDGE_LOOP ( 'NONE', ( #39 ) ) ;
#112 = DIRECTION ( 'NONE',  ( 0.0000000000000000000, 0.0000000000000000000, 1.000000000000000000 ) ) ;
#113 = ORIENTED_EDGE ( 'NONE', *, *, #249, .T. ) ;
#114 = DIRECTION ( 'NONE',  ( -3.491481338843133355E-15, 1.224646799147353207E-16, -1.000000000000000000 ) ) ;
#115 = COORDINATED_UNIVERSAL_TIME_OFFSET ( 1, 0, .AHEAD. ) ;
#116 = FACE_OUTER_BOUND ( 'NONE', #320, .T. ) ;
#117 = PERSON_AND_ORGANIZATION ( #282, #133 ) ;
#118 = AXIS2_PLACEMENT_3D ( 'NONE', #257, #24, #125 ) ;
#119 = CARTESIAN_POINT ( 'NONE',  ( 1.326762908760390423E-13, 1.199807826129477602E-32, 38.00000000000000000 ) ) ;
#120 = PERSON_AND_ORGANIZATION_ROLE ( 'creator' ) ;
#121 = CARTESIAN_POINT ( 'NONE',  ( 6.284666409917640040E-15, 2.999519565323711795E-33, 1.800000000000000044 ) ) ;
#122 = FACE_BOUND ( 'NONE', #240, .T. ) ;
#123 = CIRCLE ( 'NONE', #18, 0.3999999999999999667 ) ;
#124 = CYLINDRICAL_SURFACE ( 'NONE', #5, 1.999999999999997335 ) ;
#125 = DIRECTION ( 'NONE',  ( 0.0000000000000000000, 1.000000000000000000, 0.0000000000000000000 ) ) ;
#126 = CC_DESIGN_PERSON_AND_ORGANIZATION_ASSIGNMENT ( #219, #246, ( #235 ) ) ;
#127 = CONICAL_SURFACE ( 'NONE', #309, 1.959999999999999520, 0.2217440814658727943 ) ;
#128 = CYLINDRICAL_SURFACE ( 'NONE', #233, 1.959999999999999964 ) ;
#129 = PRODUCT_DEFINITION_SHAPE ( 'NONE', 'NONE',  #167 ) ;
#130 = CARTESIAN_POINT ( 'NONE',  ( 3.316907271900976056E-14, 1.999999999999995337, 9.500000000000000000 ) ) ;
#131 = ADVANCED_FACE ( 'NONE', ( #15, #106 ), #127, .T. ) ;
#132 = DIRECTION ( 'NONE',  ( -3.491481338843133355E-15, 1.224646799147353207E-16, -1.000000000000000000 ) ) ;
#133 = ORGANIZATION ( 'UNSPECIFIED', 'UNSPECIFIED', '' ) ;
#134 = DIRECTION ( 'NONE',  ( -3.491481338843133355E-15, 1.224646799147353207E-16, -1.000000000000000000 ) ) ;
#135 = ORIENTED_EDGE ( 'NONE', *, *, #99, .T. ) ;
#136 =( NAMED_UNIT ( * ) SI_UNIT ( $, .STERADIAN. ) SOLID_ANGLE_UNIT ( ) );
#137 = EDGE_LOOP ( 'NONE', ( #32 ) ) ;
#138 = ADVANCED_FACE ( 'NONE', ( #122, #175 ), #329, .T. ) ;
#139 = APPROVAL_STATUS ( 'not_yet_approved' ) ;
#140 = FACE_OUTER_BOUND ( 'NONE', #89, .T. ) ;
#141 = PERSON_AND_ORGANIZATION ( #282, #133 ) ;
#142 = AXIS2_PLACEMENT_3D ( 'NONE', #280, #144, #277 ) ;
#143 = DIRECTION ( 'NONE',  ( -3.491481338843133355E-15, 1.224646799147353207E-16, -1.000000000000000000 ) ) ;
#144 = DIRECTION ( 'NONE',  ( -3.491481338843133355E-15, 1.224646799147353207E-16, -1.000000000000000000 ) ) ;
#145 = EDGE_CURVE ( 'NONE', #56, #56, #183, .T. ) ;
#146 = DIRECTION ( 'NONE',  ( -4.275831445896958607E-31, -1.000000000000000000, -1.224646799147353207E-16 ) ) ;
#147 = DIRECTION ( 'NONE',  ( 0.0000000000000000000, 1.000000000000000000, 0.0000000000000000000 ) ) ;
#148 = AXIS2_PLACEMENT_3D ( 'NONE', #152, #214, #155 ) ;
#149 = EDGE_CURVE ( 'NONE', #28, #28, #105, .T. ) ;
#150 = DATE_TIME_ROLE ( 'classification_date' ) ;
#151 = DIRECTION ( 'NONE',  ( 3.491481338843133355E-15, -1.224646799147353207E-16, 1.000000000000000000 ) ) ;
#152 = CARTESIAN_POINT ( 'NONE',  ( 9.915327516933671420E-15, -3.477828728746371718E-16, 2.839862669928808536 ) ) ;
#153 = CC_DESIGN_APPROVAL ( #8, ( #193 ) ) ;
#154 =( GEOMETRIC_REPRESENTATION_CONTEXT ( 3 ) GLOBAL_UNCERTAINTY_ASSIGNED_CONTEXT ( ( #243 ) ) GLOBAL_UNIT_ASSIGNED_CONTEXT ( ( #342, #159, #136 ) ) REPRESENTATION_CONTEXT ( 'NONE', 'WORKASPACE' ) );
#155 = DIRECTION ( 'NONE',  ( 0.0000000000000000000, 1.000000000000000000, 0.0000000000000000000 ) ) ;
#156 = ADVANCED_FACE ( 'NONE', ( #306, #45 ), #231, .T. ) ;
#157 = DIRECTION ( 'NONE',  ( 4.275831445896958607E-31, 1.000000000000000000, 1.224646799147353207E-16 ) ) ;
#158 = ORIENTED_EDGE ( 'NONE', *, *, #145, .T. ) ;
#159 =( NAMED_UNIT ( * ) PLANE_ANGLE_UNIT ( ) SI_UNIT ( $, .RADIAN. ) );
#160 = ORIENTED_EDGE ( 'NONE', *, *, #162, .T. ) ;
#161 = AXIS2_PLACEMENT_3D ( 'NONE', #234, #30, #212 ) ;
#162 = EDGE_CURVE ( 'NONE', #236, #236, #37, .T. ) ;
#163 = ORIENTED_EDGE ( 'NONE', *, *, #205, .F. ) ;
#164 = AXIS2_PLACEMENT_3D ( 'NONE', #92, #194, #94 ) ;
#165 = APPROVAL_DATE_TIME ( #64, #253 ) ;
#166 = DIRECTION ( 'NONE',  ( 4.275831445896958607E-31, 1.000000000000000000, 1.224646799147353207E-16 ) ) ;
#167 = PRODUCT_DEFINITION ( 'UNKNOWN', '', #193, #295 ) ;
#168 = ORIENTED_EDGE ( 'NONE', *, *, #242, .T. ) ;
#169 = CALENDAR_DATE ( 2021, 13, 12 ) ;
#170 = FACE_BOUND ( 'NONE', #217, .T. ) ;
#171 = DATE_AND_TIME ( #174, #324 ) ;
#172 = DIRECTION ( 'NONE',  ( 0.0000000000000000000, 1.000000000000000000, 0.0000000000000000000 ) ) ;
#173 = CARTESIAN_POINT ( 'NONE',  ( 2.779215038672983719E-14, -9.748174115634227252E-16, 7.959988236952307616 ) ) ;
#174 = CALENDAR_DATE ( 2021, 13, 12 ) ;
#175 = FACE_OUTER_BOUND ( 'NONE', #63, .T. ) ;
#176 = DIRECTION ( 'NONE',  ( 3.491481338843133355E-15, -1.224646799147353207E-16, 1.000000000000000000 ) ) ;
#177 = LOCAL_TIME ( 11, 25, 52.00000000000000000, #255 ) ;
#178 = CC_DESIGN_PERSON_AND_ORGANIZATION_ASSIGNMENT ( #190, #302, ( #193 ) ) ;
#179 = FACE_OUTER_BOUND ( 'NONE', #82, .T. ) ;
#180 = CARTESIAN_POINT ( 'NONE',  ( 1.312796983405018142E-13, 1.999999999999993117, 37.60000000000000142 ) ) ;
#181 = ADVANCED_FACE ( 'NONE', ( #251 ), #232, .F. ) ;
#182 = VERTEX_POINT ( 'NONE', #284 ) ;
#183 = CIRCLE ( 'NONE', #279, 1.959999999999999520 ) ;
#184 = CARTESIAN_POINT ( 'NONE',  ( 1.036969957636410670E-14, 0.8349999999999996314, 2.970000000000000195 ) ) ;
#185 = ORIENTED_EDGE ( 'NONE', *, *, #149, .F. ) ;
#186 = CARTESIAN_POINT ( 'NONE',  ( 1.312796983405018142E-13, -4.604671964794047724E-15, 37.60000000000000142 ) ) ;
#187 = ORIENTED_EDGE ( 'NONE', *, *, #83, .T. ) ;
#188 = PLANE ( 'NONE',  #341 ) ;
#189 = CLOSED_SHELL ( 'NONE', ( #213, #38, #192 ) ) ;
#190 = PERSON_AND_ORGANIZATION ( #282, #133 ) ;
#191 = EDGE_LOOP ( 'NONE', ( #158 ) ) ;
#192 = ADVANCED_FACE ( 'NONE', ( #179 ), #333, .T. ) ;
#193 = PRODUCT_DEFINITION_FORMATION_WITH_SPECIFIED_SOURCE ( 'ANY', '', #235, .NOT_KNOWN. ) ;
#194 = DIRECTION ( 'NONE',  ( -3.491481338843133355E-15, 1.224646799147353207E-16, -1.000000000000000000 ) ) ;
#195 = APPLICATION_PROTOCOL_DEFINITION ( 'international standard', 'config_control_design', 1994, #308 ) ;
#196 = CARTESIAN_POINT ( 'NONE',  ( 1.036969957636410670E-14, -3.637200993467638614E-16, 2.970000000000000195 ) ) ;
#197 = COORDINATED_UNIVERSAL_TIME_OFFSET ( 1, 0, .AHEAD. ) ;
#198 = ORIENTED_EDGE ( 'NONE', *, *, #99, .F. ) ;
#199 = CIRCLE ( 'NONE', #118, 0.8349999999999999645 ) ;
#200 = DIRECTION ( 'NONE',  ( 0.0000000000000000000, 1.000000000000000000, 0.0000000000000000000 ) ) ;
#201 = CC_DESIGN_APPROVAL ( #253, ( #167 ) ) ;
#202 = PLANE ( 'NONE',  #220 ) ;
#203 = CALENDAR_DATE ( 2021, 13, 12 ) ;
#204 = FACE_OUTER_BOUND ( 'NONE', #340, .T. ) ;
#205 = EDGE_CURVE ( 'NONE', #182, #182, #71, .T. ) ;
#206 = DIRECTION ( 'NONE',  ( 0.0000000000000000000, -1.000000000000000000, 0.0000000000000000000 ) ) ;
#207 = TOROIDAL_SURFACE ( 'NONE', #164, 2.400000000000000355, 2.000000000000000000 ) ;
#208 = DIRECTION ( 'NONE',  ( 3.491481338843133355E-15, -1.224646799147353207E-16, 1.000000000000000000 ) ) ;
#209 = DIRECTION ( 'NONE',  ( 0.0000000000000000000, 1.000000000000000000, 0.0000000000000000000 ) ) ;
#210 = FACE_OUTER_BOUND ( 'NONE', #10, .T. ) ;
#211 = AXIS2_PLACEMENT_3D ( 'NONE', #103, #176, #278 ) ;
#212 = DIRECTION ( 'NONE',  ( 4.275831445896958607E-31, 1.000000000000000000, 1.224646799147353207E-16 ) ) ;
#213 = ADVANCED_FACE ( 'NONE', ( #204 ), #307, .F. ) ;
#214 = DIRECTION ( 'NONE',  ( -3.491481338843133355E-15, 1.224646799147353207E-16, -1.000000000000000000 ) ) ;
#215 = AXIS2_PLACEMENT_3D ( 'NONE', #196, #300, #67 ) ;
#216 = CARTESIAN_POINT ( 'NONE',  ( 0.0000000000000000000, 0.0000000000000000000, 0.0000000000000000000 ) ) ;
#217 = EDGE_LOOP ( 'NONE', ( #12 ) ) ;
#218 = ADVANCED_FACE ( 'NONE', ( #252, #228 ), #124, .T. ) ;
#219 = PERSON_AND_ORGANIZATION ( #282, #133 ) ;
#220 = AXIS2_PLACEMENT_3D ( 'NONE', #77, #151, #281 ) ;
#221 = APPROVAL_STATUS ( 'not_yet_approved' ) ;
#222 = DIRECTION ( 'NONE',  ( -3.491481338843133355E-15, 1.224646799147353207E-16, -1.000000000000000000 ) ) ;
#223 = PERSON_AND_ORGANIZATION ( #282, #133 ) ;
#224 = DIRECTION ( 'NONE',  ( -3.491481338843133355E-15, 1.224646799147353207E-16, -1.000000000000000000 ) ) ;
#225 = DIRECTION ( 'NONE',  ( 3.491481338843133355E-15, -1.224646799147353207E-16, 1.000000000000000000 ) ) ;
#226 = PERSON_AND_ORGANIZATION_ROLE ( 'classification_officer' ) ;
#227 = AXIS2_PLACEMENT_3D ( 'NONE', #74, #331, #72 ) ;
#228 = FACE_OUTER_BOUND ( 'NONE', #111, .T. ) ;
#229 = ADVANCED_FACE ( 'NONE', ( #16, #104 ), #202, .F. ) ;
#230 = PERSON_AND_ORGANIZATION ( #282, #133 ) ;
#231 = CYLINDRICAL_SURFACE ( 'NONE', #142, 0.3999999999999999667 ) ;
#232 = PLANE ( 'NONE',  #211 ) ;
#233 = AXIS2_PLACEMENT_3D ( 'NONE', #239, #51, #157 ) ;
#234 = CARTESIAN_POINT ( 'NONE',  ( -1.496614238587734227E-31, 5.249416104432365335E-33, -4.286473543300168898E-17 ) ) ;
#235 = PRODUCT ( '388802', '388802', '', ( #325 ) ) ;
#236 = VERTEX_POINT ( 'NONE', #130 ) ;
#237 = DIRECTION ( 'NONE',  ( -4.275831445896958607E-31, -1.000000000000000000, -1.224646799147353207E-16 ) ) ;
#238 = ORIENTED_EDGE ( 'NONE', *, *, #314, .F. ) ;
#239 = CARTESIAN_POINT ( 'NONE',  ( 0.0000000000000000000, 0.0000000000000000000, 0.0000000000000000000 ) ) ;
#240 = EDGE_LOOP ( 'NONE', ( #266 ) ) ;
#241 = ORIENTED_EDGE ( 'NONE', *, *, #162, .F. ) ;
#242 = EDGE_CURVE ( 'NONE', #78, #78, #199, .T. ) ;
#243 = UNCERTAINTY_MEASURE_WITH_UNIT (LENGTH_MEASURE( 1.000000000000000082E-05 ), #342, 'distance_accuracy_value', 'NONE');
#244 = CIRCLE ( 'NONE', #98, 1.999999999999997780 ) ;
#245 = EDGE_LOOP ( 'NONE', ( #296 ) ) ;
#246 = PERSON_AND_ORGANIZATION_ROLE ( 'design_owner' ) ;
#247 = DATE_AND_TIME ( #40, #317 ) ;
#248 = PLANE ( 'NONE',  #273 ) ;
#249 = EDGE_CURVE ( 'NONE', #315, #315, #52, .T. ) ;
#250 = DIRECTION ( 'NONE',  ( 4.275831445896958607E-31, 1.000000000000000000, 1.224646799147353207E-16 ) ) ;
#251 = FACE_OUTER_BOUND ( 'NONE', #137, .T. ) ;
#252 = FACE_OUTER_BOUND ( 'NONE', #298, .T. ) ;
#253 = APPROVAL ( #139, 'UNSPECIFIED' ) ;
#254 = DIRECTION ( 'NONE',  ( 0.0000000000000000000, 1.000000000000000000, 0.0000000000000000000 ) ) ;
#255 = COORDINATED_UNIVERSAL_TIME_OFFSET ( 1, 0, .AHEAD. ) ;
#256 = DIRECTION ( 'NONE',  ( -3.491481338843133355E-15, 1.224646799147353207E-16, -1.000000000000000000 ) ) ;
#257 = CARTESIAN_POINT ( 'NONE',  ( 1.036969957636410670E-14, -3.637200993467638614E-16, 2.970000000000000195 ) ) ;
#258 = CARTESIAN_POINT ( 'NONE',  ( 3.316907271900976056E-14, 2.969524369670473466E-32, 9.500000000000000000 ) ) ;
#259 = AXIS2_PLACEMENT_3D ( 'NONE', #49, #328, #146 ) ;
#260 = VERTEX_POINT ( 'NONE', #60 ) ;
#261 = EDGE_LOOP ( 'NONE', ( #57 ) ) ;
#262 = AXIS2_PLACEMENT_3D ( 'NONE', #14, #224, #172 ) ;
#263 = SECURITY_CLASSIFICATION ( '', '', #102 ) ;
#264 = CARTESIAN_POINT ( 'NONE',  ( 6.284666409917640040E-15, -2.204364238465235576E-16, 1.800000000000000044 ) ) ;
#265 = ORIENTED_EDGE ( 'NONE', *, *, #145, .F. ) ;
#266 = ORIENTED_EDGE ( 'NONE', *, *, #321, .F. ) ;
#267 = AXIS2_PLACEMENT_3D ( 'NONE', #289, #134, #316 ) ;
#268 = ORIENTED_EDGE ( 'NONE', *, *, #242, .F. ) ;
#269 = APPROVAL_ROLE ( '' ) ;
#270 = DIRECTION ( 'NONE',  ( 0.0000000000000000000, 1.000000000000000000, 0.0000000000000000000 ) ) ;
#271 = CC_DESIGN_DATE_AND_TIME_ASSIGNMENT ( #19, #150, ( #263 ) ) ;
#272 = DATE_AND_TIME ( #169, #44 ) ;
#273 = AXIS2_PLACEMENT_3D ( 'NONE', #119, #222, #250 ) ;
#274 = CC_DESIGN_SECURITY_CLASSIFICATION ( #263, ( #193 ) ) ;
#275 = CARTESIAN_POINT ( 'NONE',  ( 2.779215038672983719E-14, -9.748174115634227252E-16, 7.959988236952307616 ) ) ;
#276 = APPROVAL_STATUS ( 'not_yet_approved' ) ;
#277 = DIRECTION ( 'NONE',  ( 4.275831445896958607E-31, 1.000000000000000000, 1.224646799147353207E-16 ) ) ;
#278 = DIRECTION ( 'NONE',  ( -4.275831445896958607E-31, -1.000000000000000000, -1.224646799147353207E-16 ) ) ;
#279 = AXIS2_PLACEMENT_3D ( 'NONE', #275, #312, #200 ) ;
#280 = CARTESIAN_POINT ( 'NONE',  ( 0.0000000000000000000, 0.0000000000000000000, 0.0000000000000000000 ) ) ;
#281 = DIRECTION ( 'NONE',  ( -4.275831445896958607E-31, -1.000000000000000000, -1.224646799147353207E-16 ) ) ;
#282 = PERSON ( 'UNSPECIFIED', 'UNSPECIFIED', 'UNSPECIFIED', ('UNSPECIFIED'), ('UNSPECIFIED'), ('UNSPECIFIED') ) ;
#283 = VERTEX_POINT ( 'NONE', #291 ) ;
#284 = CARTESIAN_POINT ( 'NONE',  ( 3.316907271900976056E-14, 1.959999999999998632, 9.500000000000000000 ) ) ;
#285 = ORIENTED_EDGE ( 'NONE', *, *, #321, .T. ) ;
#286 = VERTEX_POINT ( 'NONE', #54 ) ;
#287 = EDGE_CURVE ( 'NONE', #81, #81, #244, .T. ) ;
#288 = EDGE_LOOP ( 'NONE', ( #198 ) ) ;
#289 = CARTESIAN_POINT ( 'NONE',  ( 6.284666409917640040E-15, -2.204364238465235576E-16, 1.800000000000000044 ) ) ;
#290 = ORIENTED_EDGE ( 'NONE', *, *, #287, .F. ) ;
#291 = CARTESIAN_POINT ( 'NONE',  ( 9.915327516933671420E-15, 0.4489692899384947755, 2.839862669928808536 ) ) ;
#292 = AXIS2_PLACEMENT_3D ( 'NONE', #216, #112, #87 ) ;
#293 = PERSON_AND_ORGANIZATION_ROLE ( 'creator' ) ;
#294 = EDGE_LOOP ( 'NONE', ( #265 ) ) ;
#295 = DESIGN_CONTEXT ( 'detailed design', #308, 'design' ) ;
#296 = ORIENTED_EDGE ( 'NONE', *, *, #314, .T. ) ;
#297 = CALENDAR_DATE ( 2021, 13, 12 ) ;
#298 = EDGE_LOOP ( 'NONE', ( #241 ) ) ;
#299 = CIRCLE ( 'NONE', #148, 0.4489692899384951086 ) ;
#300 = DIRECTION ( 'NONE',  ( -3.491481338843133355E-15, 1.224646799147353207E-16, -1.000000000000000000 ) ) ;
#301 = EDGE_LOOP ( 'NONE', ( #168 ) ) ;
#302 = PERSON_AND_ORGANIZATION_ROLE ( 'design_supplier' ) ;
#303 = FACE_OUTER_BOUND ( 'NONE', #322, .T. ) ;
#304 = CONICAL_SURFACE ( 'NONE', #29, 1.599999999999997646, 0.7853981633974516097 ) ;
#305 = EDGE_CURVE ( 'NONE', #286, #286, #80, .T. ) ;
#306 = FACE_OUTER_BOUND ( 'NONE', #261, .T. ) ;
#307 = PLANE ( 'NONE',  #259 ) ;
#308 = APPLICATION_CONTEXT ( 'configuration controlled 3d designs of mechanical parts and assemblies' ) ;
#309 = AXIS2_PLACEMENT_3D ( 'NONE', #173, #208, #50 ) ;
#310 = CARTESIAN_POINT ( 'NONE',  ( 1.036969957636410670E-14, -3.637200993467638614E-16, 2.970000000000000195 ) ) ;
#311 = PRODUCT_RELATED_PRODUCT_CATEGORY ( 'detail', '', ( #235 ) ) ;
#312 = DIRECTION ( 'NONE',  ( -3.491481338843133355E-15, 1.224646799147353207E-16, -1.000000000000000000 ) ) ;
#313 = DIRECTION ( 'NONE',  ( 0.0000000000000000000, 1.000000000000000000, 0.0000000000000000000 ) ) ;
#314 = EDGE_CURVE ( 'NONE', #110, #110, #123, .T. ) ;
#315 = VERTEX_POINT ( 'NONE', #109 ) ;
#316 = DIRECTION ( 'NONE',  ( 0.0000000000000000000, 1.000000000000000000, 0.0000000000000000000 ) ) ;
#317 = LOCAL_TIME ( 11, 25, 52.00000000000000000, #115 ) ;
#318 = EDGE_LOOP ( 'NONE', ( #268 ) ) ;
#319 = APPLICATION_PROTOCOL_DEFINITION ( 'international standard', 'config_control_design', 1994, #76 ) ;
#320 = EDGE_LOOP ( 'NONE', ( #2 ) ) ;
#321 = EDGE_CURVE ( 'NONE', #283, #283, #299, .T. ) ;
#322 = EDGE_LOOP ( 'NONE', ( #285 ) ) ;
#323 = AXIS2_PLACEMENT_3D ( 'NONE', #121, #225, #46 ) ;
#324 = LOCAL_TIME ( 11, 25, 52.00000000000000000, #197 ) ;
#325 = MECHANICAL_CONTEXT ( 'NONE', #76, 'mechanical' ) ;
#326 = CYLINDRICAL_SURFACE ( 'NONE', #59, 0.3999999999999998557 ) ;
#327 = CARTESIAN_POINT ( 'NONE',  ( 0.0000000000000000000, 0.0000000000000000000, 0.0000000000000000000 ) ) ;
#328 = DIRECTION ( 'NONE',  ( 3.491481338843133355E-15, -1.224646799147353207E-16, 1.000000000000000000 ) ) ;
#329 = CONICAL_SURFACE ( 'NONE', #335, 0.4783089375244197194, 0.2217440814658722392 ) ;
#330 = CARTESIAN_POINT ( 'NONE',  ( 3.316907271900976056E-14, -1.163414459189985485E-15, 9.500000000000000000 ) ) ;
#331 = DIRECTION ( 'NONE',  ( -3.491481338843133355E-15, 1.224646799147353207E-16, -1.000000000000000000 ) ) ;
#332 = APPROVAL_DATE_TIME ( #171, #33 ) ;
#333 = PLANE ( 'NONE',  #323 ) ;
#334 = ADVANCED_FACE ( 'NONE', ( #34, #337 ), #188, .F. ) ;
#335 = AXIS2_PLACEMENT_3D ( 'NONE', #310, #47, #206 ) ;
#336 = CARTESIAN_POINT ( 'NONE',  ( 0.0000000000000000000, 0.0000000000000000000, 0.0000000000000000000 ) ) ;
#337 = FACE_OUTER_BOUND ( 'NONE', #35, .T. ) ;
#338 = ADVANCED_FACE ( 'NONE', ( #53, #210 ), #128, .T. ) ;
#339 = VERTEX_POINT ( 'NONE', #27 ) ;
#340 = EDGE_LOOP ( 'NONE', ( #113 ) ) ;
#341 = AXIS2_PLACEMENT_3D ( 'NONE', #258, #79, #237 ) ;
#342 =( LENGTH_UNIT ( ) NAMED_UNIT ( * ) SI_UNIT ( .MILLI., .METRE. ) );
#343 = AXIS2_PLACEMENT_3D ( 'NONE', #20, #101, #147 ) ;
ENDSEC;
END-ISO-10303-21;
