ISO-10303-21;
HEADER;
FILE_DESCRIPTION (( 'STEP AP203' ),
    '1' );
FILE_NAME ('388801.step',
    '2021-12-13T10:25:52',
    ( '' ),
    ( '' ),
    'SwSTEP 2.0',
    'SolidWorks 2019',
    '' );
FILE_SCHEMA (( 'CONFIG_CONTROL_DESIGN' ));
ENDSEC;

DATA;
#1 = DATE_AND_TIME ( #342, #15 ) ;
#2 = ADVANCED_FACE ( 'NONE', ( #220, #216 ), #18, .F. ) ;
#3 = DIRECTION ( 'NONE',  ( -4.275831445896958607E-31, -1.000000000000000000, -1.224646799147353207E-16 ) ) ;
#4 = CALENDAR_DATE ( 2021, 13, 12 ) ;
#5 = ORIENTED_EDGE ( 'NONE', *, *, #27, .F. ) ;
#6 = CARTESIAN_POINT ( 'NONE',  ( 1.326762908760390423E-13, 1.599999999999993205, 38.00000000000000000 ) ) ;
#7 = PRODUCT_DEFINITION_FORMATION_WITH_SPECIFIED_SOURCE ( 'ANY', '', #227, .NOT_KNOWN. ) ;
#8 = PERSON_AND_ORGANIZATION_ROLE ( 'design_supplier' ) ;
#9 = VERTEX_POINT ( 'NONE', #209 ) ;
#10 = EDGE_LOOP ( 'NONE', ( #144 ) ) ;
#11 = PRODUCT_DEFINITION_SHAPE ( 'NONE', 'NONE',  #21 ) ;
#12 = ORIENTED_EDGE ( 'NONE', *, *, #67, .F. ) ;
#13 = DIRECTION ( 'NONE',  ( 0.0000000000000000000, 1.000000000000000000, 0.0000000000000000000 ) ) ;
#14 = AXIS2_PLACEMENT_3D ( 'NONE', #330, #121, #13 ) ;
#15 = LOCAL_TIME ( 11, 25, 52.00000000000000000, #158 ) ;
#16 = CARTESIAN_POINT ( 'NONE',  ( 3.281992458512545354E-14, 2.969524369670473466E-32, 9.400000000000000355 ) ) ;
#17 = EDGE_LOOP ( 'NONE', ( #277 ) ) ;
#18 = PLANE ( 'NONE',  #231 ) ;
#19 = DIRECTION ( 'NONE',  ( 4.275831445896958607E-31, 1.000000000000000000, 1.224646799147353207E-16 ) ) ;
#20 = APPROVAL_PERSON_ORGANIZATION ( #281, #212, #29 ) ;
#21 = PRODUCT_DEFINITION ( 'UNKNOWN', '', #7, #294 ) ;
#22 = DIRECTION ( 'NONE',  ( 0.0000000000000000000, 1.000000000000000000, 0.0000000000000000000 ) ) ;
#23 = AXIS2_PLACEMENT_3D ( 'NONE', #255, #228, #131 ) ;
#24 = DIRECTION ( 'NONE',  ( 0.0000000000000000000, 1.000000000000000000, 0.0000000000000000000 ) ) ;
#25 = DATE_AND_TIME ( #237, #225 ) ;
#26 = FACE_OUTER_BOUND ( 'NONE', #17, .T. ) ;
#27 = EDGE_CURVE ( 'NONE', #137, #137, #288, .T. ) ;
#28 = CARTESIAN_POINT ( 'NONE',  ( 1.326762908760390423E-13, -4.653657836759941941E-15, 38.00000000000000000 ) ) ;
#29 = APPROVAL_ROLE ( '' ) ;
#30 = DIRECTION ( 'NONE',  ( -4.275831445896958607E-31, -1.000000000000000000, -1.224646799147353207E-16 ) ) ;
#31 = PERSON_AND_ORGANIZATION ( #110, #156 ) ;
#32 = CC_DESIGN_PERSON_AND_ORGANIZATION_ASSIGNMENT ( #31, #316, ( #7 ) ) ;
#33 = COORDINATED_UNIVERSAL_TIME_OFFSET ( 1, 0, .AHEAD. ) ;
#34 = AXIS2_PLACEMENT_3D ( 'NONE', #73, #252, #232 ) ;
#35 = VERTEX_POINT ( 'NONE', #218 ) ;
#36 = CARTESIAN_POINT ( 'NONE',  ( 3.281992458512545354E-14, 1.959999999999998632, 9.400000000000000355 ) ) ;
#37 = VERTEX_POINT ( 'NONE', #192 ) ;
#38 = ORIENTED_EDGE ( 'NONE', *, *, #164, .T. ) ;
#39 = ADVANCED_FACE ( 'NONE', ( #196, #334 ), #219, .F. ) ;
#40 = CIRCLE ( 'NONE', #162, 0.3499999999999997558 ) ;
#41 = DIRECTION ( 'NONE',  ( -3.491481338843133355E-15, 1.224646799147353207E-16, -1.000000000000000000 ) ) ;
#42 = ORIENTED_EDGE ( 'NONE', *, *, #181, .F. ) ;
#43 = APPLICATION_CONTEXT ( 'configuration controlled 3d designs of mechanical parts and assemblies' ) ;
#44 = EDGE_CURVE ( 'NONE', #35, #35, #48, .T. ) ;
#45 = DIRECTION ( 'NONE',  ( 0.0000000000000000000, 1.000000000000000000, 0.0000000000000000000 ) ) ;
#46 = CONICAL_SURFACE ( 'NONE', #254, 1.959999999999999520, 0.2217440814658727943 ) ;
#47 = FACE_OUTER_BOUND ( 'NONE', #177, .T. ) ;
#48 = CIRCLE ( 'NONE', #63, 0.4801627671755360205 ) ;
#49 = SECURITY_CLASSIFICATION ( '', '', #326 ) ;
#50 = FACE_BOUND ( 'NONE', #90, .T. ) ;
#51 = PERSON_AND_ORGANIZATION ( #110, #156 ) ;
#52 = CYLINDRICAL_SURFACE ( 'NONE', #269, 0.3499999999999998668 ) ;
#53 = EDGE_CURVE ( 'NONE', #263, #263, #176, .T. ) ;
#54 = DATE_AND_TIME ( #293, #246 ) ;
#55 = ORIENTED_EDGE ( 'NONE', *, *, #181, .T. ) ;
#56 = DIRECTION ( 'NONE',  ( -3.491481338843133355E-15, 1.224646799147353207E-16, -1.000000000000000000 ) ) ;
#57 = EDGE_LOOP ( 'NONE', ( #5 ) ) ;
#58 = CIRCLE ( 'NONE', #14, 1.599999999999997646 ) ;
#59 = DIRECTION ( 'NONE',  ( 0.0000000000000000000, 1.000000000000000000, 0.0000000000000000000 ) ) ;
#60 = EDGE_CURVE ( 'NONE', #173, #173, #103, .T. ) ;
#61 = APPROVAL_DATE_TIME ( #54, #212 ) ;
#62 = DIRECTION ( 'NONE',  ( 3.491481338843133355E-15, -1.224646799147353207E-16, 1.000000000000000000 ) ) ;
#63 = AXIS2_PLACEMENT_3D ( 'NONE', #333, #125, #148 ) ;
#64 = VERTEX_POINT ( 'NONE', #332 ) ;
#65 = ORIENTED_EDGE ( 'NONE', *, *, #76, .F. ) ;
#66 = CARTESIAN_POINT ( 'NONE',  ( 1.312796983405018142E-13, 1.999999999999993117, 37.60000000000000142 ) ) ;
#67 = EDGE_CURVE ( 'NONE', #141, #141, #147, .T. ) ;
#68 = DIRECTION ( 'NONE',  ( -4.275831445896958607E-31, -1.000000000000000000, -1.224646799147353207E-16 ) ) ;
#69 = ORIENTED_EDGE ( 'NONE', *, *, #265, .F. ) ;
#70 = CC_DESIGN_APPROVAL ( #97, ( #7 ) ) ;
#71 = CARTESIAN_POINT ( 'NONE',  ( 1.312796983405018142E-13, -4.604671964794047724E-15, 37.60000000000000142 ) ) ;
#72 = EDGE_LOOP ( 'NONE', ( #38 ) ) ;
#73 = CARTESIAN_POINT ( 'NONE',  ( 7.332110811570580046E-15, -4.336808689942017736E-16, 2.100000000000000089 ) ) ;
#74 = AXIS2_PLACEMENT_3D ( 'NONE', #261, #280, #343 ) ;
#75 = CC_DESIGN_APPROVAL ( #297, ( #49 ) ) ;
#76 = EDGE_CURVE ( 'NONE', #37, #37, #87, .T. ) ;
#77 = DIRECTION ( 'NONE',  ( -3.491481338843133355E-15, 1.224646799147353207E-16, -1.000000000000000000 ) ) ;
#78 = PERSON_AND_ORGANIZATION ( #110, #156 ) ;
#79 = AXIS2_PLACEMENT_3D ( 'NONE', #28, #134, #24 ) ;
#80 = APPROVAL_PERSON_ORGANIZATION ( #78, #97, #318 ) ;
#81 = CARTESIAN_POINT ( 'NONE',  ( -6.414113331464433235E-32, 2.249768106550718607E-33, -1.837075071863246517E-17 ) ) ;
#82 = PERSON_AND_ORGANIZATION ( #110, #156 ) ;
#83 = FACE_OUTER_BOUND ( 'NONE', #119, .T. ) ;
#84 = DIRECTION ( 'NONE',  ( 1.000000000000000000, 0.0000000000000000000, 0.0000000000000000000 ) ) ;
#85 = UNCERTAINTY_MEASURE_WITH_UNIT (LENGTH_MEASURE( 1.000000000000000082E-05 ), #143, 'distance_accuracy_value', 'NONE');
#86 = PLANE ( 'NONE',  #74 ) ;
#87 = CIRCLE ( 'NONE', #210, 0.3500000000000000333 ) ;
#88 = DIRECTION ( 'NONE',  ( 0.0000000000000000000, -1.000000000000000000, 0.0000000000000000000 ) ) ;
#89 = DIRECTION ( 'NONE',  ( -3.491481338843133355E-15, 1.224646799147353207E-16, -1.000000000000000000 ) ) ;
#90 = EDGE_LOOP ( 'NONE', ( #178 ) ) ;
#91 = AXIS2_PLACEMENT_3D ( 'NONE', #117, #62, #30 ) ;
#92 = DIRECTION ( 'NONE',  ( 3.491481338843133355E-15, -1.224646799147353207E-16, 1.000000000000000000 ) ) ;
#93 = DIRECTION ( 'NONE',  ( -4.275831445896958607E-31, -1.000000000000000000, -1.224646799147353207E-16 ) ) ;
#94 = FACE_BOUND ( 'NONE', #142, .T. ) ;
#95 = ORIENTED_EDGE ( 'NONE', *, *, #291, .T. ) ;
#96 = EDGE_LOOP ( 'NONE', ( #69 ) ) ;
#97 = APPROVAL ( #111, 'UNSPECIFIED' ) ;
#98 = AXIS2_PLACEMENT_3D ( 'NONE', #168, #289, #328 ) ;
#99 = EDGE_LOOP ( 'NONE', ( #193 ) ) ;
#100 = APPLICATION_CONTEXT ( 'configuration controlled 3d designs of mechanical parts and assemblies' ) ;
#101 = PLANE ( 'NONE',  #298 ) ;
#102 = FACE_BOUND ( 'NONE', #303, .T. ) ;
#103 = CIRCLE ( 'NONE', #238, 0.8349999999999998535 ) ;
#104 = CIRCLE ( 'NONE', #222, 1.959999999999999520 ) ;
#105 = APPLICATION_PROTOCOL_DEFINITION ( 'international standard', 'config_control_design', 1994, #43 ) ;
#106 = AXIS2_PLACEMENT_3D ( 'NONE', #150, #285, #22 ) ;
#107 = DIRECTION ( 'NONE',  ( 0.0000000000000000000, 1.000000000000000000, 0.0000000000000000000 ) ) ;
#108 = EDGE_LOOP ( 'NONE', ( #122 ) ) ;
#109 = DIRECTION ( 'NONE',  ( -3.491481338843133355E-15, 1.224646799147353207E-16, -1.000000000000000000 ) ) ;
#110 = PERSON ( 'UNSPECIFIED', 'UNSPECIFIED', 'UNSPECIFIED', ('UNSPECIFIED'), ('UNSPECIFIED'), ('UNSPECIFIED') ) ;
#111 = APPROVAL_STATUS ( 'not_yet_approved' ) ;
#112 = ORIENTED_EDGE ( 'NONE', *, *, #53, .F. ) ;
#113 = ADVANCED_FACE ( 'NONE', ( #128, #207 ), #206, .T. ) ;
#114 = APPLICATION_PROTOCOL_DEFINITION ( 'international standard', 'config_control_design', 1994, #100 ) ;
#115 = CLOSED_SHELL ( 'NONE', ( #123, #236, #309 ) ) ;
#116 = PERSON_AND_ORGANIZATION_ROLE ( 'classification_officer' ) ;
#117 = CARTESIAN_POINT ( 'NONE',  ( 5.586370142149013368E-15, 2.624579619658247393E-33, 1.600000000000000089 ) ) ;
#118 = ORIENTED_EDGE ( 'NONE', *, *, #53, .T. ) ;
#119 = EDGE_LOOP ( 'NONE', ( #65 ) ) ;
#120 = AXIS2_PLACEMENT_3D ( 'NONE', #71, #41, #149 ) ;
#121 = DIRECTION ( 'NONE',  ( -3.491481338843133355E-15, 1.224646799147353207E-16, -1.000000000000000000 ) ) ;
#122 = ORIENTED_EDGE ( 'NONE', *, *, #164, .F. ) ;
#123 = ADVANCED_FACE ( 'NONE', ( #233 ), #182, .F. ) ;
#124 = CARTESIAN_POINT ( 'NONE',  ( 3.281992458512545354E-14, -1.151167991198511931E-15, 9.400000000000000355 ) ) ;
#125 = DIRECTION ( 'NONE',  ( -3.491481338843133355E-15, 1.224646799147353207E-16, -1.000000000000000000 ) ) ;
#126 = CONICAL_SURFACE ( 'NONE', #79, 1.599999999999997646, 0.7853981633974516097 ) ;
#127 = LOCAL_TIME ( 11, 25, 52.00000000000000000, #229 ) ;
#128 = FACE_OUTER_BOUND ( 'NONE', #284, .T. ) ;
#129 = CARTESIAN_POINT ( 'NONE',  ( 1.326762908760390423E-13, 1.199807826129477602E-32, 38.00000000000000000 ) ) ;
#130 = AXIS2_PLACEMENT_3D ( 'NONE', #179, #187, #315 ) ;
#131 = DIRECTION ( 'NONE',  ( 4.275831445896958607E-31, 1.000000000000000000, 1.224646799147353207E-16 ) ) ;
#132 = PERSON_AND_ORGANIZATION_ROLE ( 'design_owner' ) ;
#133 = FACE_OUTER_BOUND ( 'NONE', #241, .T. ) ;
#134 = DIRECTION ( 'NONE',  ( -3.491481338843133355E-15, 1.224646799147353207E-16, -1.000000000000000000 ) ) ;
#135 = MECHANICAL_CONTEXT ( 'NONE', #43, 'mechanical' ) ;
#136 = ADVANCED_FACE ( 'NONE', ( #320 ), #86, .F. ) ;
#137 = VERTEX_POINT ( 'NONE', #66 ) ;
#138 = COORDINATED_UNIVERSAL_TIME_OFFSET ( 1, 0, .AHEAD. ) ;
#139 = ADVANCED_BREP_SHAPE_REPRESENTATION ( '388801', ( #153, #154, #183 ), #260 ) ;
#140 =( NAMED_UNIT ( * ) SI_UNIT ( $, .STERADIAN. ) SOLID_ANGLE_UNIT ( ) );
#141 = VERTEX_POINT ( 'NONE', #36 ) ;
#142 = EDGE_LOOP ( 'NONE', ( #323 ) ) ;
#143 =( LENGTH_UNIT ( ) NAMED_UNIT ( * ) SI_UNIT ( .MILLI., .METRE. ) );
#144 = ORIENTED_EDGE ( 'NONE', *, *, #67, .T. ) ;
#145 = CARTESIAN_POINT ( 'NONE',  ( 3.281992458512545354E-14, 1.999999999999995337, 9.400000000000000355 ) ) ;
#146 = EDGE_LOOP ( 'NONE', ( #174 ) ) ;
#147 = CIRCLE ( 'NONE', #310, 1.959999999999999964 ) ;
#148 = DIRECTION ( 'NONE',  ( 0.0000000000000000000, 1.000000000000000000, 0.0000000000000000000 ) ) ;
#149 = DIRECTION ( 'NONE',  ( 0.0000000000000000000, 1.000000000000000000, 0.0000000000000000000 ) ) ;
#150 = CARTESIAN_POINT ( 'NONE',  ( 3.281992458512545354E-14, -1.151167991198511931E-15, 9.400000000000000355 ) ) ;
#151 = CARTESIAN_POINT ( 'NONE',  ( 0.0000000000000000000, 0.0000000000000000000, 0.0000000000000000000 ) ) ;
#152 = ADVANCED_FACE ( 'NONE', ( #102, #26 ), #276, .T. ) ;
#153 = MANIFOLD_SOLID_BREP ( 'Corps-Déplacer/Copier1[1]', #305 ) ;
#154 = MANIFOLD_SOLID_BREP ( 'Corps-Déplacer/Copier1[2]', #115 ) ;
#155 = CC_DESIGN_PERSON_AND_ORGANIZATION_ASSIGNMENT ( #262, #267, ( #21 ) ) ;
#156 = ORGANIZATION ( 'UNSPECIFIED', 'UNSPECIFIED', '' ) ;
#157 = CYLINDRICAL_SURFACE ( 'NONE', #23, 1.959999999999999964 ) ;
#158 = COORDINATED_UNIVERSAL_TIME_OFFSET ( 1, 0, .AHEAD. ) ;
#159 = CARTESIAN_POINT ( 'NONE',  ( 0.0000000000000000000, 0.0000000000000000000, 0.0000000000000000000 ) ) ;
#160 = SHAPE_DEFINITION_REPRESENTATION ( #11, #139 ) ;
#161 = DIRECTION ( 'NONE',  ( 3.491481338843133355E-15, -1.224646799147353207E-16, 1.000000000000000000 ) ) ;
#162 = AXIS2_PLACEMENT_3D ( 'NONE', #308, #109, #317 ) ;
#163 = ORIENTED_EDGE ( 'NONE', *, *, #76, .T. ) ;
#164 = EDGE_CURVE ( 'NONE', #9, #9, #104, .T. ) ;
#165 = FACE_OUTER_BOUND ( 'NONE', #274, .T. ) ;
#166 =( NAMED_UNIT ( * ) PLANE_ANGLE_UNIT ( ) SI_UNIT ( $, .RADIAN. ) );
#167 = APPROVAL_STATUS ( 'not_yet_approved' ) ;
#168 = CARTESIAN_POINT ( 'NONE',  ( 5.586370142149013368E-15, -1.959434878635765230E-16, 1.600000000000000089 ) ) ;
#169 = CC_DESIGN_DATE_AND_TIME_ASSIGNMENT ( #239, #313, ( #21 ) ) ;
#170 = CIRCLE ( 'NONE', #98, 0.3499999999999999778 ) ;
#171 = VERTEX_POINT ( 'NONE', #145 ) ;
#172 = CARTESIAN_POINT ( 'NONE',  ( 8.867883115280731413E-15, -3.110434689002166076E-16, 2.539862669928808714 ) ) ;
#173 = VERTEX_POINT ( 'NONE', #235 ) ;
#174 = ORIENTED_EDGE ( 'NONE', *, *, #321, .T. ) ;
#175 = EDGE_LOOP ( 'NONE', ( #42 ) ) ;
#176 = CIRCLE ( 'NONE', #188, 0.3989692899384949532 ) ;
#177 = EDGE_LOOP ( 'NONE', ( #95 ) ) ;
#178 = ORIENTED_EDGE ( 'NONE', *, *, #265, .T. ) ;
#179 = CARTESIAN_POINT ( 'NONE',  ( 1.012529588264508515E-14, -3.551475717527323832E-16, 2.899999999999999911 ) ) ;
#180 = CC_DESIGN_APPROVAL ( #212, ( #21 ) ) ;
#181 = EDGE_CURVE ( 'NONE', #64, #64, #40, .T. ) ;
#182 = PLANE ( 'NONE',  #299 ) ;
#183 = AXIS2_PLACEMENT_3D ( 'NONE', #264, #234, #84 ) ;
#184 = PERSON_AND_ORGANIZATION ( #110, #156 ) ;
#185 = CARTESIAN_POINT ( 'NONE',  ( 7.332110811570581624E-15, -2.571758278209441957E-16, 2.100000000000000089 ) ) ;
#186 = ADVANCED_FACE ( 'NONE', ( #133, #83 ), #194, .F. ) ;
#187 = DIRECTION ( 'NONE',  ( 3.491481338843133355E-15, -1.224646799147353207E-16, 1.000000000000000000 ) ) ;
#188 = AXIS2_PLACEMENT_3D ( 'NONE', #172, #197, #221 ) ;
#189 = APPROVAL_STATUS ( 'not_yet_approved' ) ;
#190 = PRODUCT_RELATED_PRODUCT_CATEGORY ( 'detail', '', ( #227 ) ) ;
#191 = FACE_OUTER_BOUND ( 'NONE', #200, .T. ) ;
#192 = CARTESIAN_POINT ( 'NONE',  ( 7.332110811570581624E-15, 0.3499999999999997558, 2.100000000000000089 ) ) ;
#193 = ORIENTED_EDGE ( 'NONE', *, *, #203, .F. ) ;
#194 = TOROIDAL_SURFACE ( 'NONE', #34, 2.350000000000000089, 2.000000000000000000 ) ;
#195 = CARTESIAN_POINT ( 'NONE',  ( 8.867883115280731413E-15, 0.3989692899384946756, 2.539862669928808714 ) ) ;
#196 = FACE_BOUND ( 'NONE', #242, .T. ) ;
#197 = DIRECTION ( 'NONE',  ( -3.491481338843133355E-15, 1.224646799147353207E-16, -1.000000000000000000 ) ) ;
#198 = EDGE_LOOP ( 'NONE', ( #12 ) ) ;
#199 = AXIS2_PLACEMENT_3D ( 'NONE', #249, #302, #68 ) ;
#200 = EDGE_LOOP ( 'NONE', ( #214 ) ) ;
#201 = DIRECTION ( 'NONE',  ( -3.491481338843133355E-15, 1.224646799147353207E-16, -1.000000000000000000 ) ) ;
#202 = AXIS2_PLACEMENT_3D ( 'NONE', #273, #327, #59 ) ;
#203 = EDGE_CURVE ( 'NONE', #171, #171, #324, .T. ) ;
#204 = FACE_OUTER_BOUND ( 'NONE', #108, .T. ) ;
#205 = DIRECTION ( 'NONE',  ( -3.491481338843133355E-15, 1.224646799147353207E-16, -1.000000000000000000 ) ) ;
#206 = CYLINDRICAL_SURFACE ( 'NONE', #339, 0.3500000000000000333 ) ;
#207 = FACE_OUTER_BOUND ( 'NONE', #287, .T. ) ;
#208 = CALENDAR_DATE ( 2021, 13, 12 ) ;
#209 = CARTESIAN_POINT ( 'NONE',  ( 2.754774669301081722E-14, 1.959999999999998632, 7.889988236952307332 ) ) ;
#210 = AXIS2_PLACEMENT_3D ( 'NONE', #185, #77, #257 ) ;
#211 = DATE_AND_TIME ( #208, #127 ) ;
#212 = APPROVAL ( #167, 'UNSPECIFIED' ) ;
#213 = CARTESIAN_POINT ( 'NONE',  ( 0.0000000000000000000, 0.0000000000000000000, 0.0000000000000000000 ) ) ;
#214 = ORIENTED_EDGE ( 'NONE', *, *, #291, .F. ) ;
#215 = FACE_OUTER_BOUND ( 'NONE', #99, .T. ) ;
#216 = FACE_OUTER_BOUND ( 'NONE', #245, .T. ) ;
#217 = AXIS2_PLACEMENT_3D ( 'NONE', #213, #89, #268 ) ;
#218 = CARTESIAN_POINT ( 'NONE',  ( 1.012529588264508515E-14, 0.4801627671755356319, 2.899999999999999911 ) ) ;
#219 = PLANE ( 'NONE',  #199 ) ;
#220 = FACE_BOUND ( 'NONE', #198, .T. ) ;
#221 = DIRECTION ( 'NONE',  ( 0.0000000000000000000, 1.000000000000000000, 0.0000000000000000000 ) ) ;
#222 = AXIS2_PLACEMENT_3D ( 'NONE', #338, #341, #45 ) ;
#223 = FACE_OUTER_BOUND ( 'NONE', #57, .T. ) ;
#224 = DIRECTION ( 'NONE',  ( 4.275831445896958607E-31, 1.000000000000000000, 1.224646799147353207E-16 ) ) ;
#225 = LOCAL_TIME ( 11, 25, 52.00000000000000000, #138 ) ;
#226 = ADVANCED_FACE ( 'NONE', ( #223, #50 ), #126, .T. ) ;
#227 = PRODUCT ( '388801', '388801', '', ( #135 ) ) ;
#228 = DIRECTION ( 'NONE',  ( -3.491481338843133355E-15, 1.224646799147353207E-16, -1.000000000000000000 ) ) ;
#229 = COORDINATED_UNIVERSAL_TIME_OFFSET ( 1, 0, .AHEAD. ) ;
#230 = CC_DESIGN_PERSON_AND_ORGANIZATION_ASSIGNMENT ( #82, #8, ( #7 ) ) ;
#231 = AXIS2_PLACEMENT_3D ( 'NONE', #16, #306, #93 ) ;
#232 = DIRECTION ( 'NONE',  ( 4.336878099697555372E-31, 1.000000000000000000, 1.224646799147353207E-16 ) ) ;
#233 = FACE_OUTER_BOUND ( 'NONE', #300, .T. ) ;
#234 = DIRECTION ( 'NONE',  ( 0.0000000000000000000, 0.0000000000000000000, 1.000000000000000000 ) ) ;
#235 = CARTESIAN_POINT ( 'NONE',  ( 1.012529588264508515E-14, 0.8349999999999995204, 2.899999999999999911 ) ) ;
#236 = ADVANCED_FACE ( 'NONE', ( #282, #47 ), #52, .T. ) ;
#237 = CALENDAR_DATE ( 2021, 13, 12 ) ;
#238 = AXIS2_PLACEMENT_3D ( 'NONE', #272, #335, #247 ) ;
#239 = DATE_AND_TIME ( #4, #331 ) ;
#240 = VERTEX_POINT ( 'NONE', #6 ) ;
#241 = EDGE_LOOP ( 'NONE', ( #118 ) ) ;
#242 = EDGE_LOOP ( 'NONE', ( #278 ) ) ;
#243 = ADVANCED_FACE ( 'NONE', ( #336 ), #101, .F. ) ;
#244 = CARTESIAN_POINT ( 'NONE',  ( 2.754774669301081722E-14, -9.662448839693912963E-16, 7.889988236952307332 ) ) ;
#245 = EDGE_LOOP ( 'NONE', ( #259 ) ) ;
#246 = LOCAL_TIME ( 11, 25, 52.00000000000000000, #33 ) ;
#247 = DIRECTION ( 'NONE',  ( 0.0000000000000000000, 1.000000000000000000, 0.0000000000000000000 ) ) ;
#248 = CC_DESIGN_DATE_AND_TIME_ASSIGNMENT ( #25, #286, ( #49 ) ) ;
#249 = CARTESIAN_POINT ( 'NONE',  ( 1.012529588264508515E-14, 9.862141129320738982E-33, 2.899999999999999911 ) ) ;
#250 = DIRECTION ( 'NONE',  ( -3.491481338843133355E-15, 1.224646799147353207E-16, -1.000000000000000000 ) ) ;
#251 = APPROVAL_PERSON_ORGANIZATION ( #184, #297, #290 ) ;
#252 = DIRECTION ( 'NONE',  ( -3.491481338843133355E-15, 1.224646799147353207E-16, -1.000000000000000000 ) ) ;
#253 = ADVANCED_FACE ( 'NONE', ( #204, #312 ), #157, .T. ) ;
#254 = AXIS2_PLACEMENT_3D ( 'NONE', #244, #92, #88 ) ;
#255 = CARTESIAN_POINT ( 'NONE',  ( 0.0000000000000000000, 0.0000000000000000000, 0.0000000000000000000 ) ) ;
#256 = PERSON_AND_ORGANIZATION ( #110, #156 ) ;
#257 = DIRECTION ( 'NONE',  ( 0.0000000000000000000, 1.000000000000000000, 0.0000000000000000000 ) ) ;
#258 = COORDINATED_UNIVERSAL_TIME_OFFSET ( 1, 0, .AHEAD. ) ;
#259 = ORIENTED_EDGE ( 'NONE', *, *, #203, .T. ) ;
#260 =( GEOMETRIC_REPRESENTATION_CONTEXT ( 3 ) GLOBAL_UNCERTAINTY_ASSIGNED_CONTEXT ( ( #85 ) ) GLOBAL_UNIT_ASSIGNED_CONTEXT ( ( #143, #166, #140 ) ) REPRESENTATION_CONTEXT ( 'NONE', 'WORKASPACE' ) );
#261 = CARTESIAN_POINT ( 'NONE',  ( 5.586370142149013368E-15, 2.624579619658247393E-33, 1.600000000000000089 ) ) ;
#262 = PERSON_AND_ORGANIZATION ( #110, #156 ) ;
#263 = VERTEX_POINT ( 'NONE', #195 ) ;
#264 = CARTESIAN_POINT ( 'NONE',  ( 0.0000000000000000000, 0.0000000000000000000, 0.0000000000000000000 ) ) ;
#265 = EDGE_CURVE ( 'NONE', #240, #240, #58, .T. ) ;
#266 = VERTEX_POINT ( 'NONE', #271 ) ;
#267 = PERSON_AND_ORGANIZATION_ROLE ( 'creator' ) ;
#268 = DIRECTION ( 'NONE',  ( 4.275831445896959482E-31, 1.000000000000000000, 1.224646799147353454E-16 ) ) ;
#269 = AXIS2_PLACEMENT_3D ( 'NONE', #151, #250, #19 ) ;
#270 = CC_DESIGN_SECURITY_CLASSIFICATION ( #49, ( #7 ) ) ;
#271 = CARTESIAN_POINT ( 'NONE',  ( 5.586370142149013368E-15, 0.3499999999999997558, 1.600000000000000089 ) ) ;
#272 = CARTESIAN_POINT ( 'NONE',  ( 1.012529588264508515E-14, -3.551475717527323832E-16, 2.899999999999999911 ) ) ;
#273 = CARTESIAN_POINT ( 'NONE',  ( 5.586370142149013368E-15, -1.959434878635765230E-16, 1.600000000000000089 ) ) ;
#274 = EDGE_LOOP ( 'NONE', ( #319 ) ) ;
#275 = ORIENTED_EDGE ( 'NONE', *, *, #60, .T. ) ;
#276 = CONICAL_SURFACE ( 'NONE', #130, 0.4801627671755360205, 0.2217440814658725445 ) ;
#277 = ORIENTED_EDGE ( 'NONE', *, *, #44, .T. ) ;
#278 = ORIENTED_EDGE ( 'NONE', *, *, #44, .F. ) ;
#279 = DIRECTION ( 'NONE',  ( 4.275831445896958607E-31, 1.000000000000000000, 1.224646799147353207E-16 ) ) ;
#280 = DIRECTION ( 'NONE',  ( 3.491481338843133355E-15, -1.224646799147353207E-16, 1.000000000000000000 ) ) ;
#281 = PERSON_AND_ORGANIZATION ( #110, #156 ) ;
#282 = FACE_OUTER_BOUND ( 'NONE', #175, .T. ) ;
#283 = APPROVAL_DATE_TIME ( #1, #97 ) ;
#284 = EDGE_LOOP ( 'NONE', ( #329 ) ) ;
#285 = DIRECTION ( 'NONE',  ( -3.491481338843133355E-15, 1.224646799147353207E-16, -1.000000000000000000 ) ) ;
#286 = DATE_TIME_ROLE ( 'classification_date' ) ;
#287 = EDGE_LOOP ( 'NONE', ( #163 ) ) ;
#288 = CIRCLE ( 'NONE', #120, 1.999999999999997780 ) ;
#289 = DIRECTION ( 'NONE',  ( -3.491481338843133355E-15, 1.224646799147353207E-16, -1.000000000000000000 ) ) ;
#290 = APPROVAL_ROLE ( '' ) ;
#291 = EDGE_CURVE ( 'NONE', #266, #266, #314, .T. ) ;
#292 = CARTESIAN_POINT ( 'NONE',  ( 5.586370142149013368E-15, 0.3499999999999997558, 1.600000000000000089 ) ) ;
#293 = CALENDAR_DATE ( 2021, 13, 12 ) ;
#294 = DESIGN_CONTEXT ( 'detailed design', #100, 'design' ) ;
#295 = PLANE ( 'NONE',  #91 ) ;
#296 = FACE_OUTER_BOUND ( 'NONE', #72, .T. ) ;
#297 = APPROVAL ( #189, 'UNSPECIFIED' ) ;
#298 = AXIS2_PLACEMENT_3D ( 'NONE', #129, #201, #224 ) ;
#299 = AXIS2_PLACEMENT_3D ( 'NONE', #81, #161, #3 ) ;
#300 = EDGE_LOOP ( 'NONE', ( #55 ) ) ;
#301 = CYLINDRICAL_SURFACE ( 'NONE', #217, 1.999999999999997335 ) ;
#302 = DIRECTION ( 'NONE',  ( 3.491481338843133355E-15, -1.224646799147353207E-16, 1.000000000000000000 ) ) ;
#303 = EDGE_LOOP ( 'NONE', ( #112 ) ) ;
#304 = ADVANCED_FACE ( 'NONE', ( #94, #296 ), #46, .T. ) ;
#305 = CLOSED_SHELL ( 'NONE', ( #136, #113, #186, #152, #39, #304, #253, #2, #337, #226, #243 ) ) ;
#306 = DIRECTION ( 'NONE',  ( 3.491481338843133355E-15, -1.224646799147353207E-16, 1.000000000000000000 ) ) ;
#307 = EDGE_LOOP ( 'NONE', ( #275 ) ) ;
#308 = CARTESIAN_POINT ( 'NONE',  ( -1.282822666292886647E-31, 4.499536213101437215E-33, -3.674150143726493034E-17 ) ) ;
#309 = ADVANCED_FACE ( 'NONE', ( #191 ), #295, .T. ) ;
#310 = AXIS2_PLACEMENT_3D ( 'NONE', #124, #56, #107 ) ;
#311 = CC_DESIGN_PERSON_AND_ORGANIZATION_ASSIGNMENT ( #256, #116, ( #49 ) ) ;
#312 = FACE_OUTER_BOUND ( 'NONE', #10, .T. ) ;
#313 = DATE_TIME_ROLE ( 'creation_date' ) ;
#314 = CIRCLE ( 'NONE', #202, 0.3499999999999999778 ) ;
#315 = DIRECTION ( 'NONE',  ( 0.0000000000000000000, -1.000000000000000000, 0.0000000000000000000 ) ) ;
#316 = PERSON_AND_ORGANIZATION_ROLE ( 'creator' ) ;
#317 = DIRECTION ( 'NONE',  ( 4.275831445896958607E-31, 1.000000000000000000, 1.224646799147353207E-16 ) ) ;
#318 = APPROVAL_ROLE ( '' ) ;
#319 = ORIENTED_EDGE ( 'NONE', *, *, #27, .T. ) ;
#320 = FACE_OUTER_BOUND ( 'NONE', #146, .T. ) ;
#321 = EDGE_CURVE ( 'NONE', #325, #325, #170, .T. ) ;
#322 = APPROVAL_DATE_TIME ( #211, #297 ) ;
#323 = ORIENTED_EDGE ( 'NONE', *, *, #60, .F. ) ;
#324 = CIRCLE ( 'NONE', #106, 1.999999999999996669 ) ;
#325 = VERTEX_POINT ( 'NONE', #292 ) ;
#326 = SECURITY_CLASSIFICATION_LEVEL ( 'unclassified' ) ;
#327 = DIRECTION ( 'NONE',  ( -3.491481338843133355E-15, 1.224646799147353207E-16, -1.000000000000000000 ) ) ;
#328 = DIRECTION ( 'NONE',  ( 0.0000000000000000000, 1.000000000000000000, 0.0000000000000000000 ) ) ;
#329 = ORIENTED_EDGE ( 'NONE', *, *, #321, .F. ) ;
#330 = CARTESIAN_POINT ( 'NONE',  ( 1.326762908760390423E-13, -4.653657836759941941E-15, 38.00000000000000000 ) ) ;
#331 = LOCAL_TIME ( 11, 25, 52.00000000000000000, #258 ) ;
#332 = CARTESIAN_POINT ( 'NONE',  ( 2.137183397710479182E-32, 0.3499999999999997558, 6.121136532892404794E-18 ) ) ;
#333 = CARTESIAN_POINT ( 'NONE',  ( 1.012529588264508515E-14, -3.551475717527323832E-16, 2.899999999999999911 ) ) ;
#334 = FACE_OUTER_BOUND ( 'NONE', #307, .T. ) ;
#335 = DIRECTION ( 'NONE',  ( -3.491481338843133355E-15, 1.224646799147353207E-16, -1.000000000000000000 ) ) ;
#336 = FACE_OUTER_BOUND ( 'NONE', #96, .T. ) ;
#337 = ADVANCED_FACE ( 'NONE', ( #215, #165 ), #301, .T. ) ;
#338 = CARTESIAN_POINT ( 'NONE',  ( 2.754774669301081722E-14, -9.662448839693912963E-16, 7.889988236952307332 ) ) ;
#339 = AXIS2_PLACEMENT_3D ( 'NONE', #159, #205, #279 ) ;
#340 = CC_DESIGN_PERSON_AND_ORGANIZATION_ASSIGNMENT ( #51, #132, ( #227 ) ) ;
#341 = DIRECTION ( 'NONE',  ( -3.491481338843133355E-15, 1.224646799147353207E-16, -1.000000000000000000 ) ) ;
#342 = CALENDAR_DATE ( 2021, 13, 12 ) ;
#343 = DIRECTION ( 'NONE',  ( -4.275831445896958607E-31, -1.000000000000000000, -1.224646799147353207E-16 ) ) ;
ENDSEC;
END-ISO-10303-21;
