ISO-10303-21;
HEADER;
FILE_DESCRIPTION (( 'STEP AP203' ),
    '1' );
FILE_NAME ('388799.step',
    '2021-12-13T10:25:50',
    ( '' ),
    ( '' ),
    'SwSTEP 2.0',
    'SolidWorks 2019',
    '' );
FILE_SCHEMA (( 'CONFIG_CONTROL_DESIGN' ));
ENDSEC;

DATA;
#1 = DATE_AND_TIME ( #79, #150 ) ;
#2 = PLANE ( 'NONE',  #200 ) ;
#3 = DIRECTION ( 'NONE',  ( 4.275831445896958607E-31, 1.000000000000000000, 1.224646799147353207E-16 ) ) ;
#4 = DATE_TIME_ROLE ( 'classification_date' ) ;
#5 = CLOSED_SHELL ( 'NONE', ( #12, #197, #312, #343, #208, #260, #112, #303, #277, #178, #255 ) ) ;
#6 = DIRECTION ( 'NONE',  ( 4.275831445896958607E-31, 1.000000000000000000, 1.224646799147353207E-16 ) ) ;
#7 = CALENDAR_DATE ( 2021, 13, 12 ) ;
#8 = EDGE_LOOP ( 'NONE', ( #320 ) ) ;
#9 = CARTESIAN_POINT ( 'NONE',  ( 1.326762908760390423E-13, -4.653657836759941941E-15, 38.00000000000000000 ) ) ;
#10 = ORIENTED_EDGE ( 'NONE', *, *, #37, .F. ) ;
#11 = PLANE ( 'NONE',  #148 ) ;
#12 = ADVANCED_FACE ( 'NONE', ( #293 ), #2, .F. ) ;
#13 = DIRECTION ( 'NONE',  ( 4.338314491551686298E-31, 1.000000000000000000, 1.224646799147353207E-16 ) ) ;
#14 = DIRECTION ( 'NONE',  ( 4.275831445896959482E-31, 1.000000000000000000, 1.224646799147353454E-16 ) ) ;
#15 = FACE_OUTER_BOUND ( 'NONE', #298, .T. ) ;
#16 = EDGE_LOOP ( 'NONE', ( #123 ) ) ;
#17 = EDGE_CURVE ( 'NONE', #336, #336, #51, .T. ) ;
#18 = CARTESIAN_POINT ( 'NONE',  ( 3.840629472727447480E-15, 1.874699728327319957E-33, 1.100000000000000089 ) ) ;
#19 = ORIENTED_EDGE ( 'NONE', *, *, #144, .T. ) ;
#20 = CARTESIAN_POINT ( 'NONE',  ( 9.776147748760774973E-15, -3.429011037612589276E-16, 2.800000000000000266 ) ) ;
#21 = ADVANCED_FACE ( 'NONE', ( #290, #56 ), #61, .T. ) ;
#22 = LOCAL_TIME ( 11, 25, 50.00000000000000000, #189 ) ;
#23 =( NAMED_UNIT ( * ) SI_UNIT ( $, .STERADIAN. ) SOLID_ANGLE_UNIT ( ) );
#24 = DIRECTION ( 'NONE',  ( 0.0000000000000000000, 1.000000000000000000, 0.0000000000000000000 ) ) ;
#25 = CONICAL_SURFACE ( 'NONE', #221, 1.959999999999999520, 0.2217440814658727943 ) ;
#26 = CIRCLE ( 'NONE', #330, 1.999999999999997780 ) ;
#27 = SECURITY_CLASSIFICATION_LEVEL ( 'unclassified' ) ;
#28 = DIRECTION ( 'NONE',  ( 0.0000000000000000000, 1.000000000000000000, 0.0000000000000000000 ) ) ;
#29 = DIRECTION ( 'NONE',  ( 0.0000000000000000000, 1.000000000000000000, 0.0000000000000000000 ) ) ;
#30 = CALENDAR_DATE ( 2021, 13, 12 ) ;
#31 = CARTESIAN_POINT ( 'NONE',  ( -4.276197608515955246E-32, 1.499888215219790317E-33, -1.224751672289570345E-17 ) ) ;
#32 = APPROVAL_ROLE ( '' ) ;
#33 = AXIS2_PLACEMENT_3D ( 'NONE', #135, #218, #323 ) ;
#34 = DIRECTION ( 'NONE',  ( 0.0000000000000000000, 1.000000000000000000, 0.0000000000000000000 ) ) ;
#35 = COORDINATED_UNIVERSAL_TIME_OFFSET ( 1, 0, .AHEAD. ) ;
#36 = EDGE_LOOP ( 'NONE', ( #270 ) ) ;
#37 = EDGE_CURVE ( 'NONE', #125, #125, #280, .T. ) ;
#38 = DIRECTION ( 'NONE',  ( -4.275831445896958607E-31, -1.000000000000000000, -1.224646799147353207E-16 ) ) ;
#39 = DIRECTION ( 'NONE',  ( -3.491481338843133355E-15, 1.224646799147353207E-16, -1.000000000000000000 ) ) ;
#40 = CIRCLE ( 'NONE', #318, 1.959999999999999520 ) ;
#41 = PRODUCT_DEFINITION_FORMATION_WITH_SPECIFIED_SOURCE ( 'ANY', '', #340, .NOT_KNOWN. ) ;
#42 = ORIENTED_EDGE ( 'NONE', *, *, #307, .F. ) ;
#43 = DIRECTION ( 'NONE',  ( -3.491481338843133355E-15, 1.224646799147353207E-16, -1.000000000000000000 ) ) ;
#44 = DIRECTION ( 'NONE',  ( 4.275831445896958607E-31, 1.000000000000000000, 1.224646799147353207E-16 ) ) ;
#45 = EDGE_CURVE ( 'NONE', #156, #156, #180, .T. ) ;
#46 = FACE_OUTER_BOUND ( 'NONE', #72, .T. ) ;
#47 = EDGE_LOOP ( 'NONE', ( #10 ) ) ;
#48 = DIRECTION ( 'NONE',  ( 1.000000000000000000, 0.0000000000000000000, 0.0000000000000000000 ) ) ;
#49 = PRODUCT_RELATED_PRODUCT_CATEGORY ( 'detail', '', ( #340 ) ) ;
#50 = VERTEX_POINT ( 'NONE', #185 ) ;
#51 = CIRCLE ( 'NONE', #335, 0.2989692899384953084 ) ;
#52 = AXIS2_PLACEMENT_3D ( 'NONE', #20, #231, #338 ) ;
#53 = VERTEX_POINT ( 'NONE', #124 ) ;
#54 = CALENDAR_DATE ( 2021, 13, 12 ) ;
#55 = DESIGN_CONTEXT ( 'detailed design', #110, 'design' ) ;
#56 = FACE_OUTER_BOUND ( 'NONE', #325, .T. ) ;
#57 = CC_DESIGN_APPROVAL ( #171, ( #337 ) ) ;
#58 = PERSON_AND_ORGANIZATION ( #234, #300 ) ;
#59 = DIRECTION ( 'NONE',  ( 0.0000000000000000000, 1.000000000000000000, 0.0000000000000000000 ) ) ;
#60 = APPROVAL_ROLE ( '' ) ;
#61 = CYLINDRICAL_SURFACE ( 'NONE', #210, 0.2499999999999998890 ) ;
#62 = AXIS2_PLACEMENT_3D ( 'NONE', #324, #238, #199 ) ;
#63 = PERSON_AND_ORGANIZATION_ROLE ( 'creator' ) ;
#64 = DIRECTION ( 'NONE',  ( -3.491481338843133355E-15, 1.224646799147353207E-16, -1.000000000000000000 ) ) ;
#65 = CC_DESIGN_PERSON_AND_ORGANIZATION_ASSIGNMENT ( #58, #134, ( #84 ) ) ;
#66 = DIRECTION ( 'NONE',  ( -3.491481338843133355E-15, 1.224646799147353207E-16, -1.000000000000000000 ) ) ;
#67 = EDGE_LOOP ( 'NONE', ( #179 ) ) ;
#68 = DIRECTION ( 'NONE',  ( 0.0000000000000000000, 1.000000000000000000, 0.0000000000000000000 ) ) ;
#69 = CARTESIAN_POINT ( 'NONE',  ( 2.719859855912650389E-14, -9.539984159779177421E-16, 7.789988236952307687 ) ) ;
#70 = DIRECTION ( 'NONE',  ( 0.0000000000000000000, 1.000000000000000000, 0.0000000000000000000 ) ) ;
#71 = DIRECTION ( 'NONE',  ( 0.0000000000000000000, -1.000000000000000000, 0.0000000000000000000 ) ) ;
#72 = EDGE_LOOP ( 'NONE', ( #160 ) ) ;
#73 =( LENGTH_UNIT ( ) NAMED_UNIT ( * ) SI_UNIT ( .MILLI., .METRE. ) );
#74 = LOCAL_TIME ( 11, 25, 50.00000000000000000, #266 ) ;
#75 = DIRECTION ( 'NONE',  ( -3.491481338843133355E-15, 1.224646799147353207E-16, -1.000000000000000000 ) ) ;
#76 = AXIS2_PLACEMENT_3D ( 'NONE', #115, #327, #202 ) ;
#77 = DATE_AND_TIME ( #7, #22 ) ;
#78 = ORIENTED_EDGE ( 'NONE', *, *, #288, .T. ) ;
#79 = CALENDAR_DATE ( 2021, 13, 12 ) ;
#80 = DIRECTION ( 'NONE',  ( -4.275831445896958607E-31, -1.000000000000000000, -1.224646799147353207E-16 ) ) ;
#81 = ORIENTED_EDGE ( 'NONE', *, *, #17, .F. ) ;
#82 = PERSON_AND_ORGANIZATION ( #234, #300 ) ;
#83 = CARTESIAN_POINT ( 'NONE',  ( 0.0000000000000000000, 0.0000000000000000000, 0.0000000000000000000 ) ) ;
#84 = SECURITY_CLASSIFICATION ( '', '', #27 ) ;
#85 = DIRECTION ( 'NONE',  ( -4.275831445896958607E-31, -1.000000000000000000, -1.224646799147353207E-16 ) ) ;
#86 = EDGE_LOOP ( 'NONE', ( #117 ) ) ;
#87 = FACE_BOUND ( 'NONE', #8, .T. ) ;
#88 = MANIFOLD_SOLID_BREP ( 'Corps-Déplacer/Copier1[1]', #5 ) ;
#89 = CARTESIAN_POINT ( 'NONE',  ( 1.326762908760390423E-13, 1.199807826129477602E-32, 38.00000000000000000 ) ) ;
#90 = CC_DESIGN_DATE_AND_TIME_ASSIGNMENT ( #1, #295, ( #337 ) ) ;
#91 = PLANE ( 'NONE',  #76 ) ;
#92 = CIRCLE ( 'NONE', #33, 0.2499999999999999445 ) ;
#93 = CIRCLE ( 'NONE', #154, 0.2499999999999999445 ) ;
#94 = FACE_OUTER_BOUND ( 'NONE', #267, .T. ) ;
#95 = CARTESIAN_POINT ( 'NONE',  ( 5.237222008264700033E-15, 0.2499999999999998335, 1.500000000000000000 ) ) ;
#96 = CARTESIAN_POINT ( 'NONE',  ( 3.247077645124114651E-14, 1.999999999999995337, 9.300000000000000711 ) ) ;
#97 = AXIS2_PLACEMENT_3D ( 'NONE', #263, #262, #59 ) ;
#98 =( GEOMETRIC_REPRESENTATION_CONTEXT ( 3 ) GLOBAL_UNCERTAINTY_ASSIGNED_CONTEXT ( ( #322 ) ) GLOBAL_UNIT_ASSIGNED_CONTEXT ( ( #73, #315, #23 ) ) REPRESENTATION_CONTEXT ( 'NONE', 'WORKASPACE' ) );
#99 = VERTEX_POINT ( 'NONE', #129 ) ;
#100 = EDGE_CURVE ( 'NONE', #50, #50, #92, .T. ) ;
#101 = CIRCLE ( 'NONE', #299, 0.2500000000000000000 ) ;
#102 = AXIS2_PLACEMENT_3D ( 'NONE', #301, #75, #24 ) ;
#103 = APPROVAL_STATUS ( 'not_yet_approved' ) ;
#104 = FACE_OUTER_BOUND ( 'NONE', #333, .T. ) ;
#105 = CC_DESIGN_PERSON_AND_ORGANIZATION_ASSIGNMENT ( #82, #168, ( #337 ) ) ;
#106 = FACE_OUTER_BOUND ( 'NONE', #86, .T. ) ;
#107 = CC_DESIGN_APPROVAL ( #194, ( #84 ) ) ;
#108 = DIRECTION ( 'NONE',  ( 3.491481338843133355E-15, -1.224646799147353207E-16, 1.000000000000000000 ) ) ;
#109 = ORIENTED_EDGE ( 'NONE', *, *, #204, .F. ) ;
#110 = APPLICATION_CONTEXT ( 'configuration controlled 3d designs of mechanical parts and assemblies' ) ;
#111 = DIRECTION ( 'NONE',  ( 0.0000000000000000000, 1.000000000000000000, 0.0000000000000000000 ) ) ;
#112 = ADVANCED_FACE ( 'NONE', ( #106, #212 ), #240, .T. ) ;
#113 = ORIENTED_EDGE ( 'NONE', *, *, #132, .F. ) ;
#114 = CARTESIAN_POINT ( 'NONE',  ( 0.0000000000000000000, 0.0000000000000000000, 0.0000000000000000000 ) ) ;
#115 = CARTESIAN_POINT ( 'NONE',  ( 9.776147748760774973E-15, 9.957568719378328998E-33, 2.800000000000000266 ) ) ;
#116 = ADVANCED_FACE ( 'NONE', ( #104 ), #219, .F. ) ;
#117 = ORIENTED_EDGE ( 'NONE', *, *, #144, .F. ) ;
#118 = FACE_OUTER_BOUND ( 'NONE', #225, .T. ) ;
#119 = CARTESIAN_POINT ( 'NONE',  ( 5.237222008264700033E-15, -1.836970198721029934E-16, 1.500000000000000000 ) ) ;
#120 = AXIS2_PLACEMENT_3D ( 'NONE', #192, #296, #28 ) ;
#121 = FACE_OUTER_BOUND ( 'NONE', #248, .T. ) ;
#122 = CC_DESIGN_PERSON_AND_ORGANIZATION_ASSIGNMENT ( #241, #63, ( #41 ) ) ;
#123 = ORIENTED_EDGE ( 'NONE', *, *, #307, .T. ) ;
#124 = CARTESIAN_POINT ( 'NONE',  ( 9.776147748760774973E-15, 0.8349999999999996314, 2.800000000000000266 ) ) ;
#125 = VERTEX_POINT ( 'NONE', #284 ) ;
#126 = CONICAL_SURFACE ( 'NONE', #52, 0.4928884838083981146, 0.2217440814658724613 ) ;
#127 = COORDINATED_UNIVERSAL_TIME_OFFSET ( 1, 0, .AHEAD. ) ;
#128 = PERSON_AND_ORGANIZATION ( #234, #300 ) ;
#129 = CARTESIAN_POINT ( 'NONE',  ( 2.137183397710478088E-32, 0.2499999999999998335, 6.121136532892404794E-18 ) ) ;
#130 = AXIS2_PLACEMENT_3D ( 'NONE', #9, #242, #29 ) ;
#131 = DIRECTION ( 'NONE',  ( -3.491481338843133355E-15, 1.224646799147353207E-16, -1.000000000000000000 ) ) ;
#132 = EDGE_CURVE ( 'NONE', #286, #286, #285, .T. ) ;
#133 = CARTESIAN_POINT ( 'NONE',  ( 0.0000000000000000000, 0.0000000000000000000, 0.0000000000000000000 ) ) ;
#134 = PERSON_AND_ORGANIZATION_ROLE ( 'classification_officer' ) ;
#135 = CARTESIAN_POINT ( 'NONE',  ( 3.840629472727447480E-15, -1.347111479062088503E-16, 1.100000000000000089 ) ) ;
#136 = APPLICATION_CONTEXT ( 'configuration controlled 3d designs of mechanical parts and assemblies' ) ;
#137 = PERSON_AND_ORGANIZATION_ROLE ( 'design_supplier' ) ;
#138 = DIRECTION ( 'NONE',  ( -4.275831445896958607E-31, -1.000000000000000000, -1.224646799147353207E-16 ) ) ;
#139 = APPROVAL ( #103, 'UNSPECIFIED' ) ;
#140 = ORIENTED_EDGE ( 'NONE', *, *, #316, .F. ) ;
#141 = CARTESIAN_POINT ( 'NONE',  ( 3.247077645124114651E-14, 2.969524369670473466E-32, 9.300000000000000711 ) ) ;
#142 = CLOSED_SHELL ( 'NONE', ( #116, #21, #250 ) ) ;
#143 = CARTESIAN_POINT ( 'NONE',  ( 1.326762908760390423E-13, -4.653657836759941941E-15, 38.00000000000000000 ) ) ;
#144 = EDGE_CURVE ( 'NONE', #152, #152, #40, .T. ) ;
#145 = ORIENTED_EDGE ( 'NONE', *, *, #288, .F. ) ;
#146 = FACE_OUTER_BOUND ( 'NONE', #16, .T. ) ;
#147 = CARTESIAN_POINT ( 'NONE',  ( 3.840629472727447480E-15, -1.347111479062088503E-16, 1.100000000000000089 ) ) ;
#148 = AXIS2_PLACEMENT_3D ( 'NONE', #89, #326, #278 ) ;
#149 = DIRECTION ( 'NONE',  ( 3.491481338843133355E-15, -1.224646799147353207E-16, 1.000000000000000000 ) ) ;
#150 = LOCAL_TIME ( 11, 25, 50.00000000000000000, #215 ) ;
#151 = EDGE_LOOP ( 'NONE', ( #246 ) ) ;
#152 = VERTEX_POINT ( 'NONE', #283 ) ;
#153 = CARTESIAN_POINT ( 'NONE',  ( 0.0000000000000000000, 0.0000000000000000000, 0.0000000000000000000 ) ) ;
#154 = AXIS2_PLACEMENT_3D ( 'NONE', #147, #253, #251 ) ;
#155 = CARTESIAN_POINT ( 'NONE',  ( 1.312796983405018142E-13, 1.999999999999993117, 37.60000000000000142 ) ) ;
#156 = VERTEX_POINT ( 'NONE', #332 ) ;
#157 = DIRECTION ( 'NONE',  ( -3.491481338843133355E-15, 1.224646799147353207E-16, -1.000000000000000000 ) ) ;
#158 = APPROVAL_PERSON_ORGANIZATION ( #187, #171, #258 ) ;
#159 = SHAPE_DEFINITION_REPRESENTATION ( #235, #294 ) ;
#160 = ORIENTED_EDGE ( 'NONE', *, *, #216, .T. ) ;
#161 = DATE_AND_TIME ( #30, #74 ) ;
#162 = CARTESIAN_POINT ( 'NONE',  ( 2.719859855912650389E-14, -9.539984159779177421E-16, 7.789988236952307687 ) ) ;
#163 = DATE_AND_TIME ( #211, #292 ) ;
#164 = ORIENTED_EDGE ( 'NONE', *, *, #166, .T. ) ;
#165 = AXIS2_PLACEMENT_3D ( 'NONE', #18, #222, #38 ) ;
#166 = EDGE_CURVE ( 'NONE', #99, #99, #173, .T. ) ;
#167 = CIRCLE ( 'NONE', #313, 0.8349999999999999645 ) ;
#168 = PERSON_AND_ORGANIZATION_ROLE ( 'creator' ) ;
#169 = CARTESIAN_POINT ( 'NONE',  ( 5.237222008264699244E-15, 0.0000000000000000000, 1.499999999999999778 ) ) ;
#170 = EDGE_LOOP ( 'NONE', ( #205 ) ) ;
#171 = APPROVAL ( #289, 'UNSPECIFIED' ) ;
#172 = DIRECTION ( 'NONE',  ( 0.0000000000000000000, 1.000000000000000000, 0.0000000000000000000 ) ) ;
#173 = CIRCLE ( 'NONE', #62, 0.2499999999999998335 ) ;
#174 = TOROIDAL_SURFACE ( 'NONE', #186, 2.250000000000000000, 2.000000000000000000 ) ;
#175 = FACE_BOUND ( 'NONE', #244, .T. ) ;
#176 = FACE_OUTER_BOUND ( 'NONE', #36, .T. ) ;
#177 = PLANE ( 'NONE',  #165 ) ;
#178 = ADVANCED_FACE ( 'NONE', ( #15, #175 ), #314, .T. ) ;
#179 = ORIENTED_EDGE ( 'NONE', *, *, #37, .T. ) ;
#180 = CIRCLE ( 'NONE', #130, 1.599999999999997646 ) ;
#181 = APPLICATION_PROTOCOL_DEFINITION ( 'international standard', 'config_control_design', 1994, #136 ) ;
#182 = AXIS2_PLACEMENT_3D ( 'NONE', #153, #261, #48 ) ;
#183 = VERTEX_POINT ( 'NONE', #230 ) ;
#184 = VERTEX_POINT ( 'NONE', #95 ) ;
#185 = CARTESIAN_POINT ( 'NONE',  ( 3.840629472727447480E-15, 0.2499999999999998335, 1.100000000000000089 ) ) ;
#186 = AXIS2_PLACEMENT_3D ( 'NONE', #169, #39, #13 ) ;
#187 = PERSON_AND_ORGANIZATION ( #234, #300 ) ;
#188 = EDGE_LOOP ( 'NONE', ( #275 ) ) ;
#189 = COORDINATED_UNIVERSAL_TIME_OFFSET ( 1, 0, .AHEAD. ) ;
#190 = EDGE_LOOP ( 'NONE', ( #81 ) ) ;
#191 = PERSON_AND_ORGANIZATION ( #234, #300 ) ;
#192 = CARTESIAN_POINT ( 'NONE',  ( 9.776147748760774973E-15, -3.429011037612589276E-16, 2.800000000000000266 ) ) ;
#193 = DIRECTION ( 'NONE',  ( 3.491481338843133355E-15, -1.224646799147353207E-16, 1.000000000000000000 ) ) ;
#194 = APPROVAL ( #236, 'UNSPECIFIED' ) ;
#195 = CC_DESIGN_SECURITY_CLASSIFICATION ( #84, ( #41 ) ) ;
#196 = FACE_OUTER_BOUND ( 'NONE', #217, .T. ) ;
#197 = ADVANCED_FACE ( 'NONE', ( #118, #272 ), #203, .T. ) ;
#198 = FACE_BOUND ( 'NONE', #47, .T. ) ;
#199 = DIRECTION ( 'NONE',  ( 4.275831445896957731E-31, 1.000000000000000000, 1.224646799147353207E-16 ) ) ;
#200 = AXIS2_PLACEMENT_3D ( 'NONE', #243, #193, #138 ) ;
#201 = CC_DESIGN_APPROVAL ( #139, ( #41 ) ) ;
#202 = DIRECTION ( 'NONE',  ( -4.275831445896958607E-31, -1.000000000000000000, -1.224646799147353207E-16 ) ) ;
#203 = CYLINDRICAL_SURFACE ( 'NONE', #268, 0.2500000000000000000 ) ;
#204 = EDGE_CURVE ( 'NONE', #184, #184, #101, .T. ) ;
#205 = ORIENTED_EDGE ( 'NONE', *, *, #204, .T. ) ;
#206 = DATE_AND_TIME ( #54, #245 ) ;
#207 = MANIFOLD_SOLID_BREP ( 'Corps-Déplacer/Copier1[2]', #142 ) ;
#208 = ADVANCED_FACE ( 'NONE', ( #304, #46 ), #91, .F. ) ;
#209 = VERTEX_POINT ( 'NONE', #96 ) ;
#210 = AXIS2_PLACEMENT_3D ( 'NONE', #133, #239, #3 ) ;
#211 = CALENDAR_DATE ( 2021, 13, 12 ) ;
#212 = FACE_OUTER_BOUND ( 'NONE', #67, .T. ) ;
#213 = EDGE_LOOP ( 'NONE', ( #113 ) ) ;
#214 = AXIS2_PLACEMENT_3D ( 'NONE', #83, #64, #6 ) ;
#215 = COORDINATED_UNIVERSAL_TIME_OFFSET ( 1, 0, .AHEAD. ) ;
#216 = EDGE_CURVE ( 'NONE', #53, #53, #167, .T. ) ;
#217 = EDGE_LOOP ( 'NONE', ( #109 ) ) ;
#218 = DIRECTION ( 'NONE',  ( -3.491481338843133355E-15, 1.224646799147353207E-16, -1.000000000000000000 ) ) ;
#219 = PLANE ( 'NONE',  #257 ) ;
#220 = CC_DESIGN_PERSON_AND_ORGANIZATION_ASSIGNMENT ( #269, #137, ( #41 ) ) ;
#221 = AXIS2_PLACEMENT_3D ( 'NONE', #69, #149, #71 ) ;
#222 = DIRECTION ( 'NONE',  ( 3.491481338843133355E-15, -1.224646799147353207E-16, 1.000000000000000000 ) ) ;
#223 = EDGE_LOOP ( 'NONE', ( #78 ) ) ;
#224 = CARTESIAN_POINT ( 'NONE',  ( 9.776147748760774973E-15, -3.429011037612589276E-16, 2.800000000000000266 ) ) ;
#225 = EDGE_LOOP ( 'NONE', ( #145 ) ) ;
#226 = CARTESIAN_POINT ( 'NONE',  ( 0.0000000000000000000, 0.0000000000000000000, 0.0000000000000000000 ) ) ;
#227 = DIRECTION ( 'NONE',  ( -3.491481338843133355E-15, 1.224646799147353207E-16, -1.000000000000000000 ) ) ;
#228 = DIRECTION ( 'NONE',  ( 3.491481338843133355E-15, -1.224646799147353207E-16, 1.000000000000000000 ) ) ;
#229 = EDGE_LOOP ( 'NONE', ( #254 ) ) ;
#230 = CARTESIAN_POINT ( 'NONE',  ( 3.840629472727447480E-15, 0.2499999999999998335, 1.100000000000000089 ) ) ;
#231 = DIRECTION ( 'NONE',  ( 3.491481338843133355E-15, -1.224646799147353207E-16, 1.000000000000000000 ) ) ;
#232 = FACE_BOUND ( 'NONE', #190, .T. ) ;
#233 = APPLICATION_PROTOCOL_DEFINITION ( 'international standard', 'config_control_design', 1994, #110 ) ;
#234 = PERSON ( 'UNSPECIFIED', 'UNSPECIFIED', 'UNSPECIFIED', ('UNSPECIFIED'), ('UNSPECIFIED'), ('UNSPECIFIED') ) ;
#235 = PRODUCT_DEFINITION_SHAPE ( 'NONE', 'NONE',  #337 ) ;
#236 = APPROVAL_STATUS ( 'not_yet_approved' ) ;
#237 = APPROVAL_DATE_TIME ( #206, #171 ) ;
#238 = DIRECTION ( 'NONE',  ( -3.491481338843133355E-15, 1.224646799147353207E-16, -1.000000000000000000 ) ) ;
#239 = DIRECTION ( 'NONE',  ( -3.491481338843133355E-15, 1.224646799147353207E-16, -1.000000000000000000 ) ) ;
#240 = CYLINDRICAL_SURFACE ( 'NONE', #214, 1.959999999999999964 ) ;
#241 = PERSON_AND_ORGANIZATION ( #234, #300 ) ;
#242 = DIRECTION ( 'NONE',  ( -3.491481338843133355E-15, 1.224646799147353207E-16, -1.000000000000000000 ) ) ;
#243 = CARTESIAN_POINT ( 'NONE',  ( 3.840629472727447480E-15, 1.874699728327319957E-33, 1.100000000000000089 ) ) ;
#244 = EDGE_LOOP ( 'NONE', ( #273 ) ) ;
#245 = LOCAL_TIME ( 11, 25, 50.00000000000000000, #127 ) ;
#246 = ORIENTED_EDGE ( 'NONE', *, *, #17, .T. ) ;
#247 = FACE_OUTER_BOUND ( 'NONE', #265, .T. ) ;
#248 = EDGE_LOOP ( 'NONE', ( #19 ) ) ;
#249 = CYLINDRICAL_SURFACE ( 'NONE', #252, 1.999999999999997335 ) ;
#250 = ADVANCED_FACE ( 'NONE', ( #305 ), #177, .T. ) ;
#251 = DIRECTION ( 'NONE',  ( 0.0000000000000000000, 1.000000000000000000, 0.0000000000000000000 ) ) ;
#252 = AXIS2_PLACEMENT_3D ( 'NONE', #114, #279, #14 ) ;
#253 = DIRECTION ( 'NONE',  ( -3.491481338843133355E-15, 1.224646799147353207E-16, -1.000000000000000000 ) ) ;
#254 = ORIENTED_EDGE ( 'NONE', *, *, #132, .T. ) ;
#255 = ADVANCED_FACE ( 'NONE', ( #176 ), #11, .F. ) ;
#256 = PERSON_AND_ORGANIZATION_ROLE ( 'design_owner' ) ;
#257 = AXIS2_PLACEMENT_3D ( 'NONE', #31, #108, #80 ) ;
#258 = APPROVAL_ROLE ( '' ) ;
#259 = APPROVAL_PERSON_ORGANIZATION ( #317, #139, #60 ) ;
#260 = ADVANCED_FACE ( 'NONE', ( #87, #121 ), #25, .T. ) ;
#261 = DIRECTION ( 'NONE',  ( 0.0000000000000000000, 0.0000000000000000000, 1.000000000000000000 ) ) ;
#262 = DIRECTION ( 'NONE',  ( -3.491481338843133355E-15, 1.224646799147353207E-16, -1.000000000000000000 ) ) ;
#263 = CARTESIAN_POINT ( 'NONE',  ( 3.247077645124114651E-14, -1.138921523207038574E-15, 9.300000000000000711 ) ) ;
#264 = APPROVAL_DATE_TIME ( #161, #139 ) ;
#265 = EDGE_LOOP ( 'NONE', ( #271 ) ) ;
#266 = COORDINATED_UNIVERSAL_TIME_OFFSET ( 1, 0, .AHEAD. ) ;
#267 = EDGE_LOOP ( 'NONE', ( #140 ) ) ;
#268 = AXIS2_PLACEMENT_3D ( 'NONE', #226, #43, #44 ) ;
#269 = PERSON_AND_ORGANIZATION ( #234, #300 ) ;
#270 = ORIENTED_EDGE ( 'NONE', *, *, #45, .F. ) ;
#271 = ORIENTED_EDGE ( 'NONE', *, *, #316, .T. ) ;
#272 = FACE_OUTER_BOUND ( 'NONE', #170, .T. ) ;
#273 = ORIENTED_EDGE ( 'NONE', *, *, #45, .T. ) ;
#274 = FACE_OUTER_BOUND ( 'NONE', #151, .T. ) ;
#275 = ORIENTED_EDGE ( 'NONE', *, *, #166, .F. ) ;
#276 = DIRECTION ( 'NONE',  ( -3.491481338843133355E-15, 1.224646799147353207E-16, -1.000000000000000000 ) ) ;
#277 = ADVANCED_FACE ( 'NONE', ( #94, #146 ), #249, .T. ) ;
#278 = DIRECTION ( 'NONE',  ( 4.275831445896958607E-31, 1.000000000000000000, 1.224646799147353207E-16 ) ) ;
#279 = DIRECTION ( 'NONE',  ( -3.491481338843133355E-15, 1.224646799147353207E-16, -1.000000000000000000 ) ) ;
#280 = CIRCLE ( 'NONE', #97, 1.959999999999999964 ) ;
#281 = ORIENTED_EDGE ( 'NONE', *, *, #100, .F. ) ;
#282 = CC_DESIGN_PERSON_AND_ORGANIZATION_ASSIGNMENT ( #128, #256, ( #340 ) ) ;
#283 = CARTESIAN_POINT ( 'NONE',  ( 2.719859855912650389E-14, 1.959999999999998632, 7.789988236952307687 ) ) ;
#284 = CARTESIAN_POINT ( 'NONE',  ( 3.247077645124114651E-14, 1.959999999999998632, 9.300000000000000711 ) ) ;
#285 = CIRCLE ( 'NONE', #120, 0.4928884838083981146 ) ;
#286 = VERTEX_POINT ( 'NONE', #339 ) ;
#287 = AXIS2_PLACEMENT_3D ( 'NONE', #141, #228, #85 ) ;
#288 = EDGE_CURVE ( 'NONE', #183, #183, #93, .T. ) ;
#289 = APPROVAL_STATUS ( 'not_yet_approved' ) ;
#290 = FACE_OUTER_BOUND ( 'NONE', #188, .T. ) ;
#291 = CC_DESIGN_DATE_AND_TIME_ASSIGNMENT ( #163, #4, ( #84 ) ) ;
#292 = LOCAL_TIME ( 11, 25, 50.00000000000000000, #35 ) ;
#293 = FACE_OUTER_BOUND ( 'NONE', #223, .T. ) ;
#294 = ADVANCED_BREP_SHAPE_REPRESENTATION ( '388799', ( #88, #207, #182 ), #98 ) ;
#295 = DATE_TIME_ROLE ( 'creation_date' ) ;
#296 = DIRECTION ( 'NONE',  ( -3.491481338843133355E-15, 1.224646799147353207E-16, -1.000000000000000000 ) ) ;
#297 = CARTESIAN_POINT ( 'NONE',  ( 6.772994311974852977E-15, -2.375646609513754793E-16, 1.939862669928808847 ) ) ;
#298 = EDGE_LOOP ( 'NONE', ( #42 ) ) ;
#299 = AXIS2_PLACEMENT_3D ( 'NONE', #119, #227, #328 ) ;
#300 = ORGANIZATION ( 'UNSPECIFIED', 'UNSPECIFIED', '' ) ;
#301 = CARTESIAN_POINT ( 'NONE',  ( 3.247077645124114651E-14, -1.138921523207038574E-15, 9.300000000000000711 ) ) ;
#302 = CARTESIAN_POINT ( 'NONE',  ( 1.312796983405018142E-13, -4.604671964794047724E-15, 37.60000000000000142 ) ) ;
#303 = ADVANCED_FACE ( 'NONE', ( #198, #247 ), #306, .F. ) ;
#304 = FACE_BOUND ( 'NONE', #213, .T. ) ;
#305 = FACE_OUTER_BOUND ( 'NONE', #308, .T. ) ;
#306 = PLANE ( 'NONE',  #287 ) ;
#307 = EDGE_CURVE ( 'NONE', #334, #334, #26, .T. ) ;
#308 = EDGE_LOOP ( 'NONE', ( #281 ) ) ;
#309 = CARTESIAN_POINT ( 'NONE',  ( 6.772994311974852977E-15, 0.2989692899384950864, 1.939862669928808847 ) ) ;
#310 = MECHANICAL_CONTEXT ( 'NONE', #136, 'mechanical' ) ;
#311 = FACE_OUTER_BOUND ( 'NONE', #229, .T. ) ;
#312 = ADVANCED_FACE ( 'NONE', ( #274, #196 ), #174, .F. ) ;
#313 = AXIS2_PLACEMENT_3D ( 'NONE', #224, #331, #70 ) ;
#314 = CONICAL_SURFACE ( 'NONE', #329, 1.599999999999997646, 0.7853981633974516097 ) ;
#315 =( NAMED_UNIT ( * ) PLANE_ANGLE_UNIT ( ) SI_UNIT ( $, .RADIAN. ) );
#316 = EDGE_CURVE ( 'NONE', #209, #209, #319, .T. ) ;
#317 = PERSON_AND_ORGANIZATION ( #234, #300 ) ;
#318 = AXIS2_PLACEMENT_3D ( 'NONE', #162, #131, #111 ) ;
#319 = CIRCLE ( 'NONE', #102, 1.999999999999996669 ) ;
#320 = ORIENTED_EDGE ( 'NONE', *, *, #216, .F. ) ;
#321 = ORIENTED_EDGE ( 'NONE', *, *, #100, .T. ) ;
#322 = UNCERTAINTY_MEASURE_WITH_UNIT (LENGTH_MEASURE( 1.000000000000000082E-05 ), #73, 'distance_accuracy_value', 'NONE');
#323 = DIRECTION ( 'NONE',  ( 0.0000000000000000000, 1.000000000000000000, 0.0000000000000000000 ) ) ;
#324 = CARTESIAN_POINT ( 'NONE',  ( -8.552395217031910492E-32, 2.999776430439580633E-33, -2.449503344579140690E-17 ) ) ;
#325 = EDGE_LOOP ( 'NONE', ( #321 ) ) ;
#326 = DIRECTION ( 'NONE',  ( -3.491481338843133355E-15, 1.224646799147353207E-16, -1.000000000000000000 ) ) ;
#327 = DIRECTION ( 'NONE',  ( 3.491481338843133355E-15, -1.224646799147353207E-16, 1.000000000000000000 ) ) ;
#328 = DIRECTION ( 'NONE',  ( 0.0000000000000000000, 1.000000000000000000, 0.0000000000000000000 ) ) ;
#329 = AXIS2_PLACEMENT_3D ( 'NONE', #143, #276, #68 ) ;
#330 = AXIS2_PLACEMENT_3D ( 'NONE', #302, #66, #172 ) ;
#331 = DIRECTION ( 'NONE',  ( -3.491481338843133355E-15, 1.224646799147353207E-16, -1.000000000000000000 ) ) ;
#332 = CARTESIAN_POINT ( 'NONE',  ( 1.326762908760390423E-13, 1.599999999999993205, 38.00000000000000000 ) ) ;
#333 = EDGE_LOOP ( 'NONE', ( #164 ) ) ;
#334 = VERTEX_POINT ( 'NONE', #155 ) ;
#335 = AXIS2_PLACEMENT_3D ( 'NONE', #297, #157, #34 ) ;
#336 = VERTEX_POINT ( 'NONE', #309 ) ;
#337 = PRODUCT_DEFINITION ( 'UNKNOWN', '', #41, #55 ) ;
#338 = DIRECTION ( 'NONE',  ( 0.0000000000000000000, -1.000000000000000000, 0.0000000000000000000 ) ) ;
#339 = CARTESIAN_POINT ( 'NONE',  ( 9.776147748760774973E-15, 0.4928884838083977815, 2.800000000000000266 ) ) ;
#340 = PRODUCT ( '388799', '388799', '', ( #310 ) ) ;
#341 = APPROVAL_PERSON_ORGANIZATION ( #191, #194, #32 ) ;
#342 = APPROVAL_DATE_TIME ( #77, #194 ) ;
#343 = ADVANCED_FACE ( 'NONE', ( #232, #311 ), #126, .T. ) ;
ENDSEC;
END-ISO-10303-21;
