ISO-10303-21;
HEADER;
FILE_DESCRIPTION (( 'STEP AP203' ),
    '1' );
FILE_NAME ('388798.step',
    '2021-12-13T10:25:50',
    ( '' ),
    ( '' ),
    'SwSTEP 2.0',
    'SolidWorks 2019',
    '' );
FILE_SCHEMA (( 'CONFIG_CONTROL_DESIGN' ));
ENDSEC;

DATA;
#1 = CARTESIAN_POINT ( 'NONE',  ( 1.312796983405018142E-13, 1.999999999999993117, 37.60000000000000142 ) ) ;
#2 = CIRCLE ( 'NONE', #120, 0.2000000000000000111 ) ;
#3 = FACE_OUTER_BOUND ( 'NONE', #104, .T. ) ;
#4 = VERTEX_POINT ( 'NONE', #56 ) ;
#5 = CARTESIAN_POINT ( 'NONE',  ( 1.326762908760390423E-13, -4.653657836759941941E-15, 38.00000000000000000 ) ) ;
#6 = CARTESIAN_POINT ( 'NONE',  ( 6.633814543801952586E-15, -2.326828918379970872E-16, 1.899999999999999689 ) ) ;
#7 = EDGE_LOOP ( 'NONE', ( #85 ) ) ;
#8 = DIRECTION ( 'NONE',  ( -4.275831445896958607E-31, -1.000000000000000000, -1.224646799147353207E-16 ) ) ;
#9 = DIRECTION ( 'NONE',  ( 0.0000000000000000000, 1.000000000000000000, 0.0000000000000000000 ) ) ;
#10 = APPROVAL_DATE_TIME ( #287, #130 ) ;
#11 = FACE_OUTER_BOUND ( 'NONE', #7, .T. ) ;
#12 = DIRECTION ( 'NONE',  ( 0.0000000000000000000, 1.000000000000000000, 0.0000000000000000000 ) ) ;
#13 = AXIS2_PLACEMENT_3D ( 'NONE', #305, #270, #8 ) ;
#14 = CALENDAR_DATE ( 2021, 13, 12 ) ;
#15 = FACE_BOUND ( 'NONE', #36, .T. ) ;
#16 = COORDINATED_UNIVERSAL_TIME_OFFSET ( 1, 0, .AHEAD. ) ;
#17 = PERSON ( 'UNSPECIFIED', 'UNSPECIFIED', 'UNSPECIFIED', ('UNSPECIFIED'), ('UNSPECIFIED'), ('UNSPECIFIED') ) ;
#18 = DIRECTION ( 'NONE',  ( -3.491481338843133355E-15, 1.224646799147353207E-16, -1.000000000000000000 ) ) ;
#19 = DIRECTION ( 'NONE',  ( 3.491481338843133355E-15, -1.224646799147353207E-16, 1.000000000000000000 ) ) ;
#20 = EDGE_LOOP ( 'NONE', ( #28 ) ) ;
#21 = AXIS2_PLACEMENT_3D ( 'NONE', #198, #257, #194 ) ;
#22 = ADVANCED_FACE ( 'NONE', ( #273, #34 ), #154, .T. ) ;
#23 = ORIENTED_EDGE ( 'NONE', *, *, #24, .T. ) ;
#24 = EDGE_CURVE ( 'NONE', #4, #4, #196, .T. ) ;
#25 = AXIS2_PLACEMENT_3D ( 'NONE', #112, #89, #192 ) ;
#26 = EDGE_LOOP ( 'NONE', ( #207 ) ) ;
#27 = DIRECTION ( 'NONE',  ( 0.0000000000000000000, 0.0000000000000000000, 1.000000000000000000 ) ) ;
#28 = ORIENTED_EDGE ( 'NONE', *, *, #153, .T. ) ;
#29 = CARTESIAN_POINT ( 'NONE',  ( 3.142333204958820020E-15, 1.499759782661856068E-33, 0.9000000000000000222 ) ) ;
#30 = ADVANCED_FACE ( 'NONE', ( #3, #83 ), #131, .T. ) ;
#31 = PRODUCT_DEFINITION_FORMATION_WITH_SPECIFIED_SOURCE ( 'ANY', '', #49, .NOT_KNOWN. ) ;
#32 = DIRECTION ( 'NONE',  ( -3.491481338843133355E-15, 1.224646799147353207E-16, -1.000000000000000000 ) ) ;
#33 = CARTESIAN_POINT ( 'NONE',  ( 2.137183397710479182E-32, 0.1999999999999999001, 6.121136532892404794E-18 ) ) ;
#34 = FACE_OUTER_BOUND ( 'NONE', #91, .T. ) ;
#35 = VERTEX_POINT ( 'NONE', #276 ) ;
#36 = EDGE_LOOP ( 'NONE', ( #193 ) ) ;
#37 = EDGE_CURVE ( 'NONE', #66, #66, #260, .T. ) ;
#38 = DIRECTION ( 'NONE',  ( -3.491481338843133355E-15, 1.224646799147353207E-16, -1.000000000000000000 ) ) ;
#39 = CYLINDRICAL_SURFACE ( 'NONE', #340, 1.959999999999999964 ) ;
#40 = CARTESIAN_POINT ( 'NONE',  ( 6.633814543801954164E-15, -2.326828918379971365E-16, 1.900000000000000133 ) ) ;
#41 = DATE_AND_TIME ( #124, #53 ) ;
#42 = APPROVAL ( #98, 'UNSPECIFIED' ) ;
#43 = DIRECTION ( 'NONE',  ( -3.491481338843133355E-15, 1.224646799147353207E-16, -1.000000000000000000 ) ) ;
#44 = COORDINATED_UNIVERSAL_TIME_OFFSET ( 1, 0, .AHEAD. ) ;
#45 = DIRECTION ( 'NONE',  ( 0.0000000000000000000, 1.000000000000000000, 0.0000000000000000000 ) ) ;
#46 = FACE_BOUND ( 'NONE', #266, .T. ) ;
#47 = PRODUCT_RELATED_PRODUCT_CATEGORY ( 'detail', '', ( #49 ) ) ;
#48 = AXIS2_PLACEMENT_3D ( 'NONE', #157, #246, #269 ) ;
#49 = PRODUCT ( '388798', '388798', '', ( #296 ) ) ;
#50 = EDGE_LOOP ( 'NONE', ( #322 ) ) ;
#51 = AXIS2_PLACEMENT_3D ( 'NONE', #337, #313, #221 ) ;
#52 = DIRECTION ( 'NONE',  ( 4.275831445896958607E-31, 1.000000000000000000, 1.224646799147353207E-16 ) ) ;
#53 = LOCAL_TIME ( 11, 25, 50.00000000000000000, #256 ) ;
#54 = ORIENTED_EDGE ( 'NONE', *, *, #217, .F. ) ;
#55 = EDGE_CURVE ( 'NONE', #299, #299, #107, .T. ) ;
#56 = CARTESIAN_POINT ( 'NONE',  ( 6.633814543801952586E-15, 0.7199999999999997513, 1.899999999999999689 ) ) ;
#57 = EDGE_LOOP ( 'NONE', ( #78 ) ) ;
#58 = VERTEX_POINT ( 'NONE', #158 ) ;
#59 = AXIS2_PLACEMENT_3D ( 'NONE', #315, #69, #281 ) ;
#60 = ORIENTED_EDGE ( 'NONE', *, *, #37, .T. ) ;
#61 = VERTEX_POINT ( 'NONE', #244 ) ;
#62 = ADVANCED_FACE ( 'NONE', ( #163 ), #108, .F. ) ;
#63 = SECURITY_CLASSIFICATION ( '', '', #118 ) ;
#64 = APPLICATION_CONTEXT ( 'configuration controlled 3d designs of mechanical parts and assemblies' ) ;
#65 = ORIENTED_EDGE ( 'NONE', *, *, #187, .T. ) ;
#66 = VERTEX_POINT ( 'NONE', #267 ) ;
#67 = DIRECTION ( 'NONE',  ( 4.275831445896959482E-31, 1.000000000000000000, 1.224646799147353454E-16 ) ) ;
#68 = CIRCLE ( 'NONE', #235, 1.959999999999999964 ) ;
#69 = DIRECTION ( 'NONE',  ( 3.491481338843133355E-15, -1.224646799147353207E-16, 1.000000000000000000 ) ) ;
#70 = CARTESIAN_POINT ( 'NONE',  ( 0.0000000000000000000, 0.0000000000000000000, 0.0000000000000000000 ) ) ;
#71 = APPROVAL_STATUS ( 'not_yet_approved' ) ;
#72 = CC_DESIGN_PERSON_AND_ORGANIZATION_ASSIGNMENT ( #307, #284, ( #151 ) ) ;
#73 = FACE_OUTER_BOUND ( 'NONE', #178, .T. ) ;
#74 = PERSON_AND_ORGANIZATION ( #17, #114 ) ;
#75 = DIRECTION ( 'NONE',  ( -3.491481338843133355E-15, 1.224646799147353207E-16, -1.000000000000000000 ) ) ;
#76 = CC_DESIGN_DATE_AND_TIME_ASSIGNMENT ( #280, #314, ( #63 ) ) ;
#77 = DIRECTION ( 'NONE',  ( -3.491481338843133355E-15, 1.224646799147353207E-16, -1.000000000000000000 ) ) ;
#78 = ORIENTED_EDGE ( 'NONE', *, *, #303, .T. ) ;
#79 = LOCAL_TIME ( 11, 25, 50.00000000000000000, #44 ) ;
#80 = ORIENTED_EDGE ( 'NONE', *, *, #55, .F. ) ;
#81 = ADVANCED_FACE ( 'NONE', ( #212 ), #105, .F. ) ;
#82 = CONICAL_SURFACE ( 'NONE', #300, 1.599999999999997646, 0.7853981633974516097 ) ;
#83 = FACE_OUTER_BOUND ( 'NONE', #20, .T. ) ;
#84 = APPLICATION_PROTOCOL_DEFINITION ( 'international standard', 'config_control_design', 1994, #64 ) ;
#85 = ORIENTED_EDGE ( 'NONE', *, *, #217, .T. ) ;
#86 = VERTEX_POINT ( 'NONE', #1 ) ;
#87 = CLOSED_SHELL ( 'NONE', ( #113, #22, #323 ) ) ;
#88 = AXIS2_PLACEMENT_3D ( 'NONE', #204, #19, #233 ) ;
#89 = DIRECTION ( 'NONE',  ( -3.491481338843133355E-15, 1.224646799147353207E-16, -1.000000000000000000 ) ) ;
#90 = CARTESIAN_POINT ( 'NONE',  ( 0.0000000000000000000, 0.0000000000000000000, 0.0000000000000000000 ) ) ;
#91 = EDGE_LOOP ( 'NONE', ( #65 ) ) ;
#92 = DIRECTION ( 'NONE',  ( -3.491481338843133355E-15, 1.224646799147353207E-16, -1.000000000000000000 ) ) ;
#93 = CC_DESIGN_APPROVAL ( #130, ( #151 ) ) ;
#94 = CARTESIAN_POINT ( 'NONE',  ( 3.212162831735682687E-14, -1.126675055215564822E-15, 9.199999999999999289 ) ) ;
#95 = CC_DESIGN_PERSON_AND_ORGANIZATION_ASSIGNMENT ( #74, #149, ( #31 ) ) ;
#96 = CALENDAR_DATE ( 2021, 13, 12 ) ;
#97 = DIRECTION ( 'NONE',  ( -3.491481338843133355E-15, 1.224646799147353207E-16, -1.000000000000000000 ) ) ;
#98 = APPROVAL_STATUS ( 'not_yet_approved' ) ;
#99 = FACE_OUTER_BOUND ( 'NONE', #26, .T. ) ;
#100 = TOROIDAL_SURFACE ( 'NONE', #166, 2.200000000000000178, 2.000000000000000000 ) ;
#101 = ORIENTED_EDGE ( 'NONE', *, *, #160, .F. ) ;
#102 = ADVANCED_FACE ( 'NONE', ( #279, #144 ), #82, .T. ) ;
#103 = CC_DESIGN_APPROVAL ( #252, ( #31 ) ) ;
#104 = EDGE_LOOP ( 'NONE', ( #136 ) ) ;
#105 = PLANE ( 'NONE',  #334 ) ;
#106 = DIRECTION ( 'NONE',  ( 1.000000000000000000, 0.0000000000000000000, 0.0000000000000000000 ) ) ;
#107 = CIRCLE ( 'NONE', #172, 1.599999999999997646 ) ;
#108 = PLANE ( 'NONE',  #190 ) ;
#109 = DIRECTION ( 'NONE',  ( -4.275831445896958607E-31, -1.000000000000000000, -1.224646799147353207E-16 ) ) ;
#110 = DIRECTION ( 'NONE',  ( -3.491481338843133355E-15, 1.224646799147353207E-16, -1.000000000000000000 ) ) ;
#111 = PERSON_AND_ORGANIZATION_ROLE ( 'design_owner' ) ;
#112 = CARTESIAN_POINT ( 'NONE',  ( 3.142333204958820020E-15, -1.102182119232617788E-16, 0.9000000000000000222 ) ) ;
#113 = ADVANCED_FACE ( 'NONE', ( #339 ), #283, .F. ) ;
#114 = ORGANIZATION ( 'UNSPECIFIED', 'UNSPECIFIED', '' ) ;
#115 = DIRECTION ( 'NONE',  ( -3.491481338843133355E-15, 1.224646799147353207E-16, -1.000000000000000000 ) ) ;
#116 = VERTEX_POINT ( 'NONE', #33 ) ;
#117 = DIRECTION ( 'NONE',  ( -3.491481338843133355E-15, 1.224646799147353207E-16, -1.000000000000000000 ) ) ;
#118 = SECURITY_CLASSIFICATION_LEVEL ( 'unclassified' ) ;
#119 = PLANE ( 'NONE',  #51 ) ;
#120 = AXIS2_PLACEMENT_3D ( 'NONE', #199, #92, #223 ) ;
#121 = DIRECTION ( 'NONE',  ( 4.275831445896958607E-31, 1.000000000000000000, 1.224646799147353207E-16 ) ) ;
#122 = COORDINATED_UNIVERSAL_TIME_OFFSET ( 1, 0, .AHEAD. ) ;
#123 = FACE_OUTER_BOUND ( 'NONE', #50, .T. ) ;
#124 = CALENDAR_DATE ( 2021, 13, 12 ) ;
#125 = CARTESIAN_POINT ( 'NONE',  ( 0.0000000000000000000, 0.0000000000000000000, 0.0000000000000000000 ) ) ;
#126 = PERSON_AND_ORGANIZATION_ROLE ( 'design_supplier' ) ;
#127 = DIRECTION ( 'NONE',  ( 4.275831445896958607E-31, 1.000000000000000000, 1.224646799147353207E-16 ) ) ;
#128 = ADVANCED_FACE ( 'NONE', ( #15, #333 ), #285, .T. ) ;
#129 = CIRCLE ( 'NONE', #142, 0.2437047985323862742 ) ;
#130 = APPROVAL ( #71, 'UNSPECIFIED' ) ;
#131 = CYLINDRICAL_SURFACE ( 'NONE', #147, 0.2000000000000000389 ) ;
#132 = VERTEX_POINT ( 'NONE', #331 ) ;
#133 = DIRECTION ( 'NONE',  ( 0.0000000000000000000, 1.000000000000000000, 0.0000000000000000000 ) ) ;
#134 = VERTEX_POINT ( 'NONE', #302 ) ;
#135 = AXIS2_PLACEMENT_3D ( 'NONE', #6, #155, #133 ) ;
#136 = ORIENTED_EDGE ( 'NONE', *, *, #37, .F. ) ;
#137 = PLANE ( 'NONE',  #310 ) ;
#138 = CARTESIAN_POINT ( 'NONE',  ( 0.0000000000000000000, 0.0000000000000000000, 0.0000000000000000000 ) ) ;
#139 = CARTESIAN_POINT ( 'NONE',  ( 3.142333204958820020E-15, 0.1999999999999999001, 0.9000000000000000222 ) ) ;
#140 = CARTESIAN_POINT ( 'NONE',  ( 1.326762908760390423E-13, 1.199807826129477602E-32, 38.00000000000000000 ) ) ;
#141 = FACE_OUTER_BOUND ( 'NONE', #343, .T. ) ;
#142 = AXIS2_PLACEMENT_3D ( 'NONE', #170, #219, #9 ) ;
#143 = FACE_OUTER_BOUND ( 'NONE', #161, .T. ) ;
#144 = FACE_BOUND ( 'NONE', #325, .T. ) ;
#145 = CARTESIAN_POINT ( 'NONE',  ( 4.189777606611759237E-15, -1.469576158976823553E-16, 1.199999999999999956 ) ) ;
#146 = CALENDAR_DATE ( 2021, 13, 12 ) ;
#147 = AXIS2_PLACEMENT_3D ( 'NONE', #138, #32, #52 ) ;
#148 = DIRECTION ( 'NONE',  ( 0.0000000000000000000, 1.000000000000000000, 0.0000000000000000000 ) ) ;
#149 = PERSON_AND_ORGANIZATION_ROLE ( 'creator' ) ;
#150 = DIRECTION ( 'NONE',  ( 0.0000000000000000000, 1.000000000000000000, 0.0000000000000000000 ) ) ;
#151 = PRODUCT_DEFINITION ( 'UNKNOWN', '', #31, #245 ) ;
#152 = ADVANCED_BREP_SHAPE_REPRESENTATION ( '388798', ( #177, #294, #263 ), #324 ) ;
#153 = EDGE_CURVE ( 'NONE', #132, #132, #254, .T. ) ;
#154 = CYLINDRICAL_SURFACE ( 'NONE', #48, 0.1999999999999999556 ) ;
#155 = DIRECTION ( 'NONE',  ( -3.491481338843133355E-15, 1.224646799147353207E-16, -1.000000000000000000 ) ) ;
#156 = CARTESIAN_POINT ( 'NONE',  ( 1.326762908760390423E-13, 1.599999999999993205, 38.00000000000000000 ) ) ;
#157 = CARTESIAN_POINT ( 'NONE',  ( 0.0000000000000000000, 0.0000000000000000000, 0.0000000000000000000 ) ) ;
#158 = CARTESIAN_POINT ( 'NONE',  ( 6.633814543801954164E-15, 0.3041084034389550661, 1.900000000000000133 ) ) ;
#159 = AXIS2_PLACEMENT_3D ( 'NONE', #167, #255, #308 ) ;
#160 = EDGE_CURVE ( 'NONE', #134, #134, #129, .T. ) ;
#161 = EDGE_LOOP ( 'NONE', ( #214 ) ) ;
#162 = CARTESIAN_POINT ( 'NONE',  ( 2.700221355322303872E-14, 1.959999999999998632, 7.733741335753478552 ) ) ;
#163 = FACE_OUTER_BOUND ( 'NONE', #215, .T. ) ;
#164 = ADVANCED_FACE ( 'NONE', ( #143, #335 ), #39, .T. ) ;
#165 = PERSON_AND_ORGANIZATION ( #17, #114 ) ;
#166 = AXIS2_PLACEMENT_3D ( 'NONE', #201, #173, #286 ) ;
#167 = CARTESIAN_POINT ( 'NONE',  ( 3.212162831735682687E-14, -1.126675055215564822E-15, 9.199999999999999289 ) ) ;
#168 = DIRECTION ( 'NONE',  ( -3.491481338843133355E-15, 1.224646799147353207E-16, -1.000000000000000000 ) ) ;
#169 = DATE_TIME_ROLE ( 'creation_date' ) ;
#170 = CARTESIAN_POINT ( 'NONE',  ( 5.641617183846770622E-15, -1.978812932307372756E-16, 1.615823381635504541 ) ) ;
#171 = EDGE_CURVE ( 'NONE', #58, #58, #293, .T. ) ;
#172 = AXIS2_PLACEMENT_3D ( 'NONE', #5, #110, #304 ) ;
#173 = DIRECTION ( 'NONE',  ( -3.491481338843133355E-15, 1.224646799147353207E-16, -1.000000000000000000 ) ) ;
#174 = APPROVAL_ROLE ( '' ) ;
#175 = FACE_OUTER_BOUND ( 'NONE', #272, .T. ) ;
#176 = APPLICATION_CONTEXT ( 'configuration controlled 3d designs of mechanical parts and assemblies' ) ;
#177 = MANIFOLD_SOLID_BREP ( 'Corps-Déplacer/Copier1[1]', #231 ) ;
#178 = EDGE_LOOP ( 'NONE', ( #292 ) ) ;
#179 = AXIS2_PLACEMENT_3D ( 'NONE', #277, #38, #127 ) ;
#180 = CC_DESIGN_PERSON_AND_ORGANIZATION_ASSIGNMENT ( #229, #200, ( #63 ) ) ;
#181 = ORIENTED_EDGE ( 'NONE', *, *, #291, .T. ) ;
#182 = AXIS2_PLACEMENT_3D ( 'NONE', #70, #168, #67 ) ;
#183 =( NAMED_UNIT ( * ) SI_UNIT ( $, .STERADIAN. ) SOLID_ANGLE_UNIT ( ) );
#184 = EDGE_LOOP ( 'NONE', ( #54 ) ) ;
#185 =( NAMED_UNIT ( * ) PLANE_ANGLE_UNIT ( ) SI_UNIT ( $, .RADIAN. ) );
#186 = EDGE_LOOP ( 'NONE', ( #181 ) ) ;
#187 = EDGE_CURVE ( 'NONE', #327, #327, #2, .T. ) ;
#188 = PERSON_AND_ORGANIZATION ( #17, #114 ) ;
#189 = EDGE_LOOP ( 'NONE', ( #301 ) ) ;
#190 = AXIS2_PLACEMENT_3D ( 'NONE', #237, #247, #275 ) ;
#191 = UNCERTAINTY_MEASURE_WITH_UNIT (LENGTH_MEASURE( 1.000000000000000082E-05 ), #238, 'distance_accuracy_value', 'NONE');
#192 = DIRECTION ( 'NONE',  ( 0.0000000000000000000, 1.000000000000000000, 0.0000000000000000000 ) ) ;
#193 = ORIENTED_EDGE ( 'NONE', *, *, #24, .F. ) ;
#194 = DIRECTION ( 'NONE',  ( 0.0000000000000000000, -1.000000000000000000, 0.0000000000000000000 ) ) ;
#195 = APPROVAL_STATUS ( 'not_yet_approved' ) ;
#196 = CIRCLE ( 'NONE', #135, 0.7199999999999999734 ) ;
#197 = CIRCLE ( 'NONE', #328, 1.959999999999999520 ) ;
#198 = CARTESIAN_POINT ( 'NONE',  ( 2.700221355322303872E-14, -9.471101572264071548E-16, 7.733741335753478552 ) ) ;
#199 = CARTESIAN_POINT ( 'NONE',  ( 3.142333204958820020E-15, -1.102182119232617788E-16, 0.9000000000000000222 ) ) ;
#200 = PERSON_AND_ORGANIZATION_ROLE ( 'classification_officer' ) ;
#201 = CARTESIAN_POINT ( 'NONE',  ( 4.189777606611758449E-15, 0.0000000000000000000, 1.199999999999999734 ) ) ;
#202 = APPROVAL_ROLE ( '' ) ;
#203 = AXIS2_PLACEMENT_3D ( 'NONE', #40, #75, #226 ) ;
#204 = CARTESIAN_POINT ( 'NONE',  ( 6.633814543801954164E-15, -2.326828918379971365E-16, 1.900000000000000133 ) ) ;
#205 = CC_DESIGN_PERSON_AND_ORGANIZATION_ASSIGNMENT ( #250, #126, ( #31 ) ) ;
#206 = CC_DESIGN_SECURITY_CLASSIFICATION ( #63, ( #31 ) ) ;
#207 = ORIENTED_EDGE ( 'NONE', *, *, #211, .T. ) ;
#208 = ORIENTED_EDGE ( 'NONE', *, *, #171, .T. ) ;
#209 = CONICAL_SURFACE ( 'NONE', #88, 0.3041084034389552881, 0.2094395102393120933 ) ;
#210 = APPLICATION_PROTOCOL_DEFINITION ( 'international standard', 'config_control_design', 1994, #176 ) ;
#211 = EDGE_CURVE ( 'NONE', #86, #86, #232, .T. ) ;
#212 = FACE_OUTER_BOUND ( 'NONE', #236, .T. ) ;
#213 = VERTEX_POINT ( 'NONE', #162 ) ;
#214 = ORIENTED_EDGE ( 'NONE', *, *, #303, .F. ) ;
#215 = EDGE_LOOP ( 'NONE', ( #60 ) ) ;
#216 = CIRCLE ( 'NONE', #179, 0.1999999999999999001 ) ;
#217 = EDGE_CURVE ( 'NONE', #61, #61, #342, .T. ) ;
#218 = DIRECTION ( 'NONE',  ( 4.275831445896958607E-31, 1.000000000000000000, 1.224646799147353207E-16 ) ) ;
#219 = DIRECTION ( 'NONE',  ( -3.491481338843133355E-15, 1.224646799147353207E-16, -1.000000000000000000 ) ) ;
#220 = PERSON_AND_ORGANIZATION ( #17, #114 ) ;
#221 = DIRECTION ( 'NONE',  ( -4.275831445896958607E-31, -1.000000000000000000, -1.224646799147353207E-16 ) ) ;
#222 = APPROVAL_PERSON_ORGANIZATION ( #165, #252, #174 ) ;
#223 = DIRECTION ( 'NONE',  ( 0.0000000000000000000, 1.000000000000000000, 0.0000000000000000000 ) ) ;
#224 = ADVANCED_FACE ( 'NONE', ( #251, #11 ), #119, .F. ) ;
#225 = APPROVAL_DATE_TIME ( #278, #252 ) ;
#226 = DIRECTION ( 'NONE',  ( 0.0000000000000000000, 1.000000000000000000, 0.0000000000000000000 ) ) ;
#227 = SHAPE_DEFINITION_REPRESENTATION ( #268, #152 ) ;
#228 = FACE_OUTER_BOUND ( 'NONE', #184, .T. ) ;
#229 = PERSON_AND_ORGANIZATION ( #17, #114 ) ;
#230 = EDGE_CURVE ( 'NONE', #35, #35, #68, .T. ) ;
#231 = CLOSED_SHELL ( 'NONE', ( #62, #30, #239, #295, #309, #128, #164, #224, #274, #102, #81 ) ) ;
#232 = CIRCLE ( 'NONE', #321, 1.999999999999997780 ) ;
#233 = DIRECTION ( 'NONE',  ( 0.0000000000000000000, -1.000000000000000000, 0.0000000000000000000 ) ) ;
#234 = APPROVAL_PERSON_ORGANIZATION ( #220, #42, #282 ) ;
#235 = AXIS2_PLACEMENT_3D ( 'NONE', #94, #97, #311 ) ;
#236 = EDGE_LOOP ( 'NONE', ( #80 ) ) ;
#237 = CARTESIAN_POINT ( 'NONE',  ( 3.142333204958820020E-15, 1.499759782661856068E-33, 0.9000000000000000222 ) ) ;
#238 =( LENGTH_UNIT ( ) NAMED_UNIT ( * ) SI_UNIT ( .MILLI., .METRE. ) );
#239 = ADVANCED_FACE ( 'NONE', ( #73, #123 ), #100, .F. ) ;
#240 = ORIENTED_EDGE ( 'NONE', *, *, #230, .F. ) ;
#241 = APPROVAL_PERSON_ORGANIZATION ( #188, #130, #202 ) ;
#242 = PERSON_AND_ORGANIZATION ( #17, #114 ) ;
#243 = ORIENTED_EDGE ( 'NONE', *, *, #211, .F. ) ;
#244 = CARTESIAN_POINT ( 'NONE',  ( 3.212162831735682687E-14, 1.999999999999995337, 9.199999999999999289 ) ) ;
#245 = DESIGN_CONTEXT ( 'detailed design', #64, 'design' ) ;
#246 = DIRECTION ( 'NONE',  ( -3.491481338843133355E-15, 1.224646799147353207E-16, -1.000000000000000000 ) ) ;
#247 = DIRECTION ( 'NONE',  ( 3.491481338843133355E-15, -1.224646799147353207E-16, 1.000000000000000000 ) ) ;
#248 = DIRECTION ( 'NONE',  ( 3.491481338843133355E-15, -1.224646799147353207E-16, 1.000000000000000000 ) ) ;
#249 = DIRECTION ( 'NONE',  ( -3.491481338843133355E-15, 1.224646799147353207E-16, -1.000000000000000000 ) ) ;
#250 = PERSON_AND_ORGANIZATION ( #17, #114 ) ;
#251 = FACE_BOUND ( 'NONE', #289, .T. ) ;
#252 = APPROVAL ( #195, 'UNSPECIFIED' ) ;
#253 = CARTESIAN_POINT ( 'NONE',  ( 1.326762908760390423E-13, -4.653657836759941941E-15, 38.00000000000000000 ) ) ;
#254 = CIRCLE ( 'NONE', #271, 0.2000000000000000389 ) ;
#255 = DIRECTION ( 'NONE',  ( -3.491481338843133355E-15, 1.224646799147353207E-16, -1.000000000000000000 ) ) ;
#256 = COORDINATED_UNIVERSAL_TIME_OFFSET ( 1, 0, .AHEAD. ) ;
#257 = DIRECTION ( 'NONE',  ( 3.491481338843133355E-15, -1.224646799147353207E-16, 1.000000000000000000 ) ) ;
#258 = CC_DESIGN_PERSON_AND_ORGANIZATION_ASSIGNMENT ( #242, #111, ( #49 ) ) ;
#259 = FACE_OUTER_BOUND ( 'NONE', #326, .T. ) ;
#260 = CIRCLE ( 'NONE', #25, 0.2000000000000000111 ) ;
#261 = LOCAL_TIME ( 11, 25, 50.00000000000000000, #122 ) ;
#262 = ORIENTED_EDGE ( 'NONE', *, *, #230, .T. ) ;
#263 = AXIS2_PLACEMENT_3D ( 'NONE', #90, #27, #106 ) ;
#264 = EDGE_LOOP ( 'NONE', ( #262 ) ) ;
#265 = CC_DESIGN_APPROVAL ( #42, ( #63 ) ) ;
#266 = EDGE_LOOP ( 'NONE', ( #101 ) ) ;
#267 = CARTESIAN_POINT ( 'NONE',  ( 3.142333204958820020E-15, 0.1999999999999999001, 0.9000000000000000222 ) ) ;
#268 = PRODUCT_DEFINITION_SHAPE ( 'NONE', 'NONE',  #151 ) ;
#269 = DIRECTION ( 'NONE',  ( 4.275831445896958607E-31, 1.000000000000000000, 1.224646799147353207E-16 ) ) ;
#270 = DIRECTION ( 'NONE',  ( 3.491481338843133355E-15, -1.224646799147353207E-16, 1.000000000000000000 ) ) ;
#271 = AXIS2_PLACEMENT_3D ( 'NONE', #145, #18, #12 ) ;
#272 = EDGE_LOOP ( 'NONE', ( #23 ) ) ;
#273 = FACE_OUTER_BOUND ( 'NONE', #319, .T. ) ;
#274 = ADVANCED_FACE ( 'NONE', ( #228, #99 ), #306, .T. ) ;
#275 = DIRECTION ( 'NONE',  ( -4.275831445896958607E-31, -1.000000000000000000, -1.224646799147353207E-16 ) ) ;
#276 = CARTESIAN_POINT ( 'NONE',  ( 3.212162831735682687E-14, 1.959999999999998632, 9.199999999999999289 ) ) ;
#277 = CARTESIAN_POINT ( 'NONE',  ( -6.414479494083433597E-32, 2.249896539108652856E-33, -1.837179945005464826E-17 ) ) ;
#278 = DATE_AND_TIME ( #316, #79 ) ;
#279 = FACE_OUTER_BOUND ( 'NONE', #330, .T. ) ;
#280 = DATE_AND_TIME ( #96, #261 ) ;
#281 = DIRECTION ( 'NONE',  ( -4.275831445896958607E-31, -1.000000000000000000, -1.224646799147353207E-16 ) ) ;
#282 = APPROVAL_ROLE ( '' ) ;
#283 = PLANE ( 'NONE',  #59 ) ;
#284 = PERSON_AND_ORGANIZATION_ROLE ( 'creator' ) ;
#285 = CONICAL_SURFACE ( 'NONE', #21, 1.959999999999999520, 0.2094395102393127317 ) ;
#286 = DIRECTION ( 'NONE',  ( 4.339058337333290564E-31, 1.000000000000000000, 1.224646799147353207E-16 ) ) ;
#287 = DATE_AND_TIME ( #14, #317 ) ;
#288 = PLANE ( 'NONE',  #13 ) ;
#289 = EDGE_LOOP ( 'NONE', ( #240 ) ) ;
#290 = LOCAL_TIME ( 11, 25, 50.00000000000000000, #336 ) ;
#291 = EDGE_CURVE ( 'NONE', #116, #116, #216, .T. ) ;
#292 = ORIENTED_EDGE ( 'NONE', *, *, #160, .T. ) ;
#293 = CIRCLE ( 'NONE', #203, 0.3041084034389552881 ) ;
#294 = MANIFOLD_SOLID_BREP ( 'Corps-Déplacer/Copier1[2]', #87 ) ;
#295 = ADVANCED_FACE ( 'NONE', ( #46, #259 ), #209, .T. ) ;
#296 = MECHANICAL_CONTEXT ( 'NONE', #176, 'mechanical' ) ;
#297 = ORIENTED_EDGE ( 'NONE', *, *, #55, .T. ) ;
#298 = ORIENTED_EDGE ( 'NONE', *, *, #291, .F. ) ;
#299 = VERTEX_POINT ( 'NONE', #156 ) ;
#300 = AXIS2_PLACEMENT_3D ( 'NONE', #253, #249, #45 ) ;
#301 = ORIENTED_EDGE ( 'NONE', *, *, #171, .F. ) ;
#302 = CARTESIAN_POINT ( 'NONE',  ( 5.641617183846770622E-15, 0.2437047985323860799, 1.615823381635504541 ) ) ;
#303 = EDGE_CURVE ( 'NONE', #213, #213, #197, .T. ) ;
#304 = DIRECTION ( 'NONE',  ( 0.0000000000000000000, 1.000000000000000000, 0.0000000000000000000 ) ) ;
#305 = CARTESIAN_POINT ( 'NONE',  ( 6.633814543801953375E-15, 9.906351293251458149E-16, 1.899999999999999911 ) ) ;
#306 = CYLINDRICAL_SURFACE ( 'NONE', #182, 1.999999999999997335 ) ;
#307 = PERSON_AND_ORGANIZATION ( #17, #114 ) ;
#308 = DIRECTION ( 'NONE',  ( 0.0000000000000000000, 1.000000000000000000, 0.0000000000000000000 ) ) ;
#309 = ADVANCED_FACE ( 'NONE', ( #318, #175 ), #288, .F. ) ;
#310 = AXIS2_PLACEMENT_3D ( 'NONE', #29, #248, #109 ) ;
#311 = DIRECTION ( 'NONE',  ( 0.0000000000000000000, 1.000000000000000000, 0.0000000000000000000 ) ) ;
#312 = DATE_AND_TIME ( #146, #290 ) ;
#313 = DIRECTION ( 'NONE',  ( 3.491481338843133355E-15, -1.224646799147353207E-16, 1.000000000000000000 ) ) ;
#314 = DATE_TIME_ROLE ( 'classification_date' ) ;
#315 = CARTESIAN_POINT ( 'NONE',  ( -3.207239747041716799E-32, 1.124948269554326428E-33, -9.185899725027324128E-18 ) ) ;
#316 = CALENDAR_DATE ( 2021, 13, 12 ) ;
#317 = LOCAL_TIME ( 11, 25, 50.00000000000000000, #16 ) ;
#318 = FACE_BOUND ( 'NONE', #189, .T. ) ;
#319 = EDGE_LOOP ( 'NONE', ( #298 ) ) ;
#320 = CC_DESIGN_DATE_AND_TIME_ASSIGNMENT ( #312, #169, ( #151 ) ) ;
#321 = AXIS2_PLACEMENT_3D ( 'NONE', #332, #117, #148 ) ;
#322 = ORIENTED_EDGE ( 'NONE', *, *, #153, .F. ) ;
#323 = ADVANCED_FACE ( 'NONE', ( #141 ), #137, .T. ) ;
#324 =( GEOMETRIC_REPRESENTATION_CONTEXT ( 3 ) GLOBAL_UNCERTAINTY_ASSIGNED_CONTEXT ( ( #191 ) ) GLOBAL_UNIT_ASSIGNED_CONTEXT ( ( #238, #185, #183 ) ) REPRESENTATION_CONTEXT ( 'NONE', 'WORKASPACE' ) );
#325 = EDGE_LOOP ( 'NONE', ( #297 ) ) ;
#326 = EDGE_LOOP ( 'NONE', ( #208 ) ) ;
#327 = VERTEX_POINT ( 'NONE', #139 ) ;
#328 = AXIS2_PLACEMENT_3D ( 'NONE', #341, #77, #150 ) ;
#329 = ORIENTED_EDGE ( 'NONE', *, *, #187, .F. ) ;
#330 = EDGE_LOOP ( 'NONE', ( #243 ) ) ;
#331 = CARTESIAN_POINT ( 'NONE',  ( 4.189777606611759237E-15, 0.1999999999999999001, 1.199999999999999956 ) ) ;
#332 = CARTESIAN_POINT ( 'NONE',  ( 1.312796983405018142E-13, -4.604671964794047724E-15, 37.60000000000000142 ) ) ;
#333 = FACE_OUTER_BOUND ( 'NONE', #57, .T. ) ;
#334 = AXIS2_PLACEMENT_3D ( 'NONE', #140, #115, #218 ) ;
#335 = FACE_OUTER_BOUND ( 'NONE', #264, .T. ) ;
#336 = COORDINATED_UNIVERSAL_TIME_OFFSET ( 1, 0, .AHEAD. ) ;
#337 = CARTESIAN_POINT ( 'NONE',  ( 3.212162831735682687E-14, 2.969524369670473466E-32, 9.199999999999999289 ) ) ;
#338 = APPROVAL_DATE_TIME ( #41, #42 ) ;
#339 = FACE_OUTER_BOUND ( 'NONE', #186, .T. ) ;
#340 = AXIS2_PLACEMENT_3D ( 'NONE', #125, #43, #121 ) ;
#341 = CARTESIAN_POINT ( 'NONE',  ( 2.700221355322303872E-14, -9.471101572264071548E-16, 7.733741335753478552 ) ) ;
#342 = CIRCLE ( 'NONE', #159, 1.999999999999996669 ) ;
#343 = EDGE_LOOP ( 'NONE', ( #329 ) ) ;
ENDSEC;
END-ISO-10303-21;
