ISO-10303-21;
HEADER;
FILE_DESCRIPTION (( 'STEP AP203' ),
    '1' );
FILE_NAME ('388797.step',
    '2021-12-13T10:25:49',
    ( '' ),
    ( '' ),
    'SwSTEP 2.0',
    'SolidWorks 2019',
    '' );
FILE_SCHEMA (( 'CONFIG_CONTROL_DESIGN' ));
ENDSEC;

DATA;
#1 = PLANE ( 'NONE',  #323 ) ;
#2 = AXIS2_PLACEMENT_3D ( 'NONE', #138, #133, #321 ) ;
#3 = APPROVAL_STATUS ( 'not_yet_approved' ) ;
#4 = EDGE_LOOP ( 'NONE', ( #204 ) ) ;
#5 = CALENDAR_DATE ( 2021, 13, 12 ) ;
#6 = EDGE_LOOP ( 'NONE', ( #338 ) ) ;
#7 = APPROVAL_ROLE ( '' ) ;
#8 = APPROVAL_PERSON_ORGANIZATION ( #109, #52, #186 ) ;
#9 = SHAPE_DEFINITION_REPRESENTATION ( #13, #99 ) ;
#10 = EDGE_LOOP ( 'NONE', ( #318 ) ) ;
#11 = AXIS2_PLACEMENT_3D ( 'NONE', #82, #324, #88 ) ;
#12 = DIRECTION ( 'NONE',  ( 0.0000000000000000000, 1.000000000000000000, 0.0000000000000000000 ) ) ;
#13 = PRODUCT_DEFINITION_SHAPE ( 'NONE', 'NONE',  #106 ) ;
#14 = DIRECTION ( 'NONE',  ( 3.491481338843133355E-15, -1.224646799147353207E-16, 1.000000000000000000 ) ) ;
#15 = CC_DESIGN_PERSON_AND_ORGANIZATION_ASSIGNMENT ( #244, #317, ( #106 ) ) ;
#16 = CIRCLE ( 'NONE', #58, 0.1499999999999993838 ) ;
#17 = PLANE ( 'NONE',  #42 ) ;
#18 = DIRECTION ( 'NONE',  ( -3.491481338843133355E-15, 1.224646799147353207E-16, -1.000000000000000000 ) ) ;
#19 = DIRECTION ( 'NONE',  ( -4.275831445896958607E-31, -1.000000000000000000, -1.224646799147353207E-16 ) ) ;
#20 = FACE_OUTER_BOUND ( 'NONE', #162, .T. ) ;
#21 = CC_DESIGN_PERSON_AND_ORGANIZATION_ASSIGNMENT ( #294, #163, ( #217 ) ) ;
#22 = AXIS2_PLACEMENT_3D ( 'NONE', #97, #40, #224 ) ;
#23 = CARTESIAN_POINT ( 'NONE',  ( 2.444036937190193743E-15, 0.1499999999999993006, 0.7000000000000000666 ) ) ;
#24 = ADVANCED_FACE ( 'NONE', ( #168 ), #1, .F. ) ;
#25 = CARTESIAN_POINT ( 'NONE',  ( 2.665306541933872222E-14, -9.348636892349337978E-16, 7.633741335753478019 ) ) ;
#26 = CC_DESIGN_APPROVAL ( #52, ( #259 ) ) ;
#27 = VERTEX_POINT ( 'NONE', #154 ) ;
#28 = ADVANCED_FACE ( 'NONE', ( #141, #87 ), #110, .T. ) ;
#29 = SECURITY_CLASSIFICATION_LEVEL ( 'unclassified' ) ;
#30 = ORIENTED_EDGE ( 'NONE', *, *, #101, .F. ) ;
#31 = CIRCLE ( 'NONE', #253, 0.2966197157729579259 ) ;
#32 = DATE_AND_TIME ( #5, #247 ) ;
#33 = EDGE_LOOP ( 'NONE', ( #242 ) ) ;
#34 = CALENDAR_DATE ( 2021, 13, 12 ) ;
#35 = EDGE_LOOP ( 'NONE', ( #64 ) ) ;
#36 = PERSON_AND_ORGANIZATION ( #334, #173 ) ;
#37 = EDGE_LOOP ( 'NONE', ( #65 ) ) ;
#38 = CC_DESIGN_SECURITY_CLASSIFICATION ( #217, ( #259 ) ) ;
#39 = DIRECTION ( 'NONE',  ( -3.491481338843133355E-15, 1.224646799147353207E-16, -1.000000000000000000 ) ) ;
#40 = DIRECTION ( 'NONE',  ( -3.491481338843133355E-15, 1.224646799147353207E-16, -1.000000000000000000 ) ) ;
#41 = PLANE ( 'NONE',  #61 ) ;
#42 = AXIS2_PLACEMENT_3D ( 'NONE', #330, #14, #120 ) ;
#43 = FACE_OUTER_BOUND ( 'NONE', #114, .T. ) ;
#44 = DIRECTION ( 'NONE',  ( 3.491481338843133355E-15, -1.224646799147353207E-16, 1.000000000000000000 ) ) ;
#45 = CC_DESIGN_DATE_AND_TIME_ASSIGNMENT ( #32, #54, ( #106 ) ) ;
#46 = CARTESIAN_POINT ( 'NONE',  ( 4.594172782193831404E-15, -1.611418892563166868E-16, 1.315823381635504719 ) ) ;
#47 = DESIGN_CONTEXT ( 'detailed design', #249, 'design' ) ;
#48 = FACE_OUTER_BOUND ( 'NONE', #111, .T. ) ;
#49 = APPROVAL_PERSON_ORGANIZATION ( #36, #74, #83 ) ;
#50 = CARTESIAN_POINT ( 'NONE',  ( 3.142333204958819231E-15, 0.1499999999999993006, 0.8999999999999998002 ) ) ;
#51 = CARTESIAN_POINT ( 'NONE',  ( 2.444036937190193743E-15, 0.1499999999999993006, 0.7000000000000000666 ) ) ;
#52 = APPROVAL ( #113, 'UNSPECIFIED' ) ;
#53 = DATE_AND_TIME ( #34, #90 ) ;
#54 = DATE_TIME_ROLE ( 'creation_date' ) ;
#55 = ORIENTED_EDGE ( 'NONE', *, *, #316, .T. ) ;
#56 = CALENDAR_DATE ( 2021, 13, 12 ) ;
#57 = DIRECTION ( 'NONE',  ( 0.0000000000000000000, 1.000000000000000000, 0.0000000000000000000 ) ) ;
#58 = AXIS2_PLACEMENT_3D ( 'NONE', #68, #326, #278 ) ;
#59 = APPLICATION_PROTOCOL_DEFINITION ( 'international standard', 'config_control_design', 1994, #211 ) ;
#60 = DIRECTION ( 'NONE',  ( -3.491481338843133355E-15, 1.224646799147353207E-16, -1.000000000000000000 ) ) ;
#61 = AXIS2_PLACEMENT_3D ( 'NONE', #301, #331, #194 ) ;
#62 = ADVANCED_FACE ( 'NONE', ( #192, #166 ), #220, .T. ) ;
#63 = CALENDAR_DATE ( 2021, 13, 12 ) ;
#64 = ORIENTED_EDGE ( 'NONE', *, *, #201, .F. ) ;
#65 = ORIENTED_EDGE ( 'NONE', *, *, #145, .F. ) ;
#66 = AXIS2_PLACEMENT_3D ( 'NONE', #181, #131, #178 ) ;
#67 = FACE_OUTER_BOUND ( 'NONE', #6, .T. ) ;
#68 = CARTESIAN_POINT ( 'NONE',  ( 2.444036937190193743E-15, -8.572527594031473190E-17, 0.7000000000000000666 ) ) ;
#69 = FACE_BOUND ( 'NONE', #37, .T. ) ;
#70 = LOCAL_TIME ( 11, 25, 49.00000000000000000, #296 ) ;
#71 = FACE_OUTER_BOUND ( 'NONE', #187, .T. ) ;
#72 = DIRECTION ( 'NONE',  ( 3.491481338843133355E-15, -1.224646799147353207E-16, 1.000000000000000000 ) ) ;
#73 = VERTEX_POINT ( 'NONE', #153 ) ;
#74 = APPROVAL ( #319, 'UNSPECIFIED' ) ;
#75 = VERTEX_POINT ( 'NONE', #23 ) ;
#76 = DIRECTION ( 'NONE',  ( 3.491481338843133355E-15, -1.224646799147353207E-16, 1.000000000000000000 ) ) ;
#77 = FACE_OUTER_BOUND ( 'NONE', #273, .T. ) ;
#78 = APPROVAL_PERSON_ORGANIZATION ( #140, #291, #7 ) ;
#79 = CC_DESIGN_PERSON_AND_ORGANIZATION_ASSIGNMENT ( #161, #238, ( #259 ) ) ;
#80 = PERSON_AND_ORGANIZATION ( #334, #173 ) ;
#81 = CYLINDRICAL_SURFACE ( 'NONE', #92, 0.1499999999999994116 ) ;
#82 = CARTESIAN_POINT ( 'NONE',  ( 0.0000000000000000000, 0.0000000000000000000, 0.0000000000000000000 ) ) ;
#83 = APPROVAL_ROLE ( '' ) ;
#84 = ORIENTED_EDGE ( 'NONE', *, *, #261, .F. ) ;
#85 =( GEOMETRIC_REPRESENTATION_CONTEXT ( 3 ) GLOBAL_UNCERTAINTY_ASSIGNED_CONTEXT ( ( #258 ) ) GLOBAL_UNIT_ASSIGNED_CONTEXT ( ( #127, #312, #183 ) ) REPRESENTATION_CONTEXT ( 'NONE', 'WORKASPACE' ) );
#86 = APPLICATION_PROTOCOL_DEFINITION ( 'international standard', 'config_control_design', 1994, #249 ) ;
#87 = FACE_BOUND ( 'NONE', #10, .T. ) ;
#88 = DIRECTION ( 'NONE',  ( 4.275831445896958607E-31, 1.000000000000000000, 1.224646799147353207E-16 ) ) ;
#89 = CARTESIAN_POINT ( 'NONE',  ( 6.284666409917640040E-15, -2.204364238465235576E-16, 1.800000000000000044 ) ) ;
#90 = LOCAL_TIME ( 11, 25, 49.00000000000000000, #271 ) ;
#91 = FACE_OUTER_BOUND ( 'NONE', #4, .T. ) ;
#92 = AXIS2_PLACEMENT_3D ( 'NONE', #275, #39, #146 ) ;
#93 = CARTESIAN_POINT ( 'NONE',  ( 1.326762908760390423E-13, 1.199807826129477602E-32, 38.00000000000000000 ) ) ;
#94 = FACE_OUTER_BOUND ( 'NONE', #164, .T. ) ;
#95 = ADVANCED_FACE ( 'NONE', ( #298, #270 ), #81, .T. ) ;
#96 = AXIS2_PLACEMENT_3D ( 'NONE', #205, #342, #311 ) ;
#97 = CARTESIAN_POINT ( 'NONE',  ( 2.665306541933872222E-14, -9.348636892349337978E-16, 7.633741335753478019 ) ) ;
#98 = VERTEX_POINT ( 'NONE', #157 ) ;
#99 = ADVANCED_BREP_SHAPE_REPRESENTATION ( '388797', ( #313, #202, #2 ), #85 ) ;
#100 = EDGE_LOOP ( 'NONE', ( #136 ) ) ;
#101 = EDGE_CURVE ( 'NONE', #337, #337, #139, .T. ) ;
#102 = EDGE_LOOP ( 'NONE', ( #143 ) ) ;
#103 = CIRCLE ( 'NONE', #293, 0.1499999999999993006 ) ;
#104 = DIRECTION ( 'NONE',  ( -3.491481338843133355E-15, 1.224646799147353207E-16, -1.000000000000000000 ) ) ;
#105 = VERTEX_POINT ( 'NONE', #230 ) ;
#106 = PRODUCT_DEFINITION ( 'UNKNOWN', '', #259, #47 ) ;
#107 = MECHANICAL_CONTEXT ( 'NONE', #211, 'mechanical' ) ;
#108 = AXIS2_PLACEMENT_3D ( 'NONE', #93, #148, #252 ) ;
#109 = PERSON_AND_ORGANIZATION ( #334, #173 ) ;
#110 = CONICAL_SURFACE ( 'NONE', #196, 1.599999999999997646, 0.7853981633974516097 ) ;
#111 = EDGE_LOOP ( 'NONE', ( #193 ) ) ;
#112 = CC_DESIGN_PERSON_AND_ORGANIZATION_ASSIGNMENT ( #158, #267, ( #259 ) ) ;
#113 = APPROVAL_STATUS ( 'not_yet_approved' ) ;
#114 = EDGE_LOOP ( 'NONE', ( #216 ) ) ;
#115 = EDGE_LOOP ( 'NONE', ( #206 ) ) ;
#116 = EDGE_LOOP ( 'NONE', ( #132 ) ) ;
#117 = CARTESIAN_POINT ( 'NONE',  ( 1.312796983405018142E-13, -4.604671964794047724E-15, 37.60000000000000142 ) ) ;
#118 = DIRECTION ( 'NONE',  ( -4.275831445896958607E-31, -1.000000000000000000, -1.224646799147353207E-16 ) ) ;
#119 = LOCAL_TIME ( 11, 25, 49.00000000000000000, #315 ) ;
#120 = DIRECTION ( 'NONE',  ( -4.275831445896958607E-31, -1.000000000000000000, -1.224646799147353207E-16 ) ) ;
#121 = FACE_OUTER_BOUND ( 'NONE', #115, .T. ) ;
#122 = PRODUCT ( '388797', '388797', '', ( #107 ) ) ;
#123 = CARTESIAN_POINT ( 'NONE',  ( 1.326762908760390423E-13, -4.653657836759941941E-15, 38.00000000000000000 ) ) ;
#124 = AXIS2_PLACEMENT_3D ( 'NONE', #147, #225, #256 ) ;
#125 = FACE_OUTER_BOUND ( 'NONE', #309, .T. ) ;
#126 = CLOSED_SHELL ( 'NONE', ( #24, #130, #227 ) ) ;
#127 =( LENGTH_UNIT ( ) NAMED_UNIT ( * ) SI_UNIT ( .MILLI., .METRE. ) );
#128 = AXIS2_PLACEMENT_3D ( 'NONE', #123, #281, #332 ) ;
#129 = DIRECTION ( 'NONE',  ( -3.491481338843133355E-15, 1.224646799147353207E-16, -1.000000000000000000 ) ) ;
#130 = ADVANCED_FACE ( 'NONE', ( #174, #67 ), #251, .T. ) ;
#131 = DIRECTION ( 'NONE',  ( -3.491481338843133355E-15, 1.224646799147353207E-16, -1.000000000000000000 ) ) ;
#132 = ORIENTED_EDGE ( 'NONE', *, *, #231, .F. ) ;
#133 = DIRECTION ( 'NONE',  ( 0.0000000000000000000, 0.0000000000000000000, 1.000000000000000000 ) ) ;
#134 = DATE_TIME_ROLE ( 'classification_date' ) ;
#135 = CIRCLE ( 'NONE', #128, 1.599999999999997646 ) ;
#136 = ORIENTED_EDGE ( 'NONE', *, *, #266, .F. ) ;
#137 = ADVANCED_FACE ( 'NONE', ( #328, #91 ), #41, .F. ) ;
#138 = CARTESIAN_POINT ( 'NONE',  ( 0.0000000000000000000, 0.0000000000000000000, 0.0000000000000000000 ) ) ;
#139 = CIRCLE ( 'NONE', #265, 0.1499999999999993838 ) ;
#140 = PERSON_AND_ORGANIZATION ( #334, #173 ) ;
#141 = FACE_OUTER_BOUND ( 'NONE', #272, .T. ) ;
#142 = APPROVAL_DATE_TIME ( #165, #291 ) ;
#143 = ORIENTED_EDGE ( 'NONE', *, *, #159, .F. ) ;
#144 = AXIS2_PLACEMENT_3D ( 'NONE', #223, #221, #172 ) ;
#145 = EDGE_CURVE ( 'NONE', #105, #105, #156, .T. ) ;
#146 = DIRECTION ( 'NONE',  ( 4.275831445896958607E-31, 1.000000000000000000, 1.224646799147353207E-16 ) ) ;
#147 = CARTESIAN_POINT ( 'NONE',  ( 6.284666409917640040E-15, -2.204364238465235576E-16, 1.800000000000000044 ) ) ;
#148 = DIRECTION ( 'NONE',  ( -3.491481338843133355E-15, 1.224646799147353207E-16, -1.000000000000000000 ) ) ;
#149 = EDGE_CURVE ( 'NONE', #75, #75, #16, .T. ) ;
#150 = DIRECTION ( 'NONE',  ( 0.0000000000000000000, 1.000000000000000000, 0.0000000000000000000 ) ) ;
#151 = CARTESIAN_POINT ( 'NONE',  ( 6.284666409917640040E-15, 7.623426819887048692E-33, 1.800000000000000044 ) ) ;
#152 = CC_DESIGN_PERSON_AND_ORGANIZATION_ASSIGNMENT ( #80, #184, ( #122 ) ) ;
#153 = CARTESIAN_POINT ( 'NONE',  ( 1.326762908760390423E-13, 1.599999999999993205, 38.00000000000000000 ) ) ;
#154 = CARTESIAN_POINT ( 'NONE',  ( 6.284666409917640040E-15, 0.7199999999999996403, 1.800000000000000044 ) ) ;
#155 = CC_DESIGN_DATE_AND_TIME_ASSIGNMENT ( #53, #134, ( #217 ) ) ;
#156 = CIRCLE ( 'NONE', #287, 0.1937047985323860355 ) ;
#157 = CARTESIAN_POINT ( 'NONE',  ( 6.284666409917640040E-15, 0.2966197157729577039, 1.800000000000000044 ) ) ;
#158 = PERSON_AND_ORGANIZATION ( #334, #173 ) ;
#159 = EDGE_CURVE ( 'NONE', #98, #98, #31, .T. ) ;
#160 = ORIENTED_EDGE ( 'NONE', *, *, #316, .F. ) ;
#161 = PERSON_AND_ORGANIZATION ( #334, #173 ) ;
#162 = EDGE_LOOP ( 'NONE', ( #210 ) ) ;
#163 = PERSON_AND_ORGANIZATION_ROLE ( 'classification_officer' ) ;
#164 = EDGE_LOOP ( 'NONE', ( #30 ) ) ;
#165 = DATE_AND_TIME ( #63, #70 ) ;
#166 = FACE_OUTER_BOUND ( 'NONE', #320, .T. ) ;
#167 = EDGE_CURVE ( 'NONE', #236, #236, #169, .T. ) ;
#168 = FACE_OUTER_BOUND ( 'NONE', #239, .T. ) ;
#169 = CIRCLE ( 'NONE', #195, 1.999999999999994449 ) ;
#170 = CARTESIAN_POINT ( 'NONE',  ( 3.177248018347251984E-14, -1.114428587224091465E-15, 9.099999999999999645 ) ) ;
#171 = DIRECTION ( 'NONE',  ( 0.0000000000000000000, 1.000000000000000000, 0.0000000000000000000 ) ) ;
#172 = DIRECTION ( 'NONE',  ( 4.275831445896958607E-31, 1.000000000000000000, 1.224646799147353207E-16 ) ) ;
#173 = ORGANIZATION ( 'UNSPECIFIED', 'UNSPECIFIED', '' ) ;
#174 = FACE_OUTER_BOUND ( 'NONE', #190, .T. ) ;
#175 = CARTESIAN_POINT ( 'NONE',  ( 6.284666409917640040E-15, -2.204364238465235576E-16, 1.800000000000000044 ) ) ;
#176 = VERTEX_POINT ( 'NONE', #343 ) ;
#177 = LOCAL_TIME ( 11, 25, 49.00000000000000000, #215 ) ;
#178 = DIRECTION ( 'NONE',  ( 4.355817272412799955E-31, 1.000000000000000000, 1.224646799147353207E-16 ) ) ;
#179 = CARTESIAN_POINT ( 'NONE',  ( 3.177248018347251984E-14, 1.999999999999993117, 9.099999999999999645 ) ) ;
#180 = ADVANCED_FACE ( 'NONE', ( #69, #121 ), #189, .T. ) ;
#181 = CARTESIAN_POINT ( 'NONE',  ( 3.142333204958818442E-15, 0.0000000000000000000, 0.8999999999999995781 ) ) ;
#182 = TOROIDAL_SURFACE ( 'NONE', #66, 2.149999999999999023, 1.999999999999999556 ) ;
#183 =( NAMED_UNIT ( * ) SI_UNIT ( $, .STERADIAN. ) SOLID_ANGLE_UNIT ( ) );
#184 = PERSON_AND_ORGANIZATION_ROLE ( 'design_owner' ) ;
#185 = ORIENTED_EDGE ( 'NONE', *, *, #286, .T. ) ;
#186 = APPROVAL_ROLE ( '' ) ;
#187 = EDGE_LOOP ( 'NONE', ( #214 ) ) ;
#188 = APPROVAL_DATE_TIME ( #269, #52 ) ;
#189 = CONICAL_SURFACE ( 'NONE', #124, 0.2966197157729579259, 0.2094395102393121766 ) ;
#190 = EDGE_LOOP ( 'NONE', ( #160 ) ) ;
#191 = COORDINATED_UNIVERSAL_TIME_OFFSET ( 1, 0, .AHEAD. ) ;
#192 = FACE_OUTER_BOUND ( 'NONE', #116, .T. ) ;
#193 = ORIENTED_EDGE ( 'NONE', *, *, #167, .F. ) ;
#194 = DIRECTION ( 'NONE',  ( -4.275831445896958607E-31, -1.000000000000000000, -1.224646799147353207E-16 ) ) ;
#195 = AXIS2_PLACEMENT_3D ( 'NONE', #200, #306, #254 ) ;
#196 = AXIS2_PLACEMENT_3D ( 'NONE', #289, #60, #57 ) ;
#197 = DIRECTION ( 'NONE',  ( 0.0000000000000000000, 1.000000000000000000, 0.0000000000000000000 ) ) ;
#198 = PLANE ( 'NONE',  #234 ) ;
#199 = DIRECTION ( 'NONE',  ( -3.491481338843133355E-15, 1.224646799147353207E-16, -1.000000000000000000 ) ) ;
#200 = CARTESIAN_POINT ( 'NONE',  ( 3.177248018347251984E-14, -1.114428587224091465E-15, 9.099999999999999645 ) ) ;
#201 = EDGE_CURVE ( 'NONE', #203, #203, #228, .T. ) ;
#202 = MANIFOLD_SOLID_BREP ( 'Corps-Déplacer/Copier1[2]', #126 ) ;
#203 = VERTEX_POINT ( 'NONE', #232 ) ;
#204 = ORIENTED_EDGE ( 'NONE', *, *, #167, .T. ) ;
#205 = CARTESIAN_POINT ( 'NONE',  ( 3.142333204958819231E-15, -1.102182119232617541E-16, 0.8999999999999998002 ) ) ;
#206 = ORIENTED_EDGE ( 'NONE', *, *, #159, .T. ) ;
#207 = AXIS2_PLACEMENT_3D ( 'NONE', #117, #129, #257 ) ;
#208 = FACE_OUTER_BOUND ( 'NONE', #33, .T. ) ;
#209 = VERTEX_POINT ( 'NONE', #50 ) ;
#210 = ORIENTED_EDGE ( 'NONE', *, *, #231, .T. ) ;
#211 = APPLICATION_CONTEXT ( 'configuration controlled 3d designs of mechanical parts and assemblies' ) ;
#212 = CIRCLE ( 'NONE', #240, 0.7199999999999998623 ) ;
#213 = DIRECTION ( 'NONE',  ( -3.491481338843133355E-15, 1.224646799147353207E-16, -1.000000000000000000 ) ) ;
#214 = ORIENTED_EDGE ( 'NONE', *, *, #266, .T. ) ;
#215 = COORDINATED_UNIVERSAL_TIME_OFFSET ( 1, 0, .AHEAD. ) ;
#216 = ORIENTED_EDGE ( 'NONE', *, *, #149, .T. ) ;
#217 = SECURITY_CLASSIFICATION ( '', '', #29 ) ;
#218 = ORIENTED_EDGE ( 'NONE', *, *, #149, .F. ) ;
#219 = CLOSED_SHELL ( 'NONE', ( #243, #95, #303, #180, #255, #335, #62, #137, #329, #28, #222 ) ) ;
#220 = CYLINDRICAL_SURFACE ( 'NONE', #11, 1.959999999999999076 ) ;
#221 = DIRECTION ( 'NONE',  ( -3.491481338843133355E-15, 1.224646799147353207E-16, -1.000000000000000000 ) ) ;
#222 = ADVANCED_FACE ( 'NONE', ( #277 ), #276, .F. ) ;
#223 = CARTESIAN_POINT ( 'NONE',  ( 0.0000000000000000000, 0.0000000000000000000, 0.0000000000000000000 ) ) ;
#224 = DIRECTION ( 'NONE',  ( 0.0000000000000000000, 1.000000000000000000, 0.0000000000000000000 ) ) ;
#225 = DIRECTION ( 'NONE',  ( 3.491481338843133355E-15, -1.224646799147353207E-16, 1.000000000000000000 ) ) ;
#226 = DIRECTION ( 'NONE',  ( -3.491481338843133355E-15, 1.224646799147353207E-16, -1.000000000000000000 ) ) ;
#227 = ADVANCED_FACE ( 'NONE', ( #94 ), #17, .T. ) ;
#228 = CIRCLE ( 'NONE', #314, 1.959999999999999520 ) ;
#229 = CYLINDRICAL_SURFACE ( 'NONE', #340, 1.999999999999996225 ) ;
#230 = CARTESIAN_POINT ( 'NONE',  ( 4.594172782193831404E-15, 0.1937047985323858967, 1.315823381635504719 ) ) ;
#231 = EDGE_CURVE ( 'NONE', #264, #264, #279, .T. ) ;
#232 = CARTESIAN_POINT ( 'NONE',  ( 3.177248018347251984E-14, 1.959999999999998188, 9.099999999999999645 ) ) ;
#233 = EDGE_LOOP ( 'NONE', ( #84 ) ) ;
#234 = AXIS2_PLACEMENT_3D ( 'NONE', #304, #44, #118 ) ;
#235 = DIRECTION ( 'NONE',  ( 4.275831445896958607E-31, 1.000000000000000000, 1.224646799147353207E-16 ) ) ;
#236 = VERTEX_POINT ( 'NONE', #179 ) ;
#237 = ORIENTED_EDGE ( 'NONE', *, *, #325, .T. ) ;
#238 = PERSON_AND_ORGANIZATION_ROLE ( 'design_supplier' ) ;
#239 = EDGE_LOOP ( 'NONE', ( #55 ) ) ;
#240 = AXIS2_PLACEMENT_3D ( 'NONE', #175, #250, #12 ) ;
#241 = ORIENTED_EDGE ( 'NONE', *, *, #201, .T. ) ;
#242 = ORIENTED_EDGE ( 'NONE', *, *, #325, .F. ) ;
#243 = ADVANCED_FACE ( 'NONE', ( #43 ), #198, .F. ) ;
#244 = PERSON_AND_ORGANIZATION ( #334, #173 ) ;
#245 = DIRECTION ( 'NONE',  ( 3.491481338843133355E-15, -1.224646799147353207E-16, 1.000000000000000000 ) ) ;
#246 = CALENDAR_DATE ( 2021, 13, 12 ) ;
#247 = LOCAL_TIME ( 11, 25, 49.00000000000000000, #191 ) ;
#248 = ORIENTED_EDGE ( 'NONE', *, *, #286, .F. ) ;
#249 = APPLICATION_CONTEXT ( 'configuration controlled 3d designs of mechanical parts and assemblies' ) ;
#250 = DIRECTION ( 'NONE',  ( -3.491481338843133355E-15, 1.224646799147353207E-16, -1.000000000000000000 ) ) ;
#251 = CYLINDRICAL_SURFACE ( 'NONE', #144, 0.1499999999999993561 ) ;
#252 = DIRECTION ( 'NONE',  ( 4.275831445896958607E-31, 1.000000000000000000, 1.224646799147353207E-16 ) ) ;
#253 = AXIS2_PLACEMENT_3D ( 'NONE', #89, #199, #171 ) ;
#254 = DIRECTION ( 'NONE',  ( 0.0000000000000000000, 1.000000000000000000, 0.0000000000000000000 ) ) ;
#255 = ADVANCED_FACE ( 'NONE', ( #302, #71 ), #280, .F. ) ;
#256 = DIRECTION ( 'NONE',  ( 0.0000000000000000000, -1.000000000000000000, 0.0000000000000000000 ) ) ;
#257 = DIRECTION ( 'NONE',  ( 0.0000000000000000000, 1.000000000000000000, 0.0000000000000000000 ) ) ;
#258 = UNCERTAINTY_MEASURE_WITH_UNIT (LENGTH_MEASURE( 1.000000000000000082E-05 ), #127, 'distance_accuracy_value', 'NONE');
#259 = PRODUCT_DEFINITION_FORMATION_WITH_SPECIFIED_SOURCE ( 'ANY', '', #122, .NOT_KNOWN. ) ;
#260 = FACE_BOUND ( 'NONE', #100, .T. ) ;
#261 = EDGE_CURVE ( 'NONE', #73, #73, #135, .T. ) ;
#262 = CARTESIAN_POINT ( 'NONE',  ( -3.848305047719291846E-31, 1.349803708357661192E-32, -1.102198372050984135E-16 ) ) ;
#263 = CC_DESIGN_APPROVAL ( #291, ( #217 ) ) ;
#264 = VERTEX_POINT ( 'NONE', #284 ) ;
#265 = AXIS2_PLACEMENT_3D ( 'NONE', #292, #213, #300 ) ;
#266 = EDGE_CURVE ( 'NONE', #27, #27, #212, .T. ) ;
#267 = PERSON_AND_ORGANIZATION_ROLE ( 'creator' ) ;
#268 = ORIENTED_EDGE ( 'NONE', *, *, #145, .T. ) ;
#269 = DATE_AND_TIME ( #56, #177 ) ;
#270 = FACE_OUTER_BOUND ( 'NONE', #297, .T. ) ;
#271 = COORDINATED_UNIVERSAL_TIME_OFFSET ( 1, 0, .AHEAD. ) ;
#272 = EDGE_LOOP ( 'NONE', ( #248 ) ) ;
#273 = EDGE_LOOP ( 'NONE', ( #268 ) ) ;
#274 = CIRCLE ( 'NONE', #96, 0.1499999999999994116 ) ;
#275 = CARTESIAN_POINT ( 'NONE',  ( 0.0000000000000000000, 0.0000000000000000000, 0.0000000000000000000 ) ) ;
#276 = PLANE ( 'NONE',  #108 ) ;
#277 = FACE_OUTER_BOUND ( 'NONE', #233, .T. ) ;
#278 = DIRECTION ( 'NONE',  ( 0.0000000000000000000, 1.000000000000000000, 0.0000000000000000000 ) ) ;
#279 = CIRCLE ( 'NONE', #22, 1.959999999999999076 ) ;
#280 = PLANE ( 'NONE',  #299 ) ;
#281 = DIRECTION ( 'NONE',  ( -3.491481338843133355E-15, 1.224646799147353207E-16, -1.000000000000000000 ) ) ;
#282 = DIRECTION ( 'NONE',  ( -3.491481338843133355E-15, 1.224646799147353207E-16, -1.000000000000000000 ) ) ;
#283 = CARTESIAN_POINT ( 'NONE',  ( 1.312796983405018142E-13, 1.999999999999993117, 37.60000000000000142 ) ) ;
#284 = CARTESIAN_POINT ( 'NONE',  ( 2.665306541933872222E-14, 1.959999999999998188, 7.633741335753478019 ) ) ;
#285 = DIRECTION ( 'NONE',  ( 0.0000000000000000000, -1.000000000000000000, 0.0000000000000000000 ) ) ;
#286 = EDGE_CURVE ( 'NONE', #307, #307, #333, .T. ) ;
#287 = AXIS2_PLACEMENT_3D ( 'NONE', #46, #18, #150 ) ;
#288 = APPROVAL_DATE_TIME ( #290, #74 ) ;
#289 = CARTESIAN_POINT ( 'NONE',  ( 1.326762908760390423E-13, -4.653657836759941941E-15, 38.00000000000000000 ) ) ;
#290 = DATE_AND_TIME ( #246, #119 ) ;
#291 = APPROVAL ( #3, 'UNSPECIFIED' ) ;
#292 = CARTESIAN_POINT ( 'NONE',  ( 2.444036937190193743E-15, -8.572527594031473190E-17, 0.7000000000000000666 ) ) ;
#293 = AXIS2_PLACEMENT_3D ( 'NONE', #262, #282, #235 ) ;
#294 = PERSON_AND_ORGANIZATION ( #334, #173 ) ;
#295 = CARTESIAN_POINT ( 'NONE',  ( -1.924152523859645923E-31, 6.749018541788305961E-33, -5.510991860254920674E-17 ) ) ;
#296 = COORDINATED_UNIVERSAL_TIME_OFFSET ( 1, 0, .AHEAD. ) ;
#297 = EDGE_LOOP ( 'NONE', ( #237 ) ) ;
#298 = FACE_OUTER_BOUND ( 'NONE', #339, .T. ) ;
#299 = AXIS2_PLACEMENT_3D ( 'NONE', #151, #72, #19 ) ;
#300 = DIRECTION ( 'NONE',  ( 0.0000000000000000000, 1.000000000000000000, 0.0000000000000000000 ) ) ;
#301 = CARTESIAN_POINT ( 'NONE',  ( 3.177248018347251984E-14, 2.969524369670471823E-32, 9.099999999999999645 ) ) ;
#302 = FACE_BOUND ( 'NONE', #102, .T. ) ;
#303 = ADVANCED_FACE ( 'NONE', ( #77, #208 ), #182, .F. ) ;
#304 = CARTESIAN_POINT ( 'NONE',  ( 2.444036937190193743E-15, 1.124819836996387219E-33, 0.7000000000000000666 ) ) ;
#305 = CONICAL_SURFACE ( 'NONE', #327, 1.959999999999999076, 0.2094395102393126762 ) ;
#306 = DIRECTION ( 'NONE',  ( -3.491481338843133355E-15, 1.224646799147353207E-16, -1.000000000000000000 ) ) ;
#307 = VERTEX_POINT ( 'NONE', #283 ) ;
#308 = DIRECTION ( 'NONE',  ( 4.275831445896958607E-31, 1.000000000000000000, 1.224646799147352961E-16 ) ) ;
#309 = EDGE_LOOP ( 'NONE', ( #185 ) ) ;
#310 = CC_DESIGN_APPROVAL ( #74, ( #106 ) ) ;
#311 = DIRECTION ( 'NONE',  ( 0.0000000000000000000, 1.000000000000000000, 0.0000000000000000000 ) ) ;
#312 =( NAMED_UNIT ( * ) PLANE_ANGLE_UNIT ( ) SI_UNIT ( $, .RADIAN. ) );
#313 = MANIFOLD_SOLID_BREP ( 'Corps-Déplacer/Copier1[1]', #219 ) ;
#314 = AXIS2_PLACEMENT_3D ( 'NONE', #170, #226, #197 ) ;
#315 = COORDINATED_UNIVERSAL_TIME_OFFSET ( 1, 0, .AHEAD. ) ;
#316 = EDGE_CURVE ( 'NONE', #176, #176, #103, .T. ) ;
#317 = PERSON_AND_ORGANIZATION_ROLE ( 'creator' ) ;
#318 = ORIENTED_EDGE ( 'NONE', *, *, #261, .T. ) ;
#319 = APPROVAL_STATUS ( 'not_yet_approved' ) ;
#320 = EDGE_LOOP ( 'NONE', ( #241 ) ) ;
#321 = DIRECTION ( 'NONE',  ( 1.000000000000000000, 0.0000000000000000000, 0.0000000000000000000 ) ) ;
#322 = DIRECTION ( 'NONE',  ( -4.275831445896958607E-31, -1.000000000000000000, -1.224646799147353207E-16 ) ) ;
#323 = AXIS2_PLACEMENT_3D ( 'NONE', #295, #245, #322 ) ;
#324 = DIRECTION ( 'NONE',  ( -3.491481338843133355E-15, 1.224646799147353207E-16, -1.000000000000000000 ) ) ;
#325 = EDGE_CURVE ( 'NONE', #209, #209, #274, .T. ) ;
#326 = DIRECTION ( 'NONE',  ( -3.491481338843133355E-15, 1.224646799147353207E-16, -1.000000000000000000 ) ) ;
#327 = AXIS2_PLACEMENT_3D ( 'NONE', #25, #76, #285 ) ;
#328 = FACE_BOUND ( 'NONE', #35, .T. ) ;
#329 = ADVANCED_FACE ( 'NONE', ( #48, #125 ), #229, .T. ) ;
#330 = CARTESIAN_POINT ( 'NONE',  ( 2.444036937190193743E-15, 1.124819836996387219E-33, 0.7000000000000000666 ) ) ;
#331 = DIRECTION ( 'NONE',  ( 3.491481338843133355E-15, -1.224646799147353207E-16, 1.000000000000000000 ) ) ;
#332 = DIRECTION ( 'NONE',  ( 0.0000000000000000000, 1.000000000000000000, 0.0000000000000000000 ) ) ;
#333 = CIRCLE ( 'NONE', #207, 1.999999999999997780 ) ;
#334 = PERSON ( 'UNSPECIFIED', 'UNSPECIFIED', 'UNSPECIFIED', ('UNSPECIFIED'), ('UNSPECIFIED'), ('UNSPECIFIED') ) ;
#335 = ADVANCED_FACE ( 'NONE', ( #260, #20 ), #305, .T. ) ;
#336 = CARTESIAN_POINT ( 'NONE',  ( 0.0000000000000000000, 0.0000000000000000000, 0.0000000000000000000 ) ) ;
#337 = VERTEX_POINT ( 'NONE', #51 ) ;
#338 = ORIENTED_EDGE ( 'NONE', *, *, #101, .T. ) ;
#339 = EDGE_LOOP ( 'NONE', ( #218 ) ) ;
#340 = AXIS2_PLACEMENT_3D ( 'NONE', #336, #104, #308 ) ;
#341 = PRODUCT_RELATED_PRODUCT_CATEGORY ( 'detail', '', ( #122 ) ) ;
#342 = DIRECTION ( 'NONE',  ( -3.491481338843133355E-15, 1.224646799147353207E-16, -1.000000000000000000 ) ) ;
#343 = CARTESIAN_POINT ( 'NONE',  ( -3.206930330834751296E-31, 0.1499999999999993006, -9.185013521788820534E-17 ) ) ;
ENDSEC;
END-ISO-10303-21;
