ISO-10303-21;
HEADER;
FILE_DESCRIPTION (( 'STEP AP203' ),
    '1' );
FILE_NAME ('388796.step',
    '2021-12-13T10:14:59',
    ( '' ),
    ( '' ),
    'SwSTEP 2.0',
    'SolidWorks 2019',
    '' );
FILE_SCHEMA (( 'CONFIG_CONTROL_DESIGN' ));
ENDSEC;

DATA;
#1 = EDGE_LOOP ( 'NONE', ( #62 ) ) ;
#2 = AXIS2_PLACEMENT_3D ( 'NONE', #280, #31, #81 ) ;
#3 = DIRECTION ( 'NONE',  ( -4.273924207943998360E-31, -1.000000000000000000, -1.224100544486976698E-16 ) ) ;
#4 = CARTESIAN_POINT ( 'NONE',  ( 2.234548056859605347E-13, -3.200000000000008615, 64.00000000000000000 ) ) ;
#5 = FACE_OUTER_BOUND ( 'NONE', #214, .T. ) ;
#6 = DESIGN_CONTEXT ( 'detailed design', #275, 'design' ) ;
#7 = FACE_OUTER_BOUND ( 'NONE', #209, .T. ) ;
#8 = DIRECTION ( 'NONE',  ( 0.0000000000000000000, -1.000000000000000000, 0.0000000000000000000 ) ) ;
#9 = CARTESIAN_POINT ( 'NONE',  ( 5.242459230272965017E-14, -1.841482997373604318E-15, 15.01500000000000057 ) ) ;
#10 = CARTESIAN_POINT ( 'NONE',  ( 2.234548056859605347E-13, -7.837739514543060526E-15, 64.00000000000000000 ) ) ;
#11 = CC_DESIGN_APPROVAL ( #74, ( #169 ) ) ;
#12 = EDGE_CURVE ( 'NONE', #167, #167, #88, .T. ) ;
#13 = EDGE_LOOP ( 'NONE', ( #98 ) ) ;
#14 = FACE_BOUND ( 'NONE', #118, .T. ) ;
#15 =( GEOMETRIC_REPRESENTATION_CONTEXT ( 3 ) GLOBAL_UNCERTAINTY_ASSIGNED_CONTEXT ( ( #25 ) ) GLOBAL_UNIT_ASSIGNED_CONTEXT ( ( #50, #134, #129 ) ) REPRESENTATION_CONTEXT ( 'NONE', 'WORKASPACE' ) );
#16 = CARTESIAN_POINT ( 'NONE',  ( 0.0000000000000000000, 0.0000000000000000000, 0.0000000000000000000 ) ) ;
#17 = CC_DESIGN_PERSON_AND_ORGANIZATION_ASSIGNMENT ( #41, #320, ( #169 ) ) ;
#18 = APPROVAL_STATUS ( 'not_yet_approved' ) ;
#19 = CIRCLE ( 'NONE', #306, 2.499999999999998668 ) ;
#20 = ORIENTED_EDGE ( 'NONE', *, *, #29, .T. ) ;
#21 = COORDINATED_UNIVERSAL_TIME_OFFSET ( 1, 0, .AHEAD. ) ;
#22 = ORIENTED_EDGE ( 'NONE', *, *, #207, .F. ) ;
#23 = VERTEX_POINT ( 'NONE', #26 ) ;
#24 = EDGE_LOOP ( 'NONE', ( #102 ) ) ;
#25 = UNCERTAINTY_MEASURE_WITH_UNIT (LENGTH_MEASURE( 1.000000000000000082E-05 ), #50, 'distance_accuracy_value', 'NONE');
#26 = CARTESIAN_POINT ( 'NONE',  ( 3.700970219173721357E-14, 2.499999999999998668, 10.59999999999999964 ) ) ;
#27 = AXIS2_PLACEMENT_3D ( 'NONE', #228, #308, #154 ) ;
#28 = FACE_BOUND ( 'NONE', #47, .T. ) ;
#29 = EDGE_CURVE ( 'NONE', #23, #23, #132, .T. ) ;
#30 = FACE_OUTER_BOUND ( 'NONE', #298, .T. ) ;
#31 = DIRECTION ( 'NONE',  ( 3.491481338843133355E-15, -1.224646799147353207E-16, 1.000000000000000000 ) ) ;
#32 = AXIS2_PLACEMENT_3D ( 'NONE', #147, #123, #321 ) ;
#33 = DIRECTION ( 'NONE',  ( 0.0000000000000000000, -1.000000000000000000, 0.0000000000000000000 ) ) ;
#34 = CONICAL_SURFACE ( 'NONE', #109, 4.000000000000000888, 0.7853981633974512766 ) ;
#35 = PLANE ( 'NONE',  #256 ) ;
#36 = AXIS2_PLACEMENT_3D ( 'NONE', #168, #48, #239 ) ;
#37 = APPLICATION_PROTOCOL_DEFINITION ( 'international standard', 'config_control_design', 1994, #275 ) ;
#38 = ADVANCED_FACE ( 'NONE', ( #221 ), #302, .F. ) ;
#39 = CONICAL_SURFACE ( 'NONE', #183, 3.100000000000000533, 0.2094395102393127595 ) ;
#40 = ORIENTED_EDGE ( 'NONE', *, *, #230, .F. ) ;
#41 = PERSON_AND_ORGANIZATION ( #85, #273 ) ;
#42 = EDGE_LOOP ( 'NONE', ( #73 ) ) ;
#43 = ORIENTED_EDGE ( 'NONE', *, *, #110, .F. ) ;
#44 = CLOSED_SHELL ( 'NONE', ( #177, #114, #80 ) ) ;
#45 = CIRCLE ( 'NONE', #137, 2.501807066372218724 ) ;
#46 = DIRECTION ( 'NONE',  ( 3.491481338843133355E-15, -1.224100544486976698E-16, 1.000000000000000000 ) ) ;
#47 = EDGE_LOOP ( 'NONE', ( #101 ) ) ;
#48 = DIRECTION ( 'NONE',  ( 3.491481338843133355E-15, -1.224100544486976698E-16, 1.000000000000000000 ) ) ;
#49 = DIRECTION ( 'NONE',  ( 3.491481338843133355E-15, -1.224100544486976698E-16, 1.000000000000000000 ) ) ;
#50 =( LENGTH_UNIT ( ) NAMED_UNIT ( * ) SI_UNIT ( .MILLI., .METRE. ) );
#51 = DIRECTION ( 'NONE',  ( 3.491481338843133355E-15, -1.224100544486976698E-16, 1.000000000000000000 ) ) ;
#52 = ADVANCED_FACE ( 'NONE', ( #295, #66 ), #174, .T. ) ;
#53 = DIRECTION ( 'NONE',  ( 3.491481338843133355E-15, -1.224100544486976698E-16, 1.000000000000000000 ) ) ;
#54 = AXIS2_PLACEMENT_3D ( 'NONE', #182, #55, #158 ) ;
#55 = DIRECTION ( 'NONE',  ( 3.491481338843133355E-15, -1.224100544486976698E-16, 1.000000000000000000 ) ) ;
#56 = PRODUCT_RELATED_PRODUCT_CATEGORY ( 'detail', '', ( #263 ) ) ;
#57 = DIRECTION ( 'NONE',  ( 3.491481338843133355E-15, -1.224100544486976698E-16, 1.000000000000000000 ) ) ;
#58 = APPROVAL_PERSON_ORGANIZATION ( #323, #222, #212 ) ;
#59 = CARTESIAN_POINT ( 'NONE',  ( 5.272136821653132629E-14, -1.851887852001744601E-15, 15.10000000000000142 ) ) ;
#60 = AXIS2_PLACEMENT_3D ( 'NONE', #252, #49, #125 ) ;
#61 = VERTEX_POINT ( 'NONE', #175 ) ;
#62 = ORIENTED_EDGE ( 'NONE', *, *, #207, .T. ) ;
#63 = APPROVAL_ROLE ( '' ) ;
#64 = EDGE_LOOP ( 'NONE', ( #300 ) ) ;
#65 = APPLICATION_CONTEXT ( 'configuration controlled 3d designs of mechanical parts and assemblies' ) ;
#66 = FACE_OUTER_BOUND ( 'NONE', #314, .T. ) ;
#67 = APPROVAL_PERSON_ORGANIZATION ( #236, #181, #144 ) ;
#68 = ORIENTED_EDGE ( 'NONE', *, *, #226, .T. ) ;
#69 = CALENDAR_DATE ( 2021, 13, 12 ) ;
#70 = APPROVAL_PERSON_ORGANIZATION ( #215, #74, #63 ) ;
#71 = EDGE_LOOP ( 'NONE', ( #68 ) ) ;
#72 = CARTESIAN_POINT ( 'NONE',  ( 5.272136821653132629E-14, -2.501807066372220500, 15.10000000000000142 ) ) ;
#73 = ORIENTED_EDGE ( 'NONE', *, *, #29, .F. ) ;
#74 = APPROVAL ( #18, 'UNSPECIFIED' ) ;
#75 = DIRECTION ( 'NONE',  ( 3.491481338843133355E-15, -1.224100544486976698E-16, 1.000000000000000000 ) ) ;
#76 = PRODUCT_DEFINITION_SHAPE ( 'NONE', 'NONE',  #264 ) ;
#77 = FACE_OUTER_BOUND ( 'NONE', #172, .T. ) ;
#78 = AXIS2_PLACEMENT_3D ( 'NONE', #233, #160, #208 ) ;
#79 = PLANE ( 'NONE',  #2 ) ;
#80 = ADVANCED_FACE ( 'NONE', ( #149 ), #35, .T. ) ;
#81 = DIRECTION ( 'NONE',  ( -4.275831445896958607E-31, -1.000000000000000000, -1.224646799147353207E-16 ) ) ;
#82 = FACE_OUTER_BOUND ( 'NONE', #92, .T. ) ;
#83 = AXIS2_PLACEMENT_3D ( 'NONE', #282, #51, #84 ) ;
#84 = DIRECTION ( 'NONE',  ( 0.0000000000000000000, -1.000000000000000000, 0.0000000000000000000 ) ) ;
#85 = PERSON ( 'UNSPECIFIED', 'UNSPECIFIED', 'UNSPECIFIED', ('UNSPECIFIED'), ('UNSPECIFIED'), ('UNSPECIFIED') ) ;
#86 = EDGE_CURVE ( 'NONE', #245, #245, #157, .T. ) ;
#87 = APPROVAL_DATE_TIME ( #316, #181 ) ;
#88 = CIRCLE ( 'NONE', #272, 3.100000000000000533 ) ;
#89 = AXIS2_PLACEMENT_3D ( 'NONE', #10, #156, #33 ) ;
#90 = ORIENTED_EDGE ( 'NONE', *, *, #307, .T. ) ;
#91 = FACE_OUTER_BOUND ( 'NONE', #277, .T. ) ;
#92 = EDGE_LOOP ( 'NONE', ( #293 ) ) ;
#93 = COORDINATED_UNIVERSAL_TIME_OFFSET ( 1, 0, .AHEAD. ) ;
#94 = ORIENTED_EDGE ( 'NONE', *, *, #12, .T. ) ;
#95 = CALENDAR_DATE ( 2021, 13, 12 ) ;
#96 = CARTESIAN_POINT ( 'NONE',  ( 3.700970219173721357E-14, 2.499999999999998668, 10.59999999999999964 ) ) ;
#97 = EDGE_LOOP ( 'NONE', ( #22 ) ) ;
#98 = ORIENTED_EDGE ( 'NONE', *, *, #259, .T. ) ;
#99 = LOCAL_TIME ( 11, 14, 59.00000000000000000, #93 ) ;
#100 = CC_DESIGN_PERSON_AND_ORGANIZATION_ASSIGNMENT ( #296, #269, ( #169 ) ) ;
#101 = ORIENTED_EDGE ( 'NONE', *, *, #130, .T. ) ;
#102 = ORIENTED_EDGE ( 'NONE', *, *, #259, .F. ) ;
#103 = CARTESIAN_POINT ( 'NONE',  ( 2.234548056859605347E-13, -7.837739514543060526E-15, 64.00000000000000000 ) ) ;
#104 = CARTESIAN_POINT ( 'NONE',  ( 2.234548056859605347E-13, -7.837739514543060526E-15, 64.00000000000000000 ) ) ;
#105 = CC_DESIGN_SECURITY_CLASSIFICATION ( #143, ( #169 ) ) ;
#106 = DIRECTION ( 'NONE',  ( -3.491481338843133355E-15, 1.224100544486976698E-16, -1.000000000000000000 ) ) ;
#107 = CARTESIAN_POINT ( 'NONE',  ( 2.206616206148860281E-13, -7.739811470984101976E-15, 63.20000000000000284 ) ) ;
#108 = FACE_BOUND ( 'NONE', #193, .T. ) ;
#109 = AXIS2_PLACEMENT_3D ( 'NONE', #107, #304, #203 ) ;
#110 = EDGE_CURVE ( 'NONE', #122, #122, #261, .T. ) ;
#111 = AXIS2_PLACEMENT_3D ( 'NONE', #104, #53, #204 ) ;
#112 = CALENDAR_DATE ( 2021, 13, 12 ) ;
#113 = APPROVAL_STATUS ( 'not_yet_approved' ) ;
#114 = ADVANCED_FACE ( 'NONE', ( #250, #7 ), #131, .T. ) ;
#115 = AXIS2_PLACEMENT_3D ( 'NONE', #9, #278, #179 ) ;
#116 = PERSON_AND_ORGANIZATION ( #85, #273 ) ;
#117 = ORIENTED_EDGE ( 'NONE', *, *, #307, .F. ) ;
#118 = EDGE_LOOP ( 'NONE', ( #94 ) ) ;
#119 = SECURITY_CLASSIFICATION_LEVEL ( 'unclassified' ) ;
#120 = EDGE_LOOP ( 'NONE', ( #40 ) ) ;
#121 = CARTESIAN_POINT ( 'NONE',  ( 8.065321892727638682E-14, -3.950000000000002842, 23.10000000000000142 ) ) ;
#122 = VERTEX_POINT ( 'NONE', #220 ) ;
#123 = DIRECTION ( 'NONE',  ( -3.491481338843133355E-15, 1.224646799147353207E-16, -1.000000000000000000 ) ) ;
#124 = VERTEX_POINT ( 'NONE', #121 ) ;
#125 = DIRECTION ( 'NONE',  ( 0.0000000000000000000, -1.000000000000000000, 0.0000000000000000000 ) ) ;
#126 = CARTESIAN_POINT ( 'NONE',  ( 5.272136821653132629E-14, -3.100000000000001865, 15.10000000000000142 ) ) ;
#127 = DATE_AND_TIME ( #290, #242 ) ;
#128 = FACE_OUTER_BOUND ( 'NONE', #120, .T. ) ;
#129 =( NAMED_UNIT ( * ) SI_UNIT ( $, .STERADIAN. ) SOLID_ANGLE_UNIT ( ) );
#130 = EDGE_CURVE ( 'NONE', #124, #124, #187, .T. ) ;
#131 = CYLINDRICAL_SURFACE ( 'NONE', #311, 2.499999999999999556 ) ;
#132 = CIRCLE ( 'NONE', #32, 2.500000000000000000 ) ;
#133 = DIRECTION ( 'NONE',  ( 3.491481338843133355E-15, -1.224100544486976698E-16, 1.000000000000000000 ) ) ;
#134 =( NAMED_UNIT ( * ) PLANE_ANGLE_UNIT ( ) SI_UNIT ( $, .RADIAN. ) );
#135 = CYLINDRICAL_SURFACE ( 'NONE', #27, 2.500000000000000444 ) ;
#136 = CC_DESIGN_DATE_AND_TIME_ASSIGNMENT ( #219, #292, ( #264 ) ) ;
#137 = AXIS2_PLACEMENT_3D ( 'NONE', #225, #133, #8 ) ;
#138 = ORIENTED_EDGE ( 'NONE', *, *, #268, .F. ) ;
#139 = DIRECTION ( 'NONE',  ( 4.275831445896959482E-31, 1.000000000000000000, 1.224646799147353207E-16 ) ) ;
#140 = PERSON_AND_ORGANIZATION ( #85, #273 ) ;
#141 = MANIFOLD_SOLID_BREP ( 'Corps-Déplacer/Copier4[1]', #186 ) ;
#142 = ADVANCED_FACE ( 'NONE', ( #108, #82 ), #34, .T. ) ;
#143 = SECURITY_CLASSIFICATION ( '', '', #119 ) ;
#144 = APPROVAL_ROLE ( '' ) ;
#145 = PERSON_AND_ORGANIZATION_ROLE ( 'classification_officer' ) ;
#146 = EDGE_LOOP ( 'NONE', ( #190 ) ) ;
#147 = CARTESIAN_POINT ( 'NONE',  ( 3.700970219173721357E-14, -1.298125607096194385E-15, 10.59999999999999964 ) ) ;
#148 = PERSON_AND_ORGANIZATION ( #85, #273 ) ;
#149 = FACE_OUTER_BOUND ( 'NONE', #42, .T. ) ;
#150 = PLANE ( 'NONE',  #297 ) ;
#151 = CARTESIAN_POINT ( 'NONE',  ( 0.0000000000000000000, 0.0000000000000000000, 0.0000000000000000000 ) ) ;
#152 = TOROIDAL_SURFACE ( 'NONE', #78, 4.500000000000000888, 2.000000000000000000 ) ;
#153 = CARTESIAN_POINT ( 'NONE',  ( 6.668357721492481847E-14, -3.950000000000002842, 19.09893559305682231 ) ) ;
#154 = DIRECTION ( 'NONE',  ( 0.0000000000000000000, -1.000000000000000000, 0.0000000000000000000 ) ) ;
#155 = DIRECTION ( 'NONE',  ( 4.275831445896958607E-31, 1.000000000000000000, 1.224646799147353207E-16 ) ) ;
#156 = DIRECTION ( 'NONE',  ( 3.491481338843133355E-15, -1.224100544486976698E-16, 1.000000000000000000 ) ) ;
#157 = CIRCLE ( 'NONE', #60, 3.999999999999994671 ) ;
#158 = DIRECTION ( 'NONE',  ( -4.273924207943998360E-31, -1.000000000000000000, -1.224100544486976698E-16 ) ) ;
#159 = CC_DESIGN_PERSON_AND_ORGANIZATION_ASSIGNMENT ( #116, #240, ( #264 ) ) ;
#160 = DIRECTION ( 'NONE',  ( 3.491481338843133355E-15, -1.224100544486976698E-16, 1.000000000000000000 ) ) ;
#161 = MECHANICAL_CONTEXT ( 'NONE', #65, 'mechanical' ) ;
#162 = AXIS2_PLACEMENT_3D ( 'NONE', #16, #286, #164 ) ;
#163 = DIRECTION ( 'NONE',  ( 0.0000000000000000000, -1.000000000000000000, 0.0000000000000000000 ) ) ;
#164 = DIRECTION ( 'NONE',  ( 1.000000000000000000, 0.0000000000000000000, 0.0000000000000000000 ) ) ;
#165 = VERTEX_POINT ( 'NONE', #153 ) ;
#166 = ADVANCED_FACE ( 'NONE', ( #128, #184 ), #254, .T. ) ;
#167 = VERTEX_POINT ( 'NONE', #126 ) ;
#168 = CARTESIAN_POINT ( 'NONE',  ( 2.234548056859605347E-13, -7.837739514543060526E-15, 64.00000000000000000 ) ) ;
#169 = PRODUCT_DEFINITION_FORMATION_WITH_SPECIFIED_SOURCE ( 'ANY', '', #263, .NOT_KNOWN. ) ;
#170 = COORDINATED_UNIVERSAL_TIME_OFFSET ( 1, 0, .AHEAD. ) ;
#171 = VERTEX_POINT ( 'NONE', #301 ) ;
#172 = EDGE_LOOP ( 'NONE', ( #90 ) ) ;
#173 = DIRECTION ( 'NONE',  ( 3.491481338843133355E-15, -1.224100544486976698E-16, 1.000000000000000000 ) ) ;
#174 = CYLINDRICAL_SURFACE ( 'NONE', #36, 3.950000000000000178 ) ;
#175 = CARTESIAN_POINT ( 'NONE',  ( 3.700970219173720726E-14, -2.500000000000001332, 10.59999999999999787 ) ) ;
#176 = DIRECTION ( 'NONE',  ( 3.491481338843133355E-15, -1.224646799147353207E-16, 1.000000000000000000 ) ) ;
#177 = ADVANCED_FACE ( 'NONE', ( #77 ), #79, .F. ) ;
#178 = CIRCLE ( 'NONE', #283, 3.950000000000000178 ) ;
#179 = DIRECTION ( 'NONE',  ( 0.0000000000000000000, -1.000000000000000000, 0.0000000000000000000 ) ) ;
#180 = FACE_OUTER_BOUND ( 'NONE', #13, .T. ) ;
#181 = APPROVAL ( #315, 'UNSPECIFIED' ) ;
#182 = CARTESIAN_POINT ( 'NONE',  ( 8.065321892727638682E-14, 3.999999999999992450, 23.10000000000000142 ) ) ;
#183 = AXIS2_PLACEMENT_3D ( 'NONE', #59, #260, #195 ) ;
#184 = FACE_OUTER_BOUND ( 'NONE', #64, .T. ) ;
#185 = CARTESIAN_POINT ( 'NONE',  ( 6.668357721492481847E-14, -2.341397775684664360E-15, 19.09893559305682231 ) ) ;
#186 = CLOSED_SHELL ( 'NONE', ( #218, #289, #317, #312, #52, #253, #166, #142, #211, #38 ) ) ;
#187 = CIRCLE ( 'NONE', #83, 3.950000000000000178 ) ;
#188 = AXIS2_PLACEMENT_3D ( 'NONE', #96, #75, #3 ) ;
#189 = DATE_AND_TIME ( #243, #99 ) ;
#190 = ORIENTED_EDGE ( 'NONE', *, *, #130, .F. ) ;
#191 = CARTESIAN_POINT ( 'NONE',  ( 5.272136821653132629E-14, -1.851887852001744601E-15, 15.10000000000000142 ) ) ;
#192 = DATE_AND_TIME ( #95, #229 ) ;
#193 = EDGE_LOOP ( 'NONE', ( #241 ) ) ;
#194 = APPROVAL_DATE_TIME ( #189, #74 ) ;
#195 = DIRECTION ( 'NONE',  ( 0.0000000000000000000, -1.000000000000000000, 0.0000000000000000000 ) ) ;
#196 = FACE_BOUND ( 'NONE', #1, .T. ) ;
#197 = CC_DESIGN_DATE_AND_TIME_ASSIGNMENT ( #192, #270, ( #143 ) ) ;
#198 = DIRECTION ( 'NONE',  ( 3.491481338843133355E-15, -1.224100544486976698E-16, 1.000000000000000000 ) ) ;
#199 = VERTEX_POINT ( 'NONE', #72 ) ;
#200 = SHAPE_DEFINITION_REPRESENTATION ( #76, #265 ) ;
#201 = FACE_OUTER_BOUND ( 'NONE', #71, .T. ) ;
#202 = LOCAL_TIME ( 11, 14, 59.00000000000000000, #21 ) ;
#203 = DIRECTION ( 'NONE',  ( 0.0000000000000000000, 1.000000000000000000, 0.0000000000000000000 ) ) ;
#204 = DIRECTION ( 'NONE',  ( 0.0000000000000000000, -1.000000000000000000, 0.0000000000000000000 ) ) ;
#205 = PLANE ( 'NONE',  #54 ) ;
#206 = CIRCLE ( 'NONE', #89, 3.200000000000001066 ) ;
#207 = EDGE_CURVE ( 'NONE', #199, #199, #45, .T. ) ;
#208 = DIRECTION ( 'NONE',  ( -4.273924207943998360E-31, -1.000000000000000000, -1.224100544486976698E-16 ) ) ;
#209 = EDGE_LOOP ( 'NONE', ( #20 ) ) ;
#210 = DIRECTION ( 'NONE',  ( -3.491481338843133355E-15, 1.224646799147353207E-16, -1.000000000000000000 ) ) ;
#211 = ADVANCED_FACE ( 'NONE', ( #201 ), #246, .F. ) ;
#212 = APPROVAL_ROLE ( '' ) ;
#213 = AXIS2_PLACEMENT_3D ( 'NONE', #103, #106, #224 ) ;
#214 = EDGE_LOOP ( 'NONE', ( #43 ) ) ;
#215 = PERSON_AND_ORGANIZATION ( #85, #273 ) ;
#216 = EDGE_LOOP ( 'NONE', ( #117 ) ) ;
#217 = FACE_OUTER_BOUND ( 'NONE', #274, .T. ) ;
#218 = ADVANCED_FACE ( 'NONE', ( #5, #180 ), #135, .T. ) ;
#219 = DATE_AND_TIME ( #69, #202 ) ;
#220 = CARTESIAN_POINT ( 'NONE',  ( 5.242459230272965017E-14, -2.500000000000002220, 15.01500000000000057 ) ) ;
#221 = FACE_OUTER_BOUND ( 'NONE', #24, .T. ) ;
#222 = APPROVAL ( #113, 'UNSPECIFIED' ) ;
#223 = VERTEX_POINT ( 'NONE', #4 ) ;
#224 = DIRECTION ( 'NONE',  ( 4.273924207943998360E-31, 1.000000000000000000, 1.224100544486976698E-16 ) ) ;
#225 = CARTESIAN_POINT ( 'NONE',  ( 5.272136821653132629E-14, -1.851887852001744601E-15, 15.10000000000000142 ) ) ;
#226 = EDGE_CURVE ( 'NONE', #223, #223, #206, .T. ) ;
#227 = CARTESIAN_POINT ( 'NONE',  ( 2.206616206148860281E-13, -7.739811470984101976E-15, 63.20000000000000284 ) ) ;
#228 = CARTESIAN_POINT ( 'NONE',  ( 2.234548056859605347E-13, -7.837739514543060526E-15, 64.00000000000000000 ) ) ;
#229 = LOCAL_TIME ( 11, 14, 59.00000000000000000, #170 ) ;
#230 = EDGE_CURVE ( 'NONE', #171, #171, #267, .T. ) ;
#231 = DIRECTION ( 'NONE',  ( 0.0000000000000000000, -1.000000000000000000, 0.0000000000000000000 ) ) ;
#232 = EDGE_LOOP ( 'NONE', ( #138 ) ) ;
#233 = CARTESIAN_POINT ( 'NONE',  ( 5.242459230272965017E-14, -1.734723475976807094E-15, 15.01500000000000057 ) ) ;
#234 = MANIFOLD_SOLID_BREP ( 'Corps-Déplacer/Copier4[2]', #44 ) ;
#235 = ORIENTED_EDGE ( 'NONE', *, *, #268, .T. ) ;
#236 = PERSON_AND_ORGANIZATION ( #85, #273 ) ;
#237 = CARTESIAN_POINT ( 'NONE',  ( -8.551702076470493195E-31, 2.999533309458106118E-32, -2.449304821232128456E-16 ) ) ;
#238 = COORDINATED_UNIVERSAL_TIME_OFFSET ( 1, 0, .AHEAD. ) ;
#239 = DIRECTION ( 'NONE',  ( 0.0000000000000000000, -1.000000000000000000, 0.0000000000000000000 ) ) ;
#240 = PERSON_AND_ORGANIZATION_ROLE ( 'creator' ) ;
#241 = ORIENTED_EDGE ( 'NONE', *, *, #226, .F. ) ;
#242 = LOCAL_TIME ( 11, 14, 59.00000000000000000, #318 ) ;
#243 = CALENDAR_DATE ( 2021, 13, 12 ) ;
#244 = ORIENTED_EDGE ( 'NONE', *, *, #12, .F. ) ;
#245 = VERTEX_POINT ( 'NONE', #271 ) ;
#246 = PLANE ( 'NONE',  #213 ) ;
#247 = AXIS2_PLACEMENT_3D ( 'NONE', #227, #198, #284 ) ;
#248 = ORIENTED_EDGE ( 'NONE', *, *, #86, .F. ) ;
#249 = VERTEX_POINT ( 'NONE', #276 ) ;
#250 = FACE_OUTER_BOUND ( 'NONE', #216, .T. ) ;
#251 = APPROVAL_DATE_TIME ( #127, #222 ) ;
#252 = CARTESIAN_POINT ( 'NONE',  ( 8.065321892727638682E-14, -2.831168287591325761E-15, 23.10000000000000142 ) ) ;
#253 = ADVANCED_FACE ( 'NONE', ( #30, #28 ), #205, .F. ) ;
#254 = CYLINDRICAL_SURFACE ( 'NONE', #111, 3.999999999999998224 ) ;
#255 = CC_DESIGN_APPROVAL ( #222, ( #143 ) ) ;
#256 = AXIS2_PLACEMENT_3D ( 'NONE', #281, #176, #309 ) ;
#257 = CARTESIAN_POINT ( 'NONE',  ( 3.700970219173720726E-14, -1.301042606982604532E-15, 10.59999999999999787 ) ) ;
#258 = ORIENTED_EDGE ( 'NONE', *, *, #110, .T. ) ;
#259 = EDGE_CURVE ( 'NONE', #61, #61, #279, .T. ) ;
#260 = DIRECTION ( 'NONE',  ( 3.491481338843133355E-15, -1.224100544486976698E-16, 1.000000000000000000 ) ) ;
#261 = CIRCLE ( 'NONE', #115, 2.500000000000000444 ) ;
#262 = APPLICATION_PROTOCOL_DEFINITION ( 'international standard', 'config_control_design', 1994, #65 ) ;
#263 = PRODUCT ( '388796', '388796', '', ( #161 ) ) ;
#264 = PRODUCT_DEFINITION ( 'UNKNOWN', '', #169, #6 ) ;
#265 = ADVANCED_BREP_SHAPE_REPRESENTATION ( '388796', ( #141, #234, #162 ), #15 ) ;
#266 = PERSON_AND_ORGANIZATION_ROLE ( 'design_owner' ) ;
#267 = CIRCLE ( 'NONE', #247, 4.000000000000000888 ) ;
#268 = EDGE_CURVE ( 'NONE', #165, #165, #178, .T. ) ;
#269 = PERSON_AND_ORGANIZATION_ROLE ( 'creator' ) ;
#270 = DATE_TIME_ROLE ( 'classification_date' ) ;
#271 = CARTESIAN_POINT ( 'NONE',  ( 8.065321892727638682E-14, -3.999999999999997335, 23.10000000000000142 ) ) ;
#272 = AXIS2_PLACEMENT_3D ( 'NONE', #191, #46, #291 ) ;
#273 = ORGANIZATION ( 'UNSPECIFIED', 'UNSPECIFIED', '' ) ;
#274 = EDGE_LOOP ( 'NONE', ( #244 ) ) ;
#275 = APPLICATION_CONTEXT ( 'configuration controlled 3d designs of mechanical parts and assemblies' ) ;
#276 = CARTESIAN_POINT ( 'NONE',  ( 2.137876538271898504E-31, 2.499999999999998668, 6.123121766362532060E-17 ) ) ;
#277 = EDGE_LOOP ( 'NONE', ( #258 ) ) ;
#278 = DIRECTION ( 'NONE',  ( 3.491481338843133355E-15, -1.224100544486976698E-16, 1.000000000000000000 ) ) ;
#279 = CIRCLE ( 'NONE', #319, 2.500000000000000000 ) ;
#280 = CARTESIAN_POINT ( 'NONE',  ( -4.275851038235246598E-31, 1.499766654729053059E-32, -1.224652410616064228E-16 ) ) ;
#281 = CARTESIAN_POINT ( 'NONE',  ( 3.700970219173721357E-14, 1.874699728327320094E-32, 10.59999999999999964 ) ) ;
#282 = CARTESIAN_POINT ( 'NONE',  ( 8.065321892727638682E-14, -2.831168287591325761E-15, 23.10000000000000142 ) ) ;
#283 = AXIS2_PLACEMENT_3D ( 'NONE', #185, #57, #231 ) ;
#284 = DIRECTION ( 'NONE',  ( 0.0000000000000000000, -1.000000000000000000, 0.0000000000000000000 ) ) ;
#285 = CC_DESIGN_PERSON_AND_ORGANIZATION_ASSIGNMENT ( #148, #145, ( #143 ) ) ;
#286 = DIRECTION ( 'NONE',  ( 0.0000000000000000000, 0.0000000000000000000, 1.000000000000000000 ) ) ;
#287 = FACE_OUTER_BOUND ( 'NONE', #232, .T. ) ;
#288 = LOCAL_TIME ( 11, 14, 59.00000000000000000, #238 ) ;
#289 = ADVANCED_FACE ( 'NONE', ( #299, #91 ), #152, .F. ) ;
#290 = CALENDAR_DATE ( 2021, 13, 12 ) ;
#291 = DIRECTION ( 'NONE',  ( 0.0000000000000000000, -1.000000000000000000, 0.0000000000000000000 ) ) ;
#292 = DATE_TIME_ROLE ( 'creation_date' ) ;
#293 = ORIENTED_EDGE ( 'NONE', *, *, #230, .T. ) ;
#294 = CARTESIAN_POINT ( 'NONE',  ( 5.272136821653131366E-14, 2.501807066372217392, 15.09999999999999964 ) ) ;
#295 = FACE_OUTER_BOUND ( 'NONE', #146, .T. ) ;
#296 = PERSON_AND_ORGANIZATION ( #85, #273 ) ;
#297 = AXIS2_PLACEMENT_3D ( 'NONE', #294, #173, #303 ) ;
#298 = EDGE_LOOP ( 'NONE', ( #248 ) ) ;
#299 = FACE_OUTER_BOUND ( 'NONE', #97, .T. ) ;
#300 = ORIENTED_EDGE ( 'NONE', *, *, #86, .T. ) ;
#301 = CARTESIAN_POINT ( 'NONE',  ( 2.206616206148860281E-13, -4.000000000000008882, 63.20000000000000284 ) ) ;
#302 = PLANE ( 'NONE',  #188 ) ;
#303 = DIRECTION ( 'NONE',  ( -4.273924207943998360E-31, -1.000000000000000000, -1.224100544486976698E-16 ) ) ;
#304 = DIRECTION ( 'NONE',  ( -3.491481338843133355E-15, 1.224100544486976698E-16, -1.000000000000000000 ) ) ;
#305 = DIRECTION ( 'NONE',  ( -3.491481338843133355E-15, 1.224646799147353207E-16, -1.000000000000000000 ) ) ;
#306 = AXIS2_PLACEMENT_3D ( 'NONE', #237, #210, #139 ) ;
#307 = EDGE_CURVE ( 'NONE', #249, #249, #19, .T. ) ;
#308 = DIRECTION ( 'NONE',  ( 3.491481338843133355E-15, -1.224100544486976698E-16, 1.000000000000000000 ) ) ;
#309 = DIRECTION ( 'NONE',  ( -4.275831445896958607E-31, -1.000000000000000000, -1.224646799147353207E-16 ) ) ;
#310 = DIRECTION ( 'NONE',  ( 3.491481338843133355E-15, -1.224100544486976698E-16, 1.000000000000000000 ) ) ;
#311 = AXIS2_PLACEMENT_3D ( 'NONE', #151, #305, #155 ) ;
#312 = ADVANCED_FACE ( 'NONE', ( #287, #14 ), #39, .T. ) ;
#313 = CC_DESIGN_APPROVAL ( #181, ( #264 ) ) ;
#314 = EDGE_LOOP ( 'NONE', ( #235 ) ) ;
#315 = APPROVAL_STATUS ( 'not_yet_approved' ) ;
#316 = DATE_AND_TIME ( #112, #288 ) ;
#317 = ADVANCED_FACE ( 'NONE', ( #217, #196 ), #150, .F. ) ;
#318 = COORDINATED_UNIVERSAL_TIME_OFFSET ( 1, 0, .AHEAD. ) ;
#319 = AXIS2_PLACEMENT_3D ( 'NONE', #257, #310, #163 ) ;
#320 = PERSON_AND_ORGANIZATION_ROLE ( 'design_supplier' ) ;
#321 = DIRECTION ( 'NONE',  ( 0.0000000000000000000, 1.000000000000000000, 0.0000000000000000000 ) ) ;
#322 = CC_DESIGN_PERSON_AND_ORGANIZATION_ASSIGNMENT ( #140, #266, ( #263 ) ) ;
#323 = PERSON_AND_ORGANIZATION ( #85, #273 ) ;
ENDSEC;
END-ISO-10303-21;
