ISO-10303-21;
HEADER;
FILE_DESCRIPTION (( 'STEP AP203' ),
    '1' );
FILE_NAME ('388795.step',
    '2021-12-13T10:14:59',
    ( '' ),
    ( '' ),
    'SwSTEP 2.0',
    'SolidWorks 2019',
    '' );
FILE_SCHEMA (( 'CONFIG_CONTROL_DESIGN' ));
ENDSEC;

DATA;
#1 = VERTEX_POINT ( 'NONE', #44 ) ;
#2 = AXIS2_PLACEMENT_3D ( 'NONE', #252, #58, #258 ) ;
#3 = DIRECTION ( 'NONE',  ( 0.0000000000000000000, 1.000000000000000000, 0.0000000000000000000 ) ) ;
#4 = DATE_AND_TIME ( #171, #48 ) ;
#5 = DIRECTION ( 'NONE',  ( 1.000000000000000000, 0.0000000000000000000, 0.0000000000000000000 ) ) ;
#6 = COORDINATED_UNIVERSAL_TIME_OFFSET ( 1, 0, .AHEAD. ) ;
#7 = EDGE_CURVE ( 'NONE', #285, #285, #231, .T. ) ;
#8 = CARTESIAN_POINT ( 'NONE',  ( 4.189777606611760026E-14, 1.999999999999999112, 12.00000000000000000 ) ) ;
#9 = PERSON_AND_ORGANIZATION ( #263, #183 ) ;
#10 = AXIS2_PLACEMENT_3D ( 'NONE', #228, #203, #25 ) ;
#11 = EDGE_LOOP ( 'NONE', ( #75 ) ) ;
#12 = CARTESIAN_POINT ( 'NONE',  ( 4.189777606611760026E-14, 2.649999999999998579, 12.00000000000000000 ) ) ;
#13 = ORIENTED_EDGE ( 'NONE', *, *, #194, .T. ) ;
#14 = LOCAL_TIME ( 11, 14, 59.00000000000000000, #244 ) ;
#15 = APPLICATION_CONTEXT ( 'configuration controlled 3d designs of mechanical parts and assemblies' ) ;
#16 = CARTESIAN_POINT ( 'NONE',  ( 4.189777606611760026E-14, 2.649999999999998579, 12.00000000000000000 ) ) ;
#17 = ORIENTED_EDGE ( 'NONE', *, *, #54, .F. ) ;
#18 = CIRCLE ( 'NONE', #291, 1.999999999999999112 ) ;
#19 = COORDINATED_UNIVERSAL_TIME_OFFSET ( 1, 0, .AHEAD. ) ;
#20 = AXIS2_PLACEMENT_3D ( 'NONE', #301, #114, #84 ) ;
#21 = DIRECTION ( 'NONE',  ( -3.491481338843133355E-15, 1.216853575145505482E-16, -1.000000000000000000 ) ) ;
#22 = MANIFOLD_SOLID_BREP ( 'Corps-Déplacer/Copier3[2]', #72 ) ;
#23 = DIRECTION ( 'NONE',  ( -3.491481338843133355E-15, 1.216853575145505482E-16, -1.000000000000000000 ) ) ;
#24 = FACE_BOUND ( 'NONE', #281, .T. ) ;
#25 = DIRECTION ( 'NONE',  ( 0.0000000000000000000, 1.000000000000000000, 0.0000000000000000000 ) ) ;
#26 =( GEOMETRIC_REPRESENTATION_CONTEXT ( 3 ) GLOBAL_UNCERTAINTY_ASSIGNED_CONTEXT ( ( #209 ) ) GLOBAL_UNIT_ASSIGNED_CONTEXT ( ( #81, #172, #240 ) ) REPRESENTATION_CONTEXT ( 'NONE', 'WORKASPACE' ) );
#27 = ORIENTED_EDGE ( 'NONE', *, *, #7, .T. ) ;
#28 = DATE_AND_TIME ( #163, #74 ) ;
#29 = APPROVAL_STATUS ( 'not_yet_approved' ) ;
#30 = PERSON_AND_ORGANIZATION ( #263, #183 ) ;
#31 = CARTESIAN_POINT ( 'NONE',  ( 2.967759138016663352E-14, 1.999999999999999112, 8.500000000000000000 ) ) ;
#32 = ORIENTED_EDGE ( 'NONE', *, *, #41, .T. ) ;
#33 = CLOSED_SHELL ( 'NONE', ( #211, #95, #50, #105, #191, #99, #158, #297, #187 ) ) ;
#34 = AXIS2_PLACEMENT_3D ( 'NONE', #80, #180, #109 ) ;
#35 = DATE_AND_TIME ( #116, #14 ) ;
#36 = AXIS2_PLACEMENT_3D ( 'NONE', #130, #101, #3 ) ;
#37 = CYLINDRICAL_SURFACE ( 'NONE', #94, 3.999999999999998224 ) ;
#38 = FACE_OUTER_BOUND ( 'NONE', #200, .T. ) ;
#39 = CARTESIAN_POINT ( 'NONE',  ( -6.413786353522014768E-31, 2.249653418127177862E-32, -1.836981421658452222E-16 ) ) ;
#40 = CARTESIAN_POINT ( 'NONE',  ( 4.189777606611760026E-14, -1.510100923786431230E-15, 12.00000000000000000 ) ) ;
#41 = EDGE_CURVE ( 'NONE', #71, #71, #221, .T. ) ;
#42 = AXIS2_PLACEMENT_3D ( 'NONE', #106, #64, #255 ) ;
#43 = CARTESIAN_POINT ( 'NONE',  ( 6.325174276954296129E-14, -2.254330899685743381E-15, 18.11601914232220167 ) ) ;
#44 = CARTESIAN_POINT ( 'NONE',  ( 2.967759138016663352E-14, 1.999999999999999112, 8.500000000000000000 ) ) ;
#45 = CARTESIAN_POINT ( 'NONE',  ( 0.0000000000000000000, 0.0000000000000000000, 0.0000000000000000000 ) ) ;
#46 = APPLICATION_PROTOCOL_DEFINITION ( 'international standard', 'config_control_design', 1994, #246 ) ;
#47 = VERTEX_POINT ( 'NONE', #141 ) ;
#48 = LOCAL_TIME ( 11, 14, 59.00000000000000000, #6 ) ;
#49 = DESIGN_CONTEXT ( 'detailed design', #15, 'design' ) ;
#50 = ADVANCED_FACE ( 'NONE', ( #88, #63 ), #181, .T. ) ;
#51 = CARTESIAN_POINT ( 'NONE',  ( 6.325174276954296129E-14, 3.949999999999997957, 18.11601914232220167 ) ) ;
#52 = EDGE_LOOP ( 'NONE', ( #53 ) ) ;
#53 = ORIENTED_EDGE ( 'NONE', *, *, #97, .T. ) ;
#54 = EDGE_CURVE ( 'NONE', #66, #66, #216, .T. ) ;
#55 = AXIS2_PLACEMENT_3D ( 'NONE', #31, #282, #92 ) ;
#56 = SECURITY_CLASSIFICATION_LEVEL ( 'unclassified' ) ;
#57 = ORIENTED_EDGE ( 'NONE', *, *, #168, .T. ) ;
#58 = DIRECTION ( 'NONE',  ( 3.491481338843133355E-15, -1.216853575145505482E-16, 1.000000000000000000 ) ) ;
#59 = DIRECTION ( 'NONE',  ( 0.0000000000000000000, 1.000000000000000000, 0.0000000000000000000 ) ) ;
#60 = SECURITY_CLASSIFICATION ( '', '', #56 ) ;
#61 = APPROVAL ( #204, 'UNSPECIFIED' ) ;
#62 = FACE_OUTER_BOUND ( 'NONE', #11, .T. ) ;
#63 = FACE_OUTER_BOUND ( 'NONE', #250, .T. ) ;
#64 = DIRECTION ( 'NONE',  ( 3.491481338843133355E-15, -1.224646799147353207E-16, 1.000000000000000000 ) ) ;
#65 = FACE_OUTER_BOUND ( 'NONE', #125, .T. ) ;
#66 = VERTEX_POINT ( 'NONE', #290 ) ;
#67 = FACE_OUTER_BOUND ( 'NONE', #196, .T. ) ;
#68 = APPROVAL_STATUS ( 'not_yet_approved' ) ;
#69 = VERTEX_POINT ( 'NONE', #90 ) ;
#70 = DIRECTION ( 'NONE',  ( 0.0000000000000000000, 0.0000000000000000000, 1.000000000000000000 ) ) ;
#71 = VERTEX_POINT ( 'NONE', #190 ) ;
#72 = CLOSED_SHELL ( 'NONE', ( #293, #274, #121 ) ) ;
#73 = APPROVAL_ROLE ( '' ) ;
#74 = LOCAL_TIME ( 11, 14, 59.00000000000000000, #182 ) ;
#75 = ORIENTED_EDGE ( 'NONE', *, *, #249, .F. ) ;
#76 = PRODUCT_RELATED_PRODUCT_CATEGORY ( 'detail', '', ( #145 ) ) ;
#77 = PRODUCT_DEFINITION ( 'UNKNOWN', '', #254, #49 ) ;
#78 = DIRECTION ( 'NONE',  ( 0.0000000000000000000, 1.000000000000000000, 0.0000000000000000000 ) ) ;
#79 = CC_DESIGN_APPROVAL ( #248, ( #60 ) ) ;
#80 = CARTESIAN_POINT ( 'NONE',  ( 2.967759138016663352E-14, -1.040949779275250140E-15, 8.500000000000000000 ) ) ;
#81 =( LENGTH_UNIT ( ) NAMED_UNIT ( * ) SI_UNIT ( .MILLI., .METRE. ) );
#82 = EDGE_LOOP ( 'NONE', ( #212 ) ) ;
#83 = AXIS2_PLACEMENT_3D ( 'NONE', #280, #161, #261 ) ;
#84 = DIRECTION ( 'NONE',  ( 0.0000000000000000000, 1.000000000000000000, 0.0000000000000000000 ) ) ;
#85 = PERSON_AND_ORGANIZATION_ROLE ( 'creator' ) ;
#86 = FACE_OUTER_BOUND ( 'NONE', #52, .T. ) ;
#87 = DIRECTION ( 'NONE',  ( -3.491481338843133355E-15, 1.216853575145505482E-16, -1.000000000000000000 ) ) ;
#88 = FACE_OUTER_BOUND ( 'NONE', #169, .T. ) ;
#89 = APPROVAL_PERSON_ORGANIZATION ( #110, #61, #157 ) ;
#90 = CARTESIAN_POINT ( 'NONE',  ( 2.967759138016663352E-14, 1.999999999999999112, 8.500000000000000000 ) ) ;
#91 = DIRECTION ( 'NONE',  ( 4.248621549725082608E-31, 1.000000000000000000, 1.216853575145505482E-16 ) ) ;
#92 = DIRECTION ( 'NONE',  ( 4.248621549725082608E-31, 1.000000000000000000, 1.216853575145505482E-16 ) ) ;
#93 = DATE_AND_TIME ( #272, #192 ) ;
#94 = AXIS2_PLACEMENT_3D ( 'NONE', #303, #276, #205 ) ;
#95 = ADVANCED_FACE ( 'NONE', ( #176, #253 ), #298, .T. ) ;
#96 = CARTESIAN_POINT ( 'NONE',  ( 2.234548056859605347E-13, -7.837739514543060526E-15, 64.00000000000000000 ) ) ;
#97 = EDGE_CURVE ( 'NONE', #118, #118, #18, .T. ) ;
#98 = PLANE ( 'NONE',  #275 ) ;
#99 = ADVANCED_FACE ( 'NONE', ( #226, #295 ), #152, .T. ) ;
#100 = AXIS2_PLACEMENT_3D ( 'NONE', #266, #70, #5 ) ;
#101 = DIRECTION ( 'NONE',  ( -3.491481338843133355E-15, 1.216853575145505482E-16, -1.000000000000000000 ) ) ;
#102 = CC_DESIGN_DATE_AND_TIME_ASSIGNMENT ( #35, #126, ( #60 ) ) ;
#103 = DIRECTION ( 'NONE',  ( 4.275831445896958607E-31, 1.000000000000000000, 1.224646799147353207E-16 ) ) ;
#104 = CALENDAR_DATE ( 2021, 13, 12 ) ;
#105 = ADVANCED_FACE ( 'NONE', ( #38, #24 ), #98, .T. ) ;
#106 = CARTESIAN_POINT ( 'NONE',  ( -3.206893176761007384E-31, 1.124826709063588931E-32, -9.184907108292261111E-17 ) ) ;
#107 = CC_DESIGN_PERSON_AND_ORGANIZATION_ASSIGNMENT ( #210, #237, ( #254 ) ) ;
#108 = AXIS2_PLACEMENT_3D ( 'NONE', #134, #137, #257 ) ;
#109 = DIRECTION ( 'NONE',  ( 0.0000000000000000000, 1.000000000000000000, 0.0000000000000000000 ) ) ;
#110 = PERSON_AND_ORGANIZATION ( #263, #183 ) ;
#111 = DIRECTION ( 'NONE',  ( 4.275831445896958607E-31, 1.000000000000000000, 1.224646799147353207E-16 ) ) ;
#112 = FACE_OUTER_BOUND ( 'NONE', #268, .T. ) ;
#113 = CARTESIAN_POINT ( 'NONE',  ( 2.967759138016663352E-14, 1.499759782661856239E-32, 8.500000000000000000 ) ) ;
#114 = DIRECTION ( 'NONE',  ( -3.491481338843133355E-15, 1.216853575145505482E-16, -1.000000000000000000 ) ) ;
#115 = ORIENTED_EDGE ( 'NONE', *, *, #7, .F. ) ;
#116 = CALENDAR_DATE ( 2021, 13, 12 ) ;
#117 = MECHANICAL_CONTEXT ( 'NONE', #246, 'mechanical' ) ;
#118 = VERTEX_POINT ( 'NONE', #262 ) ;
#119 = ORIENTED_EDGE ( 'NONE', *, *, #278, .T. ) ;
#120 = PERSON_AND_ORGANIZATION_ROLE ( 'design_owner' ) ;
#121 = ADVANCED_FACE ( 'NONE', ( #62 ), #160, .T. ) ;
#122 = EDGE_LOOP ( 'NONE', ( #119 ) ) ;
#123 = APPROVAL_DATE_TIME ( #93, #129 ) ;
#124 = AXIS2_PLACEMENT_3D ( 'NONE', #113, #195, #184 ) ;
#125 = EDGE_LOOP ( 'NONE', ( #224 ) ) ;
#126 = DATE_TIME_ROLE ( 'classification_date' ) ;
#127 = DIRECTION ( 'NONE',  ( 0.0000000000000000000, 1.000000000000000000, 0.0000000000000000000 ) ) ;
#128 = CIRCLE ( 'NONE', #136, 2.000000000000000000 ) ;
#129 = APPROVAL ( #68, 'UNSPECIFIED' ) ;
#130 = CARTESIAN_POINT ( 'NONE',  ( 7.716173758843325346E-14, -2.739123034683391929E-15, 22.10000000000000142 ) ) ;
#131 = EDGE_LOOP ( 'NONE', ( #241 ) ) ;
#132 = MANIFOLD_SOLID_BREP ( 'Corps-Déplacer/Copier3[1]', #33 ) ;
#133 = CC_DESIGN_APPROVAL ( #61, ( #77 ) ) ;
#134 = CARTESIAN_POINT ( 'NONE',  ( 4.189777606611760026E-14, -1.510100923786431230E-15, 12.00000000000000000 ) ) ;
#135 = DIRECTION ( 'NONE',  ( -3.491481338843133355E-15, 1.216853575145505482E-16, -1.000000000000000000 ) ) ;
#136 = AXIS2_PLACEMENT_3D ( 'NONE', #148, #247, #127 ) ;
#137 = DIRECTION ( 'NONE',  ( 3.491481338843133355E-15, -1.216853575145505482E-16, 1.000000000000000000 ) ) ;
#138 = PERSON_AND_ORGANIZATION ( #263, #183 ) ;
#139 = CC_DESIGN_APPROVAL ( #129, ( #254 ) ) ;
#140 = CC_DESIGN_PERSON_AND_ORGANIZATION_ASSIGNMENT ( #286, #147, ( #60 ) ) ;
#141 = CARTESIAN_POINT ( 'NONE',  ( 7.716173758843325346E-14, 3.999999999999993339, 22.10000000000000142 ) ) ;
#142 = EDGE_LOOP ( 'NONE', ( #27 ) ) ;
#143 = PLANE ( 'NONE',  #55 ) ;
#144 = ORIENTED_EDGE ( 'NONE', *, *, #54, .T. ) ;
#145 = PRODUCT ( '388795', '388795', '', ( #117 ) ) ;
#146 = CIRCLE ( 'NONE', #36, 3.999999999999995559 ) ;
#147 = PERSON_AND_ORGANIZATION_ROLE ( 'classification_officer' ) ;
#148 = CARTESIAN_POINT ( 'NONE',  ( 2.967759138016663352E-14, -1.084202172485504434E-15, 8.500000000000000000 ) ) ;
#149 = PRODUCT_DEFINITION_SHAPE ( 'NONE', 'NONE',  #77 ) ;
#150 = CC_DESIGN_DATE_AND_TIME_ASSIGNMENT ( #28, #289, ( #77 ) ) ;
#151 = ORIENTED_EDGE ( 'NONE', *, *, #168, .F. ) ;
#152 = CONICAL_SURFACE ( 'NONE', #260, 4.000000000000000888, 0.7853981633974512766 ) ;
#153 = CYLINDRICAL_SURFACE ( 'NONE', #264, 2.000000000000000000 ) ;
#154 = ORIENTED_EDGE ( 'NONE', *, *, #173, .T. ) ;
#155 = CC_DESIGN_PERSON_AND_ORGANIZATION_ASSIGNMENT ( #296, #85, ( #77 ) ) ;
#156 = APPROVAL_PERSON_ORGANIZATION ( #213, #129, #73 ) ;
#157 = APPROVAL_ROLE ( '' ) ;
#158 = ADVANCED_FACE ( 'NONE', ( #233 ), #206, .T. ) ;
#159 = CARTESIAN_POINT ( 'NONE',  ( 7.716173758843325346E-14, 3.999999999999993339, 22.10000000000000142 ) ) ;
#160 = PLANE ( 'NONE',  #124 ) ;
#161 = DIRECTION ( 'NONE',  ( -3.491481338843133355E-15, 1.216853575145505482E-16, -1.000000000000000000 ) ) ;
#162 = CIRCLE ( 'NONE', #174, 3.950000000000000178 ) ;
#163 = CALENDAR_DATE ( 2021, 13, 12 ) ;
#164 = DIRECTION ( 'NONE',  ( -3.491481338843133355E-15, 1.216853575145505482E-16, -1.000000000000000000 ) ) ;
#165 = ADVANCED_BREP_SHAPE_REPRESENTATION ( '388795', ( #132, #22, #100 ), #26 ) ;
#166 = FACE_BOUND ( 'NONE', #175, .T. ) ;
#167 = VERTEX_POINT ( 'NONE', #186 ) ;
#168 = EDGE_CURVE ( 'NONE', #270, #270, #189, .T. ) ;
#169 = EDGE_LOOP ( 'NONE', ( #144 ) ) ;
#170 = EDGE_LOOP ( 'NONE', ( #214 ) ) ;
#171 = CALENDAR_DATE ( 2021, 13, 12 ) ;
#172 =( NAMED_UNIT ( * ) PLANE_ANGLE_UNIT ( ) SI_UNIT ( $, .RADIAN. ) );
#173 = EDGE_CURVE ( 'NONE', #47, #47, #146, .T. ) ;
#174 = AXIS2_PLACEMENT_3D ( 'NONE', #43, #135, #234 ) ;
#175 = EDGE_LOOP ( 'NONE', ( #151 ) ) ;
#176 = FACE_OUTER_BOUND ( 'NONE', #265, .T. ) ;
#177 = AXIS2_PLACEMENT_3D ( 'NONE', #208, #284, #245 ) ;
#178 = CARTESIAN_POINT ( 'NONE',  ( 2.206616206148860281E-13, -7.740391228531419575E-15, 63.20000000000000284 ) ) ;
#179 = APPROVAL_PERSON_ORGANIZATION ( #9, #248, #188 ) ;
#180 = DIRECTION ( 'NONE',  ( -3.491481338843133355E-15, 1.224646799147353207E-16, -1.000000000000000000 ) ) ;
#181 = CYLINDRICAL_SURFACE ( 'NONE', #83, 3.950000000000001066 ) ;
#182 = COORDINATED_UNIVERSAL_TIME_OFFSET ( 1, 0, .AHEAD. ) ;
#183 = ORGANIZATION ( 'UNSPECIFIED', 'UNSPECIFIED', '' ) ;
#184 = DIRECTION ( 'NONE',  ( -4.275831445896958607E-31, -1.000000000000000000, -1.224646799147353207E-16 ) ) ;
#185 = APPROVAL_DATE_TIME ( #4, #248 ) ;
#186 = CARTESIAN_POINT ( 'NONE',  ( 2.234548056859605347E-13, 3.199999999999993516, 64.00000000000000000 ) ) ;
#187 = ADVANCED_FACE ( 'NONE', ( #67, #65 ), #153, .T. ) ;
#188 = APPROVAL_ROLE ( '' ) ;
#189 = CIRCLE ( 'NONE', #235, 2.000000000000000444 ) ;
#190 = CARTESIAN_POINT ( 'NONE',  ( 2.206616206148860281E-13, 3.999999999999993339, 63.20000000000000284 ) ) ;
#191 = ADVANCED_FACE ( 'NONE', ( #112, #283 ), #37, .T. ) ;
#192 = LOCAL_TIME ( 11, 14, 59.00000000000000000, #243 ) ;
#193 = DIRECTION ( 'NONE',  ( -3.491481338843133355E-15, 1.224646799147353207E-16, -1.000000000000000000 ) ) ;
#194 = EDGE_CURVE ( 'NONE', #267, #267, #162, .T. ) ;
#195 = DIRECTION ( 'NONE',  ( 3.491481338843133355E-15, -1.224646799147353207E-16, 1.000000000000000000 ) ) ;
#196 = EDGE_LOOP ( 'NONE', ( #57 ) ) ;
#197 = AXIS2_PLACEMENT_3D ( 'NONE', #45, #193, #103 ) ;
#198 = CC_DESIGN_PERSON_AND_ORGANIZATION_ASSIGNMENT ( #30, #120, ( #145 ) ) ;
#199 = CARTESIAN_POINT ( 'NONE',  ( 2.967759138016663352E-14, -1.084202172485504434E-15, 8.500000000000000000 ) ) ;
#200 = EDGE_LOOP ( 'NONE', ( #154 ) ) ;
#201 = APPROVAL_DATE_TIME ( #302, #61 ) ;
#202 = FACE_OUTER_BOUND ( 'NONE', #269, .T. ) ;
#203 = DIRECTION ( 'NONE',  ( -3.491481338843133355E-15, 1.216853575145505482E-16, -1.000000000000000000 ) ) ;
#204 = APPROVAL_STATUS ( 'not_yet_approved' ) ;
#205 = DIRECTION ( 'NONE',  ( 0.0000000000000000000, 1.000000000000000000, 0.0000000000000000000 ) ) ;
#206 = PLANE ( 'NONE',  #2 ) ;
#207 = CIRCLE ( 'NONE', #34, 2.000000000000000000 ) ;
#208 = CARTESIAN_POINT ( 'NONE',  ( 7.716173758843325346E-14, -2.739123034683391929E-15, 22.10000000000000142 ) ) ;
#209 = UNCERTAINTY_MEASURE_WITH_UNIT (LENGTH_MEASURE( 1.000000000000000082E-05 ), #81, 'distance_accuracy_value', 'NONE');
#210 = PERSON_AND_ORGANIZATION ( #263, #183 ) ;
#211 = ADVANCED_FACE ( 'NONE', ( #230, #166 ), #223, .T. ) ;
#212 = ORIENTED_EDGE ( 'NONE', *, *, #173, .F. ) ;
#213 = PERSON_AND_ORGANIZATION ( #263, #183 ) ;
#214 = ORIENTED_EDGE ( 'NONE', *, *, #287, .T. ) ;
#215 = APPLICATION_PROTOCOL_DEFINITION ( 'international standard', 'config_control_design', 1994, #15 ) ;
#216 = CIRCLE ( 'NONE', #177, 3.950000000000001066 ) ;
#217 = FACE_OUTER_BOUND ( 'NONE', #122, .T. ) ;
#218 = ORIENTED_EDGE ( 'NONE', *, *, #194, .F. ) ;
#219 = CC_DESIGN_PERSON_AND_ORGANIZATION_ASSIGNMENT ( #138, #220, ( #254 ) ) ;
#220 = PERSON_AND_ORGANIZATION_ROLE ( 'design_supplier' ) ;
#221 = CIRCLE ( 'NONE', #20, 4.000000000000000888 ) ;
#222 = ORIENTED_EDGE ( 'NONE', *, *, #97, .F. ) ;
#223 = PLANE ( 'NONE',  #251 ) ;
#224 = ORIENTED_EDGE ( 'NONE', *, *, #278, .F. ) ;
#225 = DIRECTION ( 'NONE',  ( 0.0000000000000000000, 1.000000000000000000, 0.0000000000000000000 ) ) ;
#226 = FACE_BOUND ( 'NONE', #170, .T. ) ;
#227 = ORIENTED_EDGE ( 'NONE', *, *, #41, .F. ) ;
#228 = CARTESIAN_POINT ( 'NONE',  ( 4.189777606611760026E-14, -1.510100923786431230E-15, 12.00000000000000000 ) ) ;
#229 = PLANE ( 'NONE',  #42 ) ;
#230 = FACE_OUTER_BOUND ( 'NONE', #142, .T. ) ;
#231 = CIRCLE ( 'NONE', #10, 2.649999999999999911 ) ;
#232 = DIRECTION ( 'NONE',  ( -3.491481338843133355E-15, 1.224646799147353207E-16, -1.000000000000000000 ) ) ;
#233 = FACE_OUTER_BOUND ( 'NONE', #131, .T. ) ;
#234 = DIRECTION ( 'NONE',  ( 0.0000000000000000000, 1.000000000000000000, 0.0000000000000000000 ) ) ;
#235 = AXIS2_PLACEMENT_3D ( 'NONE', #40, #23, #225 ) ;
#236 = EDGE_LOOP ( 'NONE', ( #227 ) ) ;
#237 = PERSON_AND_ORGANIZATION_ROLE ( 'creator' ) ;
#238 = CYLINDRICAL_SURFACE ( 'NONE', #197, 1.999999999999999556 ) ;
#239 = SHAPE_DEFINITION_REPRESENTATION ( #149, #165 ) ;
#240 =( NAMED_UNIT ( * ) SI_UNIT ( $, .STERADIAN. ) SOLID_ANGLE_UNIT ( ) );
#241 = ORIENTED_EDGE ( 'NONE', *, *, #287, .F. ) ;
#242 = AXIS2_PLACEMENT_3D ( 'NONE', #96, #299, #59 ) ;
#243 = COORDINATED_UNIVERSAL_TIME_OFFSET ( 1, 0, .AHEAD. ) ;
#244 = COORDINATED_UNIVERSAL_TIME_OFFSET ( 1, 0, .AHEAD. ) ;
#245 = DIRECTION ( 'NONE',  ( 0.0000000000000000000, 1.000000000000000000, 0.0000000000000000000 ) ) ;
#246 = APPLICATION_CONTEXT ( 'configuration controlled 3d designs of mechanical parts and assemblies' ) ;
#247 = DIRECTION ( 'NONE',  ( -3.491481338843133355E-15, 1.216853575145505482E-16, -1.000000000000000000 ) ) ;
#248 = APPROVAL ( #29, 'UNSPECIFIED' ) ;
#249 = EDGE_CURVE ( 'NONE', #1, #1, #207, .T. ) ;
#250 = EDGE_LOOP ( 'NONE', ( #218 ) ) ;
#251 = AXIS2_PLACEMENT_3D ( 'NONE', #16, #21, #294 ) ;
#252 = CARTESIAN_POINT ( 'NONE',  ( 2.234548056859605347E-13, -7.837739514543060526E-15, 64.00000000000000000 ) ) ;
#253 = FACE_BOUND ( 'NONE', #273, .T. ) ;
#254 = PRODUCT_DEFINITION_FORMATION_WITH_SPECIFIED_SOURCE ( 'ANY', '', #145, .NOT_KNOWN. ) ;
#255 = DIRECTION ( 'NONE',  ( -4.275831445896958607E-31, -1.000000000000000000, -1.224646799147353207E-16 ) ) ;
#256 = CC_DESIGN_SECURITY_CLASSIFICATION ( #60, ( #254 ) ) ;
#257 = DIRECTION ( 'NONE',  ( 0.0000000000000000000, -1.000000000000000000, 0.0000000000000000000 ) ) ;
#258 = DIRECTION ( 'NONE',  ( -4.248621549725082608E-31, -1.000000000000000000, -1.216853575145505482E-16 ) ) ;
#259 = DIRECTION ( 'NONE',  ( -3.491481338843133355E-15, 1.216853575145505482E-16, -1.000000000000000000 ) ) ;
#260 = AXIS2_PLACEMENT_3D ( 'NONE', #178, #259, #279 ) ;
#261 = DIRECTION ( 'NONE',  ( 0.0000000000000000000, 1.000000000000000000, 0.0000000000000000000 ) ) ;
#262 = CARTESIAN_POINT ( 'NONE',  ( 2.137876538271899380E-31, 1.999999999999999112, 6.123121766362532060E-17 ) ) ;
#263 = PERSON ( 'UNSPECIFIED', 'UNSPECIFIED', 'UNSPECIFIED', ('UNSPECIFIED'), ('UNSPECIFIED'), ('UNSPECIFIED') ) ;
#264 = AXIS2_PLACEMENT_3D ( 'NONE', #199, #87, #78 ) ;
#265 = EDGE_LOOP ( 'NONE', ( #13 ) ) ;
#266 = CARTESIAN_POINT ( 'NONE',  ( 0.0000000000000000000, 0.0000000000000000000, 0.0000000000000000000 ) ) ;
#267 = VERTEX_POINT ( 'NONE', #51 ) ;
#268 = EDGE_LOOP ( 'NONE', ( #32 ) ) ;
#269 = EDGE_LOOP ( 'NONE', ( #222 ) ) ;
#270 = VERTEX_POINT ( 'NONE', #8 ) ;
#271 = LOCAL_TIME ( 11, 14, 59.00000000000000000, #19 ) ;
#272 = CALENDAR_DATE ( 2021, 13, 12 ) ;
#273 = EDGE_LOOP ( 'NONE', ( #115 ) ) ;
#274 = ADVANCED_FACE ( 'NONE', ( #202, #300 ), #238, .T. ) ;
#275 = AXIS2_PLACEMENT_3D ( 'NONE', #159, #164, #91 ) ;
#276 = DIRECTION ( 'NONE',  ( -3.491481338843133355E-15, 1.216853575145505482E-16, -1.000000000000000000 ) ) ;
#277 = ORIENTED_EDGE ( 'NONE', *, *, #249, .T. ) ;
#278 = EDGE_CURVE ( 'NONE', #69, #69, #128, .T. ) ;
#279 = DIRECTION ( 'NONE',  ( 0.0000000000000000000, 1.000000000000000000, 0.0000000000000000000 ) ) ;
#280 = CARTESIAN_POINT ( 'NONE',  ( 2.967759138016663352E-14, -1.084202172485504434E-15, 8.500000000000000000 ) ) ;
#281 = EDGE_LOOP ( 'NONE', ( #17 ) ) ;
#282 = DIRECTION ( 'NONE',  ( -3.491481338843133355E-15, 1.216853575145505482E-16, -1.000000000000000000 ) ) ;
#283 = FACE_OUTER_BOUND ( 'NONE', #82, .T. ) ;
#284 = DIRECTION ( 'NONE',  ( -3.491481338843133355E-15, 1.216853575145505482E-16, -1.000000000000000000 ) ) ;
#285 = VERTEX_POINT ( 'NONE', #12 ) ;
#286 = PERSON_AND_ORGANIZATION ( #263, #183 ) ;
#287 = EDGE_CURVE ( 'NONE', #167, #167, #288, .T. ) ;
#288 = CIRCLE ( 'NONE', #242, 3.200000000000001510 ) ;
#289 = DATE_TIME_ROLE ( 'creation_date' ) ;
#290 = CARTESIAN_POINT ( 'NONE',  ( 7.716173758843325346E-14, 3.949999999999998845, 22.10000000000000142 ) ) ;
#291 = AXIS2_PLACEMENT_3D ( 'NONE', #39, #232, #111 ) ;
#292 = EDGE_LOOP ( 'NONE', ( #277 ) ) ;
#293 = ADVANCED_FACE ( 'NONE', ( #86 ), #229, .F. ) ;
#294 = DIRECTION ( 'NONE',  ( 4.248621549725082608E-31, 1.000000000000000000, 1.216853575145505482E-16 ) ) ;
#295 = FACE_OUTER_BOUND ( 'NONE', #236, .T. ) ;
#296 = PERSON_AND_ORGANIZATION ( #263, #183 ) ;
#297 = ADVANCED_FACE ( 'NONE', ( #217 ), #143, .T. ) ;
#298 = CONICAL_SURFACE ( 'NONE', #108, 2.649999999999999911, 0.2094395102393127317 ) ;
#299 = DIRECTION ( 'NONE',  ( -3.491481338843133355E-15, 1.216853575145505482E-16, -1.000000000000000000 ) ) ;
#300 = FACE_OUTER_BOUND ( 'NONE', #292, .T. ) ;
#301 = CARTESIAN_POINT ( 'NONE',  ( 2.206616206148860281E-13, -7.740391228531419575E-15, 63.20000000000000284 ) ) ;
#302 = DATE_AND_TIME ( #104, #271 ) ;
#303 = CARTESIAN_POINT ( 'NONE',  ( 2.967759138016663352E-14, -1.084202172485504434E-15, 8.500000000000000000 ) ) ;
ENDSEC;
END-ISO-10303-21;
