ISO-10303-21;
HEADER;
FILE_DESCRIPTION (( 'STEP AP203' ),
    '1' );
FILE_NAME ('388794.step',
    '2021-12-13T10:14:58',
    ( '' ),
    ( '' ),
    'SwSTEP 2.0',
    'SolidWorks 2019',
    '' );
FILE_SCHEMA (( 'CONFIG_CONTROL_DESIGN' ));
ENDSEC;

DATA;
#1 = EDGE_LOOP ( 'NONE', ( #77 ) ) ;
#2 = AXIS2_PLACEMENT_3D ( 'NONE', #248, #319, #225 ) ;
#3 = EDGE_CURVE ( 'NONE', #212, #212, #310, .T. ) ;
#4 = LOCAL_TIME ( 11, 14, 58.00000000000000000, #263 ) ;
#5 = FACE_OUTER_BOUND ( 'NONE', #173, .T. ) ;
#6 = CARTESIAN_POINT ( 'NONE',  ( 5.726029395702737440E-14, -2.065199614431458659E-15, 16.39999999999999858 ) ) ;
#7 = PLANE ( 'NONE',  #112 ) ;
#8 = DIRECTION ( 'NONE',  ( -3.491481338843133355E-15, 1.224646799147353207E-16, -1.000000000000000000 ) ) ;
#9 = PRODUCT ( '388794', '388794', '', ( #196 ) ) ;
#10 = DIRECTION ( 'NONE',  ( -4.224473325818601193E-31, -1.000000000000000000, -1.209937248932379215E-16 ) ) ;
#11 = CARTESIAN_POINT ( 'NONE',  ( 5.726029395702737440E-14, -2.999999999999997780, 16.39999999999999858 ) ) ;
#12 = CARTESIAN_POINT ( 'NONE',  ( 3.212162831735682687E-14, 1.510025125786759403, 9.199999999999999289 ) ) ;
#13 = CALENDAR_DATE ( 2021, 13, 12 ) ;
#14 = TOROIDAL_SURFACE ( 'NONE', #251, 3.500000000000000888, 2.000000000000000000 ) ;
#15 = ORGANIZATION ( 'UNSPECIFIED', 'UNSPECIFIED', '' ) ;
#16 = EDGE_LOOP ( 'NONE', ( #148 ) ) ;
#17 =( GEOMETRIC_REPRESENTATION_CONTEXT ( 3 ) GLOBAL_UNCERTAINTY_ASSIGNED_CONTEXT ( ( #54 ) ) GLOBAL_UNIT_ASSIGNED_CONTEXT ( ( #266, #42, #287 ) ) REPRESENTATION_CONTEXT ( 'NONE', 'WORKASPACE' ) );
#18 = MANIFOLD_SOLID_BREP ( 'Corps-Déplacer/Copier4[1]', #221 ) ;
#19 = DIRECTION ( 'NONE',  ( 3.491481338843133355E-15, -1.209937248932379215E-16, 1.000000000000000000 ) ) ;
#20 = AXIS2_PLACEMENT_3D ( 'NONE', #234, #236, #153 ) ;
#21 = AXIS2_PLACEMENT_3D ( 'NONE', #120, #147, #94 ) ;
#22 = PERSON_AND_ORGANIZATION_ROLE ( 'design_owner' ) ;
#23 = DIRECTION ( 'NONE',  ( 0.0000000000000000000, 1.000000000000000000, 0.0000000000000000000 ) ) ;
#24 = ORIENTED_EDGE ( 'NONE', *, *, #160, .F. ) ;
#25 = ADVANCED_FACE ( 'NONE', ( #119, #220 ), #140, .T. ) ;
#26 = DIRECTION ( 'NONE',  ( 0.0000000000000000000, -1.000000000000000000, 0.0000000000000000000 ) ) ;
#27 = AXIS2_PLACEMENT_3D ( 'NONE', #12, #279, #158 ) ;
#28 = LOCAL_TIME ( 11, 14, 58.00000000000000000, #101 ) ;
#29 = DESIGN_CONTEXT ( 'detailed design', #265, 'design' ) ;
#30 = FACE_OUTER_BOUND ( 'NONE', #76, .T. ) ;
#31 = PERSON_AND_ORGANIZATION ( #36, #15 ) ;
#32 = ADVANCED_FACE ( 'NONE', ( #5 ), #288, .F. ) ;
#33 = DIRECTION ( 'NONE',  ( 4.275831445896958607E-31, 1.000000000000000000, 1.224646799147353207E-16 ) ) ;
#34 = EDGE_CURVE ( 'NONE', #159, #159, #37, .T. ) ;
#35 = FACE_OUTER_BOUND ( 'NONE', #50, .T. ) ;
#36 = PERSON ( 'UNSPECIFIED', 'UNSPECIFIED', 'UNSPECIFIED', ('UNSPECIFIED'), ('UNSPECIFIED'), ('UNSPECIFIED') ) ;
#37 = CIRCLE ( 'NONE', #316, 1.500000000000000000 ) ;
#38 = DIRECTION ( 'NONE',  ( 0.0000000000000000000, -1.000000000000000000, 0.0000000000000000000 ) ) ;
#39 = CARTESIAN_POINT ( 'NONE',  ( 2.269462870248036681E-14, 1.499999999999999112, 6.500000000000000000 ) ) ;
#40 = FACE_OUTER_BOUND ( 'NONE', #93, .T. ) ;
#41 = PRODUCT_RELATED_PRODUCT_CATEGORY ( 'detail', '', ( #9 ) ) ;
#42 =( NAMED_UNIT ( * ) PLANE_ANGLE_UNIT ( ) SI_UNIT ( $, .RADIAN. ) );
#43 = PERSON_AND_ORGANIZATION ( #36, #15 ) ;
#44 = VERTEX_POINT ( 'NONE', #313 ) ;
#45 = ORIENTED_EDGE ( 'NONE', *, *, #289, .F. ) ;
#46 = ORIENTED_EDGE ( 'NONE', *, *, #318, .T. ) ;
#47 = APPROVAL_STATUS ( 'not_yet_approved' ) ;
#48 = ORIENTED_EDGE ( 'NONE', *, *, #306, .T. ) ;
#49 = PERSON_AND_ORGANIZATION ( #36, #15 ) ;
#50 = EDGE_LOOP ( 'NONE', ( #179 ) ) ;
#51 = VERTEX_POINT ( 'NONE', #11 ) ;
#52 = EDGE_CURVE ( 'NONE', #185, #185, #80, .T. ) ;
#53 = AXIS2_PLACEMENT_3D ( 'NONE', #6, #280, #134 ) ;
#54 = UNCERTAINTY_MEASURE_WITH_UNIT (LENGTH_MEASURE( 1.000000000000000082E-05 ), #266, 'distance_accuracy_value', 'NONE');
#55 = PERSON_AND_ORGANIZATION_ROLE ( 'design_supplier' ) ;
#56 = ORIENTED_EDGE ( 'NONE', *, *, #52, .T. ) ;
#57 = CYLINDRICAL_SURFACE ( 'NONE', #107, 2.999999999999999112 ) ;
#58 = FACE_OUTER_BOUND ( 'NONE', #290, .T. ) ;
#59 = CARTESIAN_POINT ( 'NONE',  ( -5.344693376282581615E-31, 1.874666080230938204E-32, -1.530781023178400224E-16 ) ) ;
#60 = CARTESIAN_POINT ( 'NONE',  ( 3.212162831735682687E-14, -1.510025125786761846, 9.199999999999999289 ) ) ;
#61 = CLOSED_SHELL ( 'NONE', ( #32, #292, #171 ) ) ;
#62 = PLANE ( 'NONE',  #65 ) ;
#63 = CALENDAR_DATE ( 2021, 13, 12 ) ;
#64 = DATE_TIME_ROLE ( 'creation_date' ) ;
#65 = AXIS2_PLACEMENT_3D ( 'NONE', #135, #164, #184 ) ;
#66 = DIRECTION ( 'NONE',  ( 4.275831445896958607E-31, 1.000000000000000000, 1.224646799147353454E-16 ) ) ;
#67 = APPROVAL ( #139, 'UNSPECIFIED' ) ;
#68 = EDGE_LOOP ( 'NONE', ( #142 ) ) ;
#69 = SECURITY_CLASSIFICATION ( '', '', #215 ) ;
#70 = ADVANCED_BREP_SHAPE_REPRESENTATION ( '388794', ( #18, #129, #21 ), #17 ) ;
#71 = FACE_OUTER_BOUND ( 'NONE', #247, .T. ) ;
#72 = EDGE_LOOP ( 'NONE', ( #46 ) ) ;
#73 = DIRECTION ( 'NONE',  ( -4.224473325818601193E-31, -1.000000000000000000, -1.209937248932379215E-16 ) ) ;
#74 = CIRCLE ( 'NONE', #213, 2.950000000000000178 ) ;
#75 = LOCAL_TIME ( 11, 14, 58.00000000000000000, #230 ) ;
#76 = EDGE_LOOP ( 'NONE', ( #296 ) ) ;
#77 = ORIENTED_EDGE ( 'NONE', *, *, #125, .F. ) ;
#78 = PERSON_AND_ORGANIZATION ( #36, #15 ) ;
#79 = FACE_OUTER_BOUND ( 'NONE', #314, .T. ) ;
#80 = CIRCLE ( 'NONE', #131, 1.510025125786760514 ) ;
#81 = APPROVAL ( #178, 'UNSPECIFIED' ) ;
#82 = PERSON_AND_ORGANIZATION ( #36, #15 ) ;
#83 = FACE_OUTER_BOUND ( 'NONE', #91, .T. ) ;
#84 = CARTESIAN_POINT ( 'NONE',  ( 3.212162831735682687E-14, -1.194044795200145348E-15, 9.199999999999999289 ) ) ;
#85 = CARTESIAN_POINT ( 'NONE',  ( 1.920314736363723472E-13, -6.735557395310442615E-15, 55.00000000000000000 ) ) ;
#86 = CC_DESIGN_APPROVAL ( #81, ( #214 ) ) ;
#87 = DIRECTION ( 'NONE',  ( 0.0000000000000000000, -1.000000000000000000, 0.0000000000000000000 ) ) ;
#88 = CARTESIAN_POINT ( 'NONE',  ( 2.269462870248036365E-14, -1.500000000000000888, 6.499999999999999112 ) ) ;
#89 = ADVANCED_FACE ( 'NONE', ( #124, #273 ), #14, .F. ) ;
#90 = VERTEX_POINT ( 'NONE', #244 ) ;
#91 = EDGE_LOOP ( 'NONE', ( #200 ) ) ;
#92 = AXIS2_PLACEMENT_3D ( 'NONE', #208, #181, #108 ) ;
#93 = EDGE_LOOP ( 'NONE', ( #45 ) ) ;
#94 = DIRECTION ( 'NONE',  ( 1.000000000000000000, 0.0000000000000000000, 0.0000000000000000000 ) ) ;
#95 = DIRECTION ( 'NONE',  ( 0.0000000000000000000, -1.000000000000000000, 0.0000000000000000000 ) ) ;
#96 = PERSON_AND_ORGANIZATION ( #36, #15 ) ;
#97 = ORIENTED_EDGE ( 'NONE', *, *, #3, .F. ) ;
#98 = CARTESIAN_POINT ( 'NONE',  ( 3.212162831735682687E-14, -1.194044795200145348E-15, 9.199999999999999289 ) ) ;
#99 = CARTESIAN_POINT ( 'NONE',  ( -2.672346688141290807E-31, 9.373330401154691021E-33, -7.653905115892001119E-17 ) ) ;
#100 = CONICAL_SURFACE ( 'NONE', #262, 2.000000000000000444, 0.2094395102393123986 ) ;
#101 = COORDINATED_UNIVERSAL_TIME_OFFSET ( 1, 0, .AHEAD. ) ;
#102 = DIRECTION ( 'NONE',  ( -4.275831445896958607E-31, -1.000000000000000000, -1.224646799147353207E-16 ) ) ;
#103 = COORDINATED_UNIVERSAL_TIME_OFFSET ( 1, 0, .AHEAD. ) ;
#104 = DIRECTION ( 'NONE',  ( -4.224473325818601193E-31, -1.000000000000000000, -1.209937248932379215E-16 ) ) ;
#105 = CC_DESIGN_PERSON_AND_ORGANIZATION_ASSIGNMENT ( #82, #272, ( #214 ) ) ;
#106 = PLANE ( 'NONE',  #92 ) ;
#107 = AXIS2_PLACEMENT_3D ( 'NONE', #85, #188, #277 ) ;
#108 = DIRECTION ( 'NONE',  ( 4.224473325818601193E-31, 1.000000000000000000, 1.209937248932379215E-16 ) ) ;
#109 = CARTESIAN_POINT ( 'NONE',  ( 2.269462870248036681E-14, 1.499999999999999112, 6.500000000000000000 ) ) ;
#110 = DIRECTION ( 'NONE',  ( 3.491481338843133355E-15, -1.209937248932379215E-16, 1.000000000000000000 ) ) ;
#111 = APPROVAL_DATE_TIME ( #180, #81 ) ;
#112 = AXIS2_PLACEMENT_3D ( 'NONE', #109, #132, #104 ) ;
#113 = ADVANCED_FACE ( 'NONE', ( #177, #197 ), #100, .T. ) ;
#114 = AXIS2_PLACEMENT_3D ( 'NONE', #84, #276, #186 ) ;
#115 = CARTESIAN_POINT ( 'NONE',  ( 3.212162831735682687E-14, -2.000000000000001776, 9.199999999999999289 ) ) ;
#116 = CALENDAR_DATE ( 2021, 13, 12 ) ;
#117 = CC_DESIGN_PERSON_AND_ORGANIZATION_ASSIGNMENT ( #78, #237, ( #264 ) ) ;
#118 = COORDINATED_UNIVERSAL_TIME_OFFSET ( 1, 0, .AHEAD. ) ;
#119 = FACE_BOUND ( 'NONE', #1, .T. ) ;
#120 = CARTESIAN_POINT ( 'NONE',  ( 0.0000000000000000000, 0.0000000000000000000, 0.0000000000000000000 ) ) ;
#121 = AXIS2_PLACEMENT_3D ( 'NONE', #175, #270, #26 ) ;
#122 = CARTESIAN_POINT ( 'NONE',  ( 3.212162831735682687E-14, -1.194044795200145348E-15, 9.199999999999999289 ) ) ;
#123 = APPLICATION_PROTOCOL_DEFINITION ( 'international standard', 'config_control_design', 1994, #265 ) ;
#124 = FACE_OUTER_BOUND ( 'NONE', #242, .T. ) ;
#125 = EDGE_CURVE ( 'NONE', #137, #137, #269, .T. ) ;
#126 = APPROVAL ( #47, 'UNSPECIFIED' ) ;
#127 = APPLICATION_PROTOCOL_DEFINITION ( 'international standard', 'config_control_design', 1994, #192 ) ;
#128 = EDGE_LOOP ( 'NONE', ( #267 ) ) ;
#129 = MANIFOLD_SOLID_BREP ( 'Corps-Déplacer/Copier4[2]', #61 ) ;
#130 = CARTESIAN_POINT ( 'NONE',  ( 1.920314736363723472E-13, -6.735557395310442615E-15, 55.00000000000000000 ) ) ;
#131 = AXIS2_PLACEMENT_3D ( 'NONE', #122, #297, #95 ) ;
#132 = DIRECTION ( 'NONE',  ( 3.491481338843133355E-15, -1.209937248932379215E-16, 1.000000000000000000 ) ) ;
#133 = CARTESIAN_POINT ( 'NONE',  ( 4.772645013909074066E-14, -2.950000000000001510, 13.66939860400468554 ) ) ;
#134 = DIRECTION ( 'NONE',  ( 0.0000000000000000000, -1.000000000000000000, 0.0000000000000000000 ) ) ;
#135 = CARTESIAN_POINT ( 'NONE',  ( 2.269462870248036681E-14, 1.124819836996391837E-32, 6.500000000000000000 ) ) ;
#136 = DIRECTION ( 'NONE',  ( 3.491481338843133355E-15, -1.209937248932379215E-16, 1.000000000000000000 ) ) ;
#137 = VERTEX_POINT ( 'NONE', #312 ) ;
#138 = DIRECTION ( 'NONE',  ( 0.0000000000000000000, -1.000000000000000000, 0.0000000000000000000 ) ) ;
#139 = APPROVAL_STATUS ( 'not_yet_approved' ) ;
#140 = CONICAL_SURFACE ( 'NONE', #2, 3.000000000000002220, 0.7853981633974450594 ) ;
#141 = CC_DESIGN_DATE_AND_TIME_ASSIGNMENT ( #207, #281, ( #69 ) ) ;
#142 = ORIENTED_EDGE ( 'NONE', *, *, #317, .F. ) ;
#143 = DATE_AND_TIME ( #116, #252 ) ;
#144 = ADVANCED_FACE ( 'NONE', ( #71, #172 ), #250, .T. ) ;
#145 = CIRCLE ( 'NONE', #53, 2.999999999999995559 ) ;
#146 = EDGE_CURVE ( 'NONE', #258, #258, #174, .T. ) ;
#147 = DIRECTION ( 'NONE',  ( 0.0000000000000000000, 0.0000000000000000000, 1.000000000000000000 ) ) ;
#148 = ORIENTED_EDGE ( 'NONE', *, *, #160, .T. ) ;
#149 = PERSON_AND_ORGANIZATION ( #36, #15 ) ;
#150 = EDGE_LOOP ( 'NONE', ( #48 ) ) ;
#151 = ORIENTED_EDGE ( 'NONE', *, *, #289, .T. ) ;
#152 = CALENDAR_DATE ( 2021, 13, 12 ) ;
#153 = DIRECTION ( 'NONE',  ( 0.0000000000000000000, -1.000000000000000000, 0.0000000000000000000 ) ) ;
#154 = VERTEX_POINT ( 'NONE', #133 ) ;
#155 = AXIS2_PLACEMENT_3D ( 'NONE', #99, #202, #102 ) ;
#156 = CC_DESIGN_SECURITY_CLASSIFICATION ( #69, ( #214 ) ) ;
#157 = PERSON_AND_ORGANIZATION ( #36, #15 ) ;
#158 = DIRECTION ( 'NONE',  ( -4.224473325818601193E-31, -1.000000000000000000, -1.209937248932379215E-16 ) ) ;
#159 = VERTEX_POINT ( 'NONE', #39 ) ;
#160 = EDGE_CURVE ( 'NONE', #51, #51, #145, .T. ) ;
#161 = PLANE ( 'NONE',  #27 ) ;
#162 = FACE_OUTER_BOUND ( 'NONE', #176, .T. ) ;
#163 = AXIS2_PLACEMENT_3D ( 'NONE', #241, #167, #298 ) ;
#164 = DIRECTION ( 'NONE',  ( 3.491481338843133355E-15, -1.224646799147353207E-16, 1.000000000000000000 ) ) ;
#165 = ORIENTED_EDGE ( 'NONE', *, *, #317, .T. ) ;
#166 = CALENDAR_DATE ( 2021, 13, 12 ) ;
#167 = DIRECTION ( 'NONE',  ( 3.491481338843133355E-15, -1.209937248932379215E-16, 1.000000000000000000 ) ) ;
#168 = SHAPE_DEFINITION_REPRESENTATION ( #233, #70 ) ;
#169 = AXIS2_PLACEMENT_3D ( 'NONE', #209, #110, #138 ) ;
#170 = APPROVAL_PERSON_ORGANIZATION ( #96, #126, #190 ) ;
#171 = ADVANCED_FACE ( 'NONE', ( #259 ), #62, .T. ) ;
#172 = FACE_OUTER_BOUND ( 'NONE', #128, .T. ) ;
#173 = EDGE_LOOP ( 'NONE', ( #165 ) ) ;
#174 = CIRCLE ( 'NONE', #169, 1.500000000000000000 ) ;
#175 = CARTESIAN_POINT ( 'NONE',  ( 1.920314736363723472E-13, -6.735557395310442615E-15, 55.00000000000000000 ) ) ;
#176 = EDGE_LOOP ( 'NONE', ( #268 ) ) ;
#177 = FACE_OUTER_BOUND ( 'NONE', #284, .T. ) ;
#178 = APPROVAL_STATUS ( 'not_yet_approved' ) ;
#179 = ORIENTED_EDGE ( 'NONE', *, *, #34, .T. ) ;
#180 = DATE_AND_TIME ( #166, #75 ) ;
#181 = DIRECTION ( 'NONE',  ( -3.491481338843133355E-15, 1.209937248932379215E-16, -1.000000000000000000 ) ) ;
#182 = CIRCLE ( 'NONE', #163, 3.000000000000002665 ) ;
#183 = EDGE_CURVE ( 'NONE', #154, #154, #193, .T. ) ;
#184 = DIRECTION ( 'NONE',  ( -4.275831445896958607E-31, -1.000000000000000000, -1.224646799147353207E-16 ) ) ;
#185 = VERTEX_POINT ( 'NONE', #60 ) ;
#186 = DIRECTION ( 'NONE',  ( 0.0000000000000000000, -1.000000000000000000, 0.0000000000000000000 ) ) ;
#187 = PLANE ( 'NONE',  #303 ) ;
#188 = DIRECTION ( 'NONE',  ( 3.491481338843133355E-15, -1.209937248932379215E-16, 1.000000000000000000 ) ) ;
#189 = CC_DESIGN_PERSON_AND_ORGANIZATION_ASSIGNMENT ( #149, #22, ( #9 ) ) ;
#190 = APPROVAL_ROLE ( '' ) ;
#191 = DIRECTION ( 'NONE',  ( -3.491481338843133355E-15, 1.224646799147353207E-16, -1.000000000000000000 ) ) ;
#192 = APPLICATION_CONTEXT ( 'configuration controlled 3d designs of mechanical parts and assemblies' ) ;
#193 = CIRCLE ( 'NONE', #20, 2.949999999999999734 ) ;
#194 = AXIS2_PLACEMENT_3D ( 'NONE', #253, #307, #87 ) ;
#195 = EDGE_LOOP ( 'NONE', ( #217 ) ) ;
#196 = MECHANICAL_CONTEXT ( 'NONE', #192, 'mechanical' ) ;
#197 = FACE_BOUND ( 'NONE', #150, .T. ) ;
#198 = ORIENTED_EDGE ( 'NONE', *, *, #183, .T. ) ;
#199 = ORIENTED_EDGE ( 'NONE', *, *, #183, .F. ) ;
#200 = ORIENTED_EDGE ( 'NONE', *, *, #146, .F. ) ;
#201 = CC_DESIGN_PERSON_AND_ORGANIZATION_ASSIGNMENT ( #49, #55, ( #214 ) ) ;
#202 = DIRECTION ( 'NONE',  ( 3.491481338843133355E-15, -1.224646799147353207E-16, 1.000000000000000000 ) ) ;
#203 = ADVANCED_FACE ( 'NONE', ( #305, #311 ), #187, .F. ) ;
#204 = CARTESIAN_POINT ( 'NONE',  ( 2.269462870248036681E-14, -7.960204194457795477E-16, 6.500000000000000000 ) ) ;
#205 = FACE_BOUND ( 'NONE', #228, .T. ) ;
#206 = ADVANCED_FACE ( 'NONE', ( #83 ), #7, .F. ) ;
#207 = DATE_AND_TIME ( #152, #4 ) ;
#208 = CARTESIAN_POINT ( 'NONE',  ( 1.920314736363723472E-13, -6.735557395310442615E-15, 55.00000000000000000 ) ) ;
#209 = CARTESIAN_POINT ( 'NONE',  ( 2.269462870248036365E-14, -8.673617379884027583E-16, 6.499999999999999112 ) ) ;
#210 = DIRECTION ( 'NONE',  ( 3.491481338843133355E-15, -1.209937248932379215E-16, 1.000000000000000000 ) ) ;
#211 = CARTESIAN_POINT ( 'NONE',  ( 5.726029395702737440E-14, 2.999999999999993339, 16.39999999999999858 ) ) ;
#212 = VERTEX_POINT ( 'NONE', #309 ) ;
#213 = AXIS2_PLACEMENT_3D ( 'NONE', #302, #256, #231 ) ;
#214 = PRODUCT_DEFINITION_FORMATION_WITH_SPECIFIED_SOURCE ( 'ANY', '', #9, .NOT_KNOWN. ) ;
#215 = SECURITY_CLASSIFICATION_LEVEL ( 'unclassified' ) ;
#216 = ADVANCED_FACE ( 'NONE', ( #162, #257 ), #57, .T. ) ;
#217 = ORIENTED_EDGE ( 'NONE', *, *, #3, .T. ) ;
#218 = CC_DESIGN_APPROVAL ( #126, ( #264 ) ) ;
#219 = ORIENTED_EDGE ( 'NONE', *, *, #125, .T. ) ;
#220 = FACE_OUTER_BOUND ( 'NONE', #72, .T. ) ;
#221 = CLOSED_SHELL ( 'NONE', ( #144, #89, #239, #113, #235, #203, #216, #25, #293, #206 ) ) ;
#222 = APPROVAL_PERSON_ORGANIZATION ( #31, #81, #299 ) ;
#223 = ORIENTED_EDGE ( 'NONE', *, *, #52, .F. ) ;
#224 = DIRECTION ( 'NONE',  ( 0.0000000000000000000, -1.000000000000000000, 0.0000000000000000000 ) ) ;
#225 = DIRECTION ( 'NONE',  ( 0.0000000000000000000, 1.000000000000000000, 0.0000000000000000000 ) ) ;
#226 = CC_DESIGN_PERSON_AND_ORGANIZATION_ASSIGNMENT ( #157, #282, ( #69 ) ) ;
#227 = AXIS2_PLACEMENT_3D ( 'NONE', #130, #136, #38 ) ;
#228 = EDGE_LOOP ( 'NONE', ( #56 ) ) ;
#229 = CARTESIAN_POINT ( 'NONE',  ( 5.726029395702737440E-14, -2.950000000000002398, 16.39999999999999858 ) ) ;
#230 = COORDINATED_UNIVERSAL_TIME_OFFSET ( 1, 0, .AHEAD. ) ;
#231 = DIRECTION ( 'NONE',  ( 0.0000000000000000000, -1.000000000000000000, 0.0000000000000000000 ) ) ;
#232 = CARTESIAN_POINT ( 'NONE',  ( 0.0000000000000000000, 0.0000000000000000000, 0.0000000000000000000 ) ) ;
#233 = PRODUCT_DEFINITION_SHAPE ( 'NONE', 'NONE',  #264 ) ;
#234 = CARTESIAN_POINT ( 'NONE',  ( 4.772645013909074066E-14, -1.734813980331309703E-15, 13.66939860400468554 ) ) ;
#235 = ADVANCED_FACE ( 'NONE', ( #40, #58 ), #278, .T. ) ;
#236 = DIRECTION ( 'NONE',  ( 3.491481338843133355E-15, -1.209937248932379215E-16, 1.000000000000000000 ) ) ;
#237 = PERSON_AND_ORGANIZATION_ROLE ( 'creator' ) ;
#238 = APPROVAL_ROLE ( '' ) ;
#239 = ADVANCED_FACE ( 'NONE', ( #30, #205 ), #161, .F. ) ;
#240 = VERTEX_POINT ( 'NONE', #115 ) ;
#241 = CARTESIAN_POINT ( 'NONE',  ( 1.899365848330664293E-13, -6.662961160374498590E-15, 54.39999999999999858 ) ) ;
#242 = EDGE_LOOP ( 'NONE', ( #223 ) ) ;
#243 = CC_DESIGN_DATE_AND_TIME_ASSIGNMENT ( #260, #64, ( #264 ) ) ;
#244 = CARTESIAN_POINT ( 'NONE',  ( 1.069053792562852354E-31, 1.499999999999999112, 3.061891755426287241E-17 ) ) ;
#245 = ORIENTED_EDGE ( 'NONE', *, *, #34, .F. ) ;
#246 = CARTESIAN_POINT ( 'NONE',  ( 3.142333204958820020E-14, -1.301042606982605321E-15, 9.000000000000000000 ) ) ;
#247 = EDGE_LOOP ( 'NONE', ( #97 ) ) ;
#248 = CARTESIAN_POINT ( 'NONE',  ( 1.899365848330664293E-13, -6.662961160374498590E-15, 54.39999999999999858 ) ) ;
#249 = EDGE_LOOP ( 'NONE', ( #24 ) ) ;
#250 = CYLINDRICAL_SURFACE ( 'NONE', #227, 1.500000000000000444 ) ;
#251 = AXIS2_PLACEMENT_3D ( 'NONE', #246, #19, #73 ) ;
#252 = LOCAL_TIME ( 11, 14, 58.00000000000000000, #118 ) ;
#253 = CARTESIAN_POINT ( 'NONE',  ( 1.920314736363723472E-13, -6.735557395310442615E-15, 55.00000000000000000 ) ) ;
#254 = VERTEX_POINT ( 'NONE', #229 ) ;
#255 = FACE_OUTER_BOUND ( 'NONE', #68, .T. ) ;
#256 = DIRECTION ( 'NONE',  ( 3.491481338843133355E-15, -1.209937248932379215E-16, 1.000000000000000000 ) ) ;
#257 = FACE_OUTER_BOUND ( 'NONE', #16, .T. ) ;
#258 = VERTEX_POINT ( 'NONE', #88 ) ;
#259 = FACE_OUTER_BOUND ( 'NONE', #261, .T. ) ;
#260 = DATE_AND_TIME ( #13, #28 ) ;
#261 = EDGE_LOOP ( 'NONE', ( #245 ) ) ;
#262 = AXIS2_PLACEMENT_3D ( 'NONE', #98, #291, #271 ) ;
#263 = COORDINATED_UNIVERSAL_TIME_OFFSET ( 1, 0, .AHEAD. ) ;
#264 = PRODUCT_DEFINITION ( 'UNKNOWN', '', #214, #29 ) ;
#265 = APPLICATION_CONTEXT ( 'configuration controlled 3d designs of mechanical parts and assemblies' ) ;
#266 =( LENGTH_UNIT ( ) NAMED_UNIT ( * ) SI_UNIT ( .MILLI., .METRE. ) );
#267 = ORIENTED_EDGE ( 'NONE', *, *, #146, .T. ) ;
#268 = ORIENTED_EDGE ( 'NONE', *, *, #318, .F. ) ;
#269 = CIRCLE ( 'NONE', #121, 2.400000000000003020 ) ;
#270 = DIRECTION ( 'NONE',  ( 3.491481338843133355E-15, -1.209937248932379215E-16, 1.000000000000000000 ) ) ;
#271 = DIRECTION ( 'NONE',  ( 0.0000000000000000000, -1.000000000000000000, 0.0000000000000000000 ) ) ;
#272 = PERSON_AND_ORGANIZATION_ROLE ( 'creator' ) ;
#273 = FACE_OUTER_BOUND ( 'NONE', #195, .T. ) ;
#274 = APPROVAL_DATE_TIME ( #301, #126 ) ;
#275 = CIRCLE ( 'NONE', #114, 2.000000000000000444 ) ;
#276 = DIRECTION ( 'NONE',  ( 3.491481338843133355E-15, -1.209937248932379215E-16, 1.000000000000000000 ) ) ;
#277 = DIRECTION ( 'NONE',  ( 0.0000000000000000000, -1.000000000000000000, 0.0000000000000000000 ) ) ;
#278 = CYLINDRICAL_SURFACE ( 'NONE', #194, 2.950000000000000178 ) ;
#279 = DIRECTION ( 'NONE',  ( 3.491481338843133355E-15, -1.209937248932379215E-16, 1.000000000000000000 ) ) ;
#280 = DIRECTION ( 'NONE',  ( 3.491481338843133355E-15, -1.209937248932379215E-16, 1.000000000000000000 ) ) ;
#281 = DATE_TIME_ROLE ( 'classification_date' ) ;
#282 = PERSON_AND_ORGANIZATION_ROLE ( 'classification_officer' ) ;
#283 = AXIS2_PLACEMENT_3D ( 'NONE', #232, #8, #33 ) ;
#284 = EDGE_LOOP ( 'NONE', ( #199 ) ) ;
#285 = APPROVAL_DATE_TIME ( #143, #67 ) ;
#286 = LOCAL_TIME ( 11, 14, 58.00000000000000000, #103 ) ;
#287 =( NAMED_UNIT ( * ) SI_UNIT ( $, .STERADIAN. ) SOLID_ANGLE_UNIT ( ) );
#288 = PLANE ( 'NONE',  #155 ) ;
#289 = EDGE_CURVE ( 'NONE', #254, #254, #74, .T. ) ;
#290 = EDGE_LOOP ( 'NONE', ( #198 ) ) ;
#291 = DIRECTION ( 'NONE',  ( 3.491481338843133355E-15, -1.209937248932379215E-16, 1.000000000000000000 ) ) ;
#292 = ADVANCED_FACE ( 'NONE', ( #255, #35 ), #308, .T. ) ;
#293 = ADVANCED_FACE ( 'NONE', ( #79 ), #106, .F. ) ;
#294 = CIRCLE ( 'NONE', #320, 1.499999999999999112 ) ;
#295 = APPROVAL_PERSON_ORGANIZATION ( #43, #67, #238 ) ;
#296 = ORIENTED_EDGE ( 'NONE', *, *, #306, .F. ) ;
#297 = DIRECTION ( 'NONE',  ( 3.491481338843133355E-15, -1.209937248932379215E-16, 1.000000000000000000 ) ) ;
#298 = DIRECTION ( 'NONE',  ( 0.0000000000000000000, -1.000000000000000000, 0.0000000000000000000 ) ) ;
#299 = APPROVAL_ROLE ( '' ) ;
#300 = DIRECTION ( 'NONE',  ( -3.491481338843133355E-15, 1.224646799147353207E-16, -1.000000000000000000 ) ) ;
#301 = DATE_AND_TIME ( #63, #286 ) ;
#302 = CARTESIAN_POINT ( 'NONE',  ( 5.726029395702737440E-14, -2.065199614431458659E-15, 16.39999999999999858 ) ) ;
#303 = AXIS2_PLACEMENT_3D ( 'NONE', #211, #210, #10 ) ;
#304 = CC_DESIGN_APPROVAL ( #67, ( #69 ) ) ;
#305 = FACE_OUTER_BOUND ( 'NONE', #249, .T. ) ;
#306 = EDGE_CURVE ( 'NONE', #240, #240, #275, .T. ) ;
#307 = DIRECTION ( 'NONE',  ( 3.491481338843133355E-15, -1.209937248932379215E-16, 1.000000000000000000 ) ) ;
#308 = CYLINDRICAL_SURFACE ( 'NONE', #283, 1.499999999999999556 ) ;
#309 = CARTESIAN_POINT ( 'NONE',  ( 3.142333204958820651E-14, -1.500000000000001776, 9.000000000000001776 ) ) ;
#310 = CIRCLE ( 'NONE', #315, 1.500000000000000666 ) ;
#311 = FACE_BOUND ( 'NONE', #322, .T. ) ;
#312 = CARTESIAN_POINT ( 'NONE',  ( 1.920314736363723472E-13, -2.400000000000009681, 55.00000000000000000 ) ) ;
#313 = CARTESIAN_POINT ( 'NONE',  ( 1.899365848330664293E-13, -3.000000000000009326, 54.39999999999999858 ) ) ;
#314 = EDGE_LOOP ( 'NONE', ( #219 ) ) ;
#315 = AXIS2_PLACEMENT_3D ( 'NONE', #321, #323, #224 ) ;
#316 = AXIS2_PLACEMENT_3D ( 'NONE', #204, #300, #23 ) ;
#317 = EDGE_CURVE ( 'NONE', #90, #90, #294, .T. ) ;
#318 = EDGE_CURVE ( 'NONE', #44, #44, #182, .T. ) ;
#319 = DIRECTION ( 'NONE',  ( -3.491481338843133355E-15, 1.209937248932379215E-16, -1.000000000000000000 ) ) ;
#320 = AXIS2_PLACEMENT_3D ( 'NONE', #59, #191, #66 ) ;
#321 = CARTESIAN_POINT ( 'NONE',  ( 3.142333204958820651E-14, -1.169846050221497932E-15, 9.000000000000001776 ) ) ;
#322 = EDGE_LOOP ( 'NONE', ( #151 ) ) ;
#323 = DIRECTION ( 'NONE',  ( 3.491481338843133355E-15, -1.209937248932379215E-16, 1.000000000000000000 ) ) ;
ENDSEC;
END-ISO-10303-21;
