ISO-10303-21;
HEADER;
FILE_DESCRIPTION (( 'STEP AP203' ),
    '1' );
FILE_NAME ('388793.step',
    '2021-12-13T10:14:57',
    ( '' ),
    ( '' ),
    'SwSTEP 2.0',
    'SolidWorks 2019',
    '' );
FILE_SCHEMA (( 'CONFIG_CONTROL_DESIGN' ));
ENDSEC;

DATA;
#1 = DIRECTION ( 'NONE',  ( 0.0000000000000000000, 1.000000000000000000, 0.0000000000000000000 ) ) ;
#2 = CYLINDRICAL_SURFACE ( 'NONE', #26, 1.249999999999999778 ) ;
#3 = AXIS2_PLACEMENT_3D ( 'NONE', #257, #12, #146 ) ;
#4 = PLANE ( 'NONE',  #106 ) ;
#5 = DIRECTION ( 'NONE',  ( 4.292078779954237141E-31, 1.000000000000000000, 1.229300220569522999E-16 ) ) ;
#6 = CALENDAR_DATE ( 2021, 13, 12 ) ;
#7 = AXIS2_PLACEMENT_3D ( 'NONE', #129, #73, #217 ) ;
#8 = APPLICATION_CONTEXT ( 'configuration controlled 3d designs of mechanical parts and assemblies' ) ;
#9 = PERSON_AND_ORGANIZATION_ROLE ( 'design_owner' ) ;
#10 = APPROVAL_DATE_TIME ( #95, #270 ) ;
#11 = ADVANCED_FACE ( 'NONE', ( #101, #154 ), #186, .T. ) ;
#12 = DIRECTION ( 'NONE',  ( 0.0000000000000000000, 0.0000000000000000000, 1.000000000000000000 ) ) ;
#13 = LOCAL_TIME ( 11, 14, 57.00000000000000000, #96 ) ;
#14 = PERSON_AND_ORGANIZATION ( #98, #262 ) ;
#15 = EDGE_LOOP ( 'NONE', ( #74 ) ) ;
#16 = ADVANCED_FACE ( 'NONE', ( #299, #212 ), #64, .T. ) ;
#17 = CARTESIAN_POINT ( 'NONE',  ( 1.899365848330664293E-13, -6.661799382076269687E-15, 54.39999999999999858 ) ) ;
#18 = CARTESIAN_POINT ( 'NONE',  ( 1.920314736363723472E-13, -6.735557395310441826E-15, 55.00000000000000000 ) ) ;
#19 = FACE_BOUND ( 'NONE', #244, .T. ) ;
#20 = EDGE_CURVE ( 'NONE', #89, #89, #71, .T. ) ;
#21 = PLANE ( 'NONE',  #142 ) ;
#22 = FACE_OUTER_BOUND ( 'NONE', #188, .T. ) ;
#23 = CC_DESIGN_PERSON_AND_ORGANIZATION_ASSIGNMENT ( #49, #9, ( #251 ) ) ;
#24 = DIRECTION ( 'NONE',  ( 0.0000000000000000000, 1.000000000000000000, 0.0000000000000000000 ) ) ;
#25 = CYLINDRICAL_SURFACE ( 'NONE', #112, 1.250000000000000222 ) ;
#26 = AXIS2_PLACEMENT_3D ( 'NONE', #47, #176, #61 ) ;
#27 = DIRECTION ( 'NONE',  ( -3.491481338843133355E-15, 1.224646799147353207E-16, -1.000000000000000000 ) ) ;
#28 = AXIS2_PLACEMENT_3D ( 'NONE', #189, #56, #243 ) ;
#29 = APPROVAL_DATE_TIME ( #144, #301 ) ;
#30 = CARTESIAN_POINT ( 'NONE',  ( 5.607668178315956501E-14, 2.999999999999993339, 16.06099999999999994 ) ) ;
#31 = DATE_AND_TIME ( #168, #256 ) ;
#32 = CARTESIAN_POINT ( 'NONE',  ( 2.478951750578624367E-14, -8.472093387824262614E-16, 7.099999999999999645 ) ) ;
#33 = DIRECTION ( 'NONE',  ( 0.0000000000000000000, -1.000000000000000000, 0.0000000000000000000 ) ) ;
#34 = ORIENTED_EDGE ( 'NONE', *, *, #190, .F. ) ;
#35 = DIRECTION ( 'NONE',  ( 0.0000000000000000000, 1.000000000000000000, 0.0000000000000000000 ) ) ;
#36 = UNCERTAINTY_MEASURE_WITH_UNIT (LENGTH_MEASURE( 1.000000000000000082E-05 ), #123, 'distance_accuracy_value', 'NONE');
#37 = FACE_OUTER_BOUND ( 'NONE', #274, .T. ) ;
#38 = CLOSED_SHELL ( 'NONE', ( #291, #11, #193, #158, #253, #16, #104, #221, #240 ) ) ;
#39 = DIRECTION ( 'NONE',  ( -4.292078779954237141E-31, -1.000000000000000000, -1.229300220569522999E-16 ) ) ;
#40 = DIRECTION ( 'NONE',  ( 0.0000000000000000000, 1.000000000000000000, 0.0000000000000000000 ) ) ;
#41 = FACE_OUTER_BOUND ( 'NONE', #214, .T. ) ;
#42 = COORDINATED_UNIVERSAL_TIME_OFFSET ( 1, 0, .AHEAD. ) ;
#43 = EDGE_CURVE ( 'NONE', #302, #302, #180, .T. ) ;
#44 = CIRCLE ( 'NONE', #237, 1.249999999999999334 ) ;
#45 = CARTESIAN_POINT ( 'NONE',  ( 1.920314736363723345E-14, 1.249999999999999334, 5.500000000000000000 ) ) ;
#46 = DIRECTION ( 'NONE',  ( 0.0000000000000000000, 1.000000000000000000, 0.0000000000000000000 ) ) ;
#47 = CARTESIAN_POINT ( 'NONE',  ( 0.0000000000000000000, 0.0000000000000000000, 0.0000000000000000000 ) ) ;
#48 = ADVANCED_FACE ( 'NONE', ( #150 ), #298, .T. ) ;
#49 = PERSON_AND_ORGANIZATION ( #98, #262 ) ;
#50 = APPROVAL_ROLE ( '' ) ;
#51 = APPROVAL_PERSON_ORGANIZATION ( #100, #225, #90 ) ;
#52 = VERTEX_POINT ( 'NONE', #234 ) ;
#53 = EDGE_LOOP ( 'NONE', ( #185 ) ) ;
#54 = COORDINATED_UNIVERSAL_TIME_OFFSET ( 1, 0, .AHEAD. ) ;
#55 = CIRCLE ( 'NONE', #196, 3.000000000000002665 ) ;
#56 = DIRECTION ( 'NONE',  ( 3.491481338843133355E-15, -1.224646799147353207E-16, 1.000000000000000000 ) ) ;
#57 = CARTESIAN_POINT ( 'NONE',  ( 1.920314736363723472E-13, -6.735557395310442615E-15, 55.00000000000000000 ) ) ;
#58 = ORIENTED_EDGE ( 'NONE', *, *, #20, .F. ) ;
#59 = EDGE_CURVE ( 'NONE', #178, #178, #55, .T. ) ;
#60 = LOCAL_TIME ( 11, 14, 57.00000000000000000, #288 ) ;
#61 = DIRECTION ( 'NONE',  ( 4.275831445896958607E-31, 1.000000000000000000, 1.224646799147353207E-16 ) ) ;
#62 = DIRECTION ( 'NONE',  ( 0.0000000000000000000, 1.000000000000000000, 0.0000000000000000000 ) ) ;
#63 = DATE_AND_TIME ( #135, #272 ) ;
#64 = CONICAL_SURFACE ( 'NONE', #143, 3.000000000000002220, 0.7853981633974450594 ) ;
#65 = CARTESIAN_POINT ( 'NONE',  ( 1.920314736363723345E-14, -6.505213034913026604E-16, 5.500000000000000000 ) ) ;
#66 = FACE_OUTER_BOUND ( 'NONE', #269, .T. ) ;
#67 = AXIS2_PLACEMENT_3D ( 'NONE', #18, #107, #62 ) ;
#68 = ORIENTED_EDGE ( 'NONE', *, *, #287, .F. ) ;
#69 = DATE_TIME_ROLE ( 'creation_date' ) ;
#70 =( NAMED_UNIT ( * ) SI_UNIT ( $, .STERADIAN. ) SOLID_ANGLE_UNIT ( ) );
#71 = CIRCLE ( 'NONE', #153, 1.250000000000000000 ) ;
#72 = PERSON_AND_ORGANIZATION ( #98, #262 ) ;
#73 = DIRECTION ( 'NONE',  ( -3.491481338843133355E-15, 1.229300220569522999E-16, -1.000000000000000000 ) ) ;
#74 = ORIENTED_EDGE ( 'NONE', *, *, #265, .F. ) ;
#75 = CIRCLE ( 'NONE', #206, 2.950000000000000178 ) ;
#76 = DIRECTION ( 'NONE',  ( 0.0000000000000000000, 1.000000000000000000, 0.0000000000000000000 ) ) ;
#77 = PRODUCT_RELATED_PRODUCT_CATEGORY ( 'detail', '', ( #251 ) ) ;
#78 = ORIENTED_EDGE ( 'NONE', *, *, #134, .T. ) ;
#79 = DIRECTION ( 'NONE',  ( -3.491481338843133355E-15, 1.229300220569522999E-16, -1.000000000000000000 ) ) ;
#80 = EDGE_LOOP ( 'NONE', ( #108 ) ) ;
#81 = DIRECTION ( 'NONE',  ( 0.0000000000000000000, 1.000000000000000000, 0.0000000000000000000 ) ) ;
#82 = EDGE_LOOP ( 'NONE', ( #68 ) ) ;
#83 = SECURITY_CLASSIFICATION ( '', '', #235 ) ;
#84 = DIRECTION ( 'NONE',  ( 0.0000000000000000000, 1.000000000000000000, 0.0000000000000000000 ) ) ;
#85 = CARTESIAN_POINT ( 'NONE',  ( 2.478951750578624367E-14, -8.472093387824262614E-16, 7.099999999999999645 ) ) ;
#86 = DIRECTION ( 'NONE',  ( -3.491481338843133355E-15, 1.229300220569522999E-16, -1.000000000000000000 ) ) ;
#87 = FACE_OUTER_BOUND ( 'NONE', #53, .T. ) ;
#88 = CC_DESIGN_PERSON_AND_ORGANIZATION_ASSIGNMENT ( #184, #266, ( #273 ) ) ;
#89 = VERTEX_POINT ( 'NONE', #156 ) ;
#90 = APPROVAL_ROLE ( '' ) ;
#91 = CC_DESIGN_APPROVAL ( #225, ( #83 ) ) ;
#92 = CLOSED_SHELL ( 'NONE', ( #216, #284, #48 ) ) ;
#93 = CARTESIAN_POINT ( 'NONE',  ( 4.655413741504669590E-14, 2.949999999999998845, 13.33363489505916455 ) ) ;
#94 = APPLICATION_CONTEXT ( 'configuration controlled 3d designs of mechanical parts and assemblies' ) ;
#95 = DATE_AND_TIME ( #164, #118 ) ;
#96 = COORDINATED_UNIVERSAL_TIME_OFFSET ( 1, 0, .AHEAD. ) ;
#97 =( GEOMETRIC_REPRESENTATION_CONTEXT ( 3 ) GLOBAL_UNCERTAINTY_ASSIGNED_CONTEXT ( ( #36 ) ) GLOBAL_UNIT_ASSIGNED_CONTEXT ( ( #123, #229, #70 ) ) REPRESENTATION_CONTEXT ( 'NONE', 'WORKASPACE' ) );
#98 = PERSON ( 'UNSPECIFIED', 'UNSPECIFIED', 'UNSPECIFIED', ('UNSPECIFIED'), ('UNSPECIFIED'), ('UNSPECIFIED') ) ;
#99 = ORIENTED_EDGE ( 'NONE', *, *, #43, .F. ) ;
#100 = PERSON_AND_ORGANIZATION ( #98, #262 ) ;
#101 = FACE_OUTER_BOUND ( 'NONE', #218, .T. ) ;
#102 = PRODUCT_DEFINITION_SHAPE ( 'NONE', 'NONE',  #145 ) ;
#103 = FACE_OUTER_BOUND ( 'NONE', #80, .T. ) ;
#104 = ADVANCED_FACE ( 'NONE', ( #103 ), #271, .T. ) ;
#105 = EDGE_LOOP ( 'NONE', ( #99 ) ) ;
#106 = AXIS2_PLACEMENT_3D ( 'NONE', #45, #224, #155 ) ;
#107 = DIRECTION ( 'NONE',  ( -3.491481338843133355E-15, 1.229300220569522999E-16, -1.000000000000000000 ) ) ;
#108 = ORIENTED_EDGE ( 'NONE', *, *, #183, .F. ) ;
#109 = CARTESIAN_POINT ( 'NONE',  ( 2.478951750578624367E-14, -8.472093387824262614E-16, 7.099999999999999645 ) ) ;
#110 = ORIENTED_EDGE ( 'NONE', *, *, #248, .F. ) ;
#111 = CARTESIAN_POINT ( 'NONE',  ( 2.478951750578624367E-14, 1.624999999999999112, 7.099999999999999645 ) ) ;
#112 = AXIS2_PLACEMENT_3D ( 'NONE', #222, #117, #24 ) ;
#113 = CC_DESIGN_PERSON_AND_ORGANIZATION_ASSIGNMENT ( #182, #139, ( #145 ) ) ;
#114 = DIRECTION ( 'NONE',  ( 0.0000000000000000000, 1.000000000000000000, 0.0000000000000000000 ) ) ;
#115 = MANIFOLD_SOLID_BREP ( 'Corps-Déplacer/Copier3[2]', #92 ) ;
#116 = CYLINDRICAL_SURFACE ( 'NONE', #149, 2.999999999999999112 ) ;
#117 = DIRECTION ( 'NONE',  ( -3.491481338843133355E-15, 1.229300220569522999E-16, -1.000000000000000000 ) ) ;
#118 = LOCAL_TIME ( 11, 14, 57.00000000000000000, #208 ) ;
#119 = DIRECTION ( 'NONE',  ( 4.275831445896959482E-31, 1.000000000000000000, 1.224646799147353207E-16 ) ) ;
#120 = DATE_AND_TIME ( #228, #60 ) ;
#121 = CIRCLE ( 'NONE', #282, 2.999999999999995115 ) ;
#122 = APPROVAL_STATUS ( 'not_yet_approved' ) ;
#123 =( LENGTH_UNIT ( ) NAMED_UNIT ( * ) SI_UNIT ( .MILLI., .METRE. ) );
#124 = VERTEX_POINT ( 'NONE', #187 ) ;
#125 = DATE_TIME_ROLE ( 'classification_date' ) ;
#126 = ORIENTED_EDGE ( 'NONE', *, *, #236, .F. ) ;
#127 = ORIENTED_EDGE ( 'NONE', *, *, #248, .T. ) ;
#128 = APPROVAL_PERSON_ORGANIZATION ( #141, #270, #138 ) ;
#129 = CARTESIAN_POINT ( 'NONE',  ( 5.607668178315956501E-14, 2.999999999999993339, 16.06099999999999994 ) ) ;
#130 = DIRECTION ( 'NONE',  ( 0.0000000000000000000, 1.000000000000000000, 0.0000000000000000000 ) ) ;
#131 = DIRECTION ( 'NONE',  ( 0.0000000000000000000, 1.000000000000000000, 0.0000000000000000000 ) ) ;
#132 = FACE_OUTER_BOUND ( 'NONE', #263, .T. ) ;
#133 = CARTESIAN_POINT ( 'NONE',  ( -4.275735514808343277E-31, 1.499726134565473802E-32, -1.224619323391562107E-16 ) ) ;
#134 = EDGE_CURVE ( 'NONE', #162, #162, #249, .T. ) ;
#135 = CALENDAR_DATE ( 2021, 13, 12 ) ;
#136 = FACE_OUTER_BOUND ( 'NONE', #167, .T. ) ;
#137 = APPROVAL_PERSON_ORGANIZATION ( #261, #301, #50 ) ;
#138 = APPROVAL_ROLE ( '' ) ;
#139 = PERSON_AND_ORGANIZATION_ROLE ( 'creator' ) ;
#140 = CC_DESIGN_PERSON_AND_ORGANIZATION_ASSIGNMENT ( #14, #148, ( #273 ) ) ;
#141 = PERSON_AND_ORGANIZATION ( #98, #262 ) ;
#142 = AXIS2_PLACEMENT_3D ( 'NONE', #111, #202, #5 ) ;
#143 = AXIS2_PLACEMENT_3D ( 'NONE', #294, #267, #35 ) ;
#144 = DATE_AND_TIME ( #6, #13 ) ;
#145 = PRODUCT_DEFINITION ( 'UNKNOWN', '', #273, #297 ) ;
#146 = DIRECTION ( 'NONE',  ( 1.000000000000000000, 0.0000000000000000000, 0.0000000000000000000 ) ) ;
#147 = ORIENTED_EDGE ( 'NONE', *, *, #20, .T. ) ;
#148 = PERSON_AND_ORGANIZATION_ROLE ( 'design_supplier' ) ;
#149 = AXIS2_PLACEMENT_3D ( 'NONE', #278, #220, #114 ) ;
#150 = FACE_OUTER_BOUND ( 'NONE', #170, .T. ) ;
#151 = DIRECTION ( 'NONE',  ( -3.491481338843133355E-15, 1.224646799147353207E-16, -1.000000000000000000 ) ) ;
#152 = DIRECTION ( 'NONE',  ( 3.491481338843133355E-15, -1.229300220569522999E-16, 1.000000000000000000 ) ) ;
#153 = AXIS2_PLACEMENT_3D ( 'NONE', #296, #151, #130 ) ;
#154 = FACE_BOUND ( 'NONE', #105, .T. ) ;
#155 = DIRECTION ( 'NONE',  ( 4.292078779954237141E-31, 1.000000000000000000, 1.229300220569522999E-16 ) ) ;
#156 = CARTESIAN_POINT ( 'NONE',  ( 1.920314736363723345E-14, 1.249999999999999334, 5.500000000000000000 ) ) ;
#157 = FACE_OUTER_BOUND ( 'NONE', #276, .T. ) ;
#158 = ADVANCED_FACE ( 'NONE', ( #37, #19 ), #293, .T. ) ;
#159 = CIRCLE ( 'NONE', #227, 1.250000000000000000 ) ;
#160 = DIRECTION ( 'NONE',  ( -3.491481338843133355E-15, 1.229300220569522999E-16, -1.000000000000000000 ) ) ;
#161 = DIRECTION ( 'NONE',  ( -3.491481338843133355E-15, 1.229300220569522999E-16, -1.000000000000000000 ) ) ;
#162 = VERTEX_POINT ( 'NONE', #205 ) ;
#163 = AXIS2_PLACEMENT_3D ( 'NONE', #32, #79, #81 ) ;
#164 = CALENDAR_DATE ( 2021, 13, 12 ) ;
#165 = ORIENTED_EDGE ( 'NONE', *, *, #236, .T. ) ;
#166 = VERTEX_POINT ( 'NONE', #30 ) ;
#167 = EDGE_LOOP ( 'NONE', ( #245 ) ) ;
#168 = CALENDAR_DATE ( 2021, 13, 12 ) ;
#169 = CIRCLE ( 'NONE', #67, 2.400000000000003020 ) ;
#170 = EDGE_LOOP ( 'NONE', ( #58 ) ) ;
#171 = ORIENTED_EDGE ( 'NONE', *, *, #59, .F. ) ;
#172 = CC_DESIGN_APPROVAL ( #301, ( #273 ) ) ;
#173 = DIRECTION ( 'NONE',  ( 0.0000000000000000000, 1.000000000000000000, 0.0000000000000000000 ) ) ;
#174 = CARTESIAN_POINT ( 'NONE',  ( 1.899365848330664293E-13, 2.999999999999996003, 54.39999999999999858 ) ) ;
#175 = CARTESIAN_POINT ( 'NONE',  ( 1.920314736363723345E-14, -6.505213034913026604E-16, 5.500000000000000000 ) ) ;
#176 = DIRECTION ( 'NONE',  ( -3.491481338843133355E-15, 1.224646799147353207E-16, -1.000000000000000000 ) ) ;
#177 = CARTESIAN_POINT ( 'NONE',  ( -2.137867757404171639E-31, 7.498630672827369011E-33, -6.123096616957810535E-17 ) ) ;
#178 = VERTEX_POINT ( 'NONE', #174 ) ;
#179 = VERTEX_POINT ( 'NONE', #255 ) ;
#180 = CIRCLE ( 'NONE', #163, 1.625000000000000000 ) ;
#181 = ORIENTED_EDGE ( 'NONE', *, *, #59, .T. ) ;
#182 = PERSON_AND_ORGANIZATION ( #98, #262 ) ;
#183 = EDGE_CURVE ( 'NONE', #179, #179, #169, .T. ) ;
#184 = PERSON_AND_ORGANIZATION ( #98, #262 ) ;
#185 = ORIENTED_EDGE ( 'NONE', *, *, #265, .T. ) ;
#186 = CONICAL_SURFACE ( 'NONE', #215, 1.625000000000000000, 0.2094395102393127317 ) ;
#187 = CARTESIAN_POINT ( 'NONE',  ( 1.069053792562852354E-31, 1.249999999999999334, 3.061891755426287241E-17 ) ) ;
#188 = EDGE_LOOP ( 'NONE', ( #260 ) ) ;
#189 = CARTESIAN_POINT ( 'NONE',  ( 1.920314736363723345E-14, 9.373498641636600470E-33, 5.500000000000000000 ) ) ;
#190 = EDGE_CURVE ( 'NONE', #124, #124, #44, .T. ) ;
#191 = DIRECTION ( 'NONE',  ( 3.491481338843133355E-15, -1.229300220569522999E-16, 1.000000000000000000 ) ) ;
#192 = DIRECTION ( 'NONE',  ( -3.491481338843133355E-15, 1.229300220569522999E-16, -1.000000000000000000 ) ) ;
#193 = ADVANCED_FACE ( 'NONE', ( #250, #41 ), #198, .T. ) ;
#194 = CARTESIAN_POINT ( 'NONE',  ( 5.607668178315956501E-14, -1.948785266434775801E-15, 16.06099999999999994 ) ) ;
#195 = ORIENTED_EDGE ( 'NONE', *, *, #134, .F. ) ;
#196 = AXIS2_PLACEMENT_3D ( 'NONE', #17, #192, #76 ) ;
#197 = CARTESIAN_POINT ( 'NONE',  ( 4.655413741504669590E-14, -1.613510213927036977E-15, 13.33363489505916455 ) ) ;
#198 = CYLINDRICAL_SURFACE ( 'NONE', #280, 2.950000000000000178 ) ;
#199 = FACE_OUTER_BOUND ( 'NONE', #239, .T. ) ;
#200 = DIRECTION ( 'NONE',  ( -4.275831445896958607E-31, -1.000000000000000000, -1.224646799147353207E-16 ) ) ;
#201 = MANIFOLD_SOLID_BREP ( 'Corps-Déplacer/Copier3[1]', #38 ) ;
#202 = DIRECTION ( 'NONE',  ( -3.491481338843133355E-15, 1.229300220569522999E-16, -1.000000000000000000 ) ) ;
#203 = CC_DESIGN_DATE_AND_TIME_ASSIGNMENT ( #120, #69, ( #145 ) ) ;
#204 = APPROVAL_STATUS ( 'not_yet_approved' ) ;
#205 = CARTESIAN_POINT ( 'NONE',  ( 5.607668178315956501E-14, 2.949999999999998845, 16.06099999999999994 ) ) ;
#206 = AXIS2_PLACEMENT_3D ( 'NONE', #197, #219, #84 ) ;
#207 = CC_DESIGN_PERSON_AND_ORGANIZATION_ASSIGNMENT ( #72, #211, ( #83 ) ) ;
#208 = COORDINATED_UNIVERSAL_TIME_OFFSET ( 1, 0, .AHEAD. ) ;
#209 = ORIENTED_EDGE ( 'NONE', *, *, #183, .T. ) ;
#210 = AXIS2_PLACEMENT_3D ( 'NONE', #194, #241, #173 ) ;
#211 = PERSON_AND_ORGANIZATION_ROLE ( 'classification_officer' ) ;
#212 = FACE_OUTER_BOUND ( 'NONE', #223, .T. ) ;
#213 = EDGE_LOOP ( 'NONE', ( #147 ) ) ;
#214 = EDGE_LOOP ( 'NONE', ( #126 ) ) ;
#215 = AXIS2_PLACEMENT_3D ( 'NONE', #109, #191, #33 ) ;
#216 = ADVANCED_FACE ( 'NONE', ( #22 ), #254, .F. ) ;
#217 = DIRECTION ( 'NONE',  ( 4.292078779954237141E-31, 1.000000000000000000, 1.229300220569522999E-16 ) ) ;
#218 = EDGE_LOOP ( 'NONE', ( #165 ) ) ;
#219 = DIRECTION ( 'NONE',  ( -3.491481338843133355E-15, 1.229300220569522999E-16, -1.000000000000000000 ) ) ;
#220 = DIRECTION ( 'NONE',  ( -3.491481338843133355E-15, 1.229300220569522999E-16, -1.000000000000000000 ) ) ;
#221 = ADVANCED_FACE ( 'NONE', ( #157 ), #4, .T. ) ;
#222 = CARTESIAN_POINT ( 'NONE',  ( 1.920314736363723345E-14, -6.505213034913026604E-16, 5.500000000000000000 ) ) ;
#223 = EDGE_LOOP ( 'NONE', ( #171 ) ) ;
#224 = DIRECTION ( 'NONE',  ( -3.491481338843133355E-15, 1.229300220569522999E-16, -1.000000000000000000 ) ) ;
#225 = APPROVAL ( #292, 'UNSPECIFIED' ) ;
#226 = FACE_BOUND ( 'NONE', #15, .T. ) ;
#227 = AXIS2_PLACEMENT_3D ( 'NONE', #65, #160, #46 ) ;
#228 = CALENDAR_DATE ( 2021, 13, 12 ) ;
#229 =( NAMED_UNIT ( * ) PLANE_ANGLE_UNIT ( ) SI_UNIT ( $, .RADIAN. ) );
#230 = CARTESIAN_POINT ( 'NONE',  ( 1.920314736363723345E-14, 1.249999999999999334, 5.500000000000000000 ) ) ;
#231 = AXIS2_PLACEMENT_3D ( 'NONE', #177, #279, #200 ) ;
#232 = EDGE_LOOP ( 'NONE', ( #209 ) ) ;
#233 = APPLICATION_PROTOCOL_DEFINITION ( 'international standard', 'config_control_design', 1994, #8 ) ;
#234 = CARTESIAN_POINT ( 'NONE',  ( 2.478951750578624367E-14, 1.249999999999999334, 7.099999999999999645 ) ) ;
#235 = SECURITY_CLASSIFICATION_LEVEL ( 'unclassified' ) ;
#236 = EDGE_CURVE ( 'NONE', #289, #289, #75, .T. ) ;
#237 = AXIS2_PLACEMENT_3D ( 'NONE', #133, #27, #119 ) ;
#238 = ADVANCED_BREP_SHAPE_REPRESENTATION ( '388793', ( #201, #115, #3 ), #97 ) ;
#239 = EDGE_LOOP ( 'NONE', ( #34 ) ) ;
#240 = ADVANCED_FACE ( 'NONE', ( #87, #246 ), #25, .T. ) ;
#241 = DIRECTION ( 'NONE',  ( -3.491481338843133355E-15, 1.229300220569522999E-16, -1.000000000000000000 ) ) ;
#242 = AXIS2_PLACEMENT_3D ( 'NONE', #85, #161, #131 ) ;
#243 = DIRECTION ( 'NONE',  ( -4.275831445896958607E-31, -1.000000000000000000, -1.224646799147353207E-16 ) ) ;
#244 = EDGE_LOOP ( 'NONE', ( #195 ) ) ;
#245 = ORIENTED_EDGE ( 'NONE', *, *, #43, .T. ) ;
#246 = FACE_OUTER_BOUND ( 'NONE', #82, .T. ) ;
#247 = CARTESIAN_POINT ( 'NONE',  ( 2.478951750578624367E-14, 1.624999999999999112, 7.099999999999999645 ) ) ;
#248 = EDGE_CURVE ( 'NONE', #166, #166, #121, .T. ) ;
#249 = CIRCLE ( 'NONE', #210, 2.950000000000000622 ) ;
#250 = FACE_OUTER_BOUND ( 'NONE', #300, .T. ) ;
#251 = PRODUCT ( '388793', '388793', '', ( #258 ) ) ;
#252 = FACE_OUTER_BOUND ( 'NONE', #213, .T. ) ;
#253 = ADVANCED_FACE ( 'NONE', ( #132, #66 ), #116, .T. ) ;
#254 = PLANE ( 'NONE',  #231 ) ;
#255 = CARTESIAN_POINT ( 'NONE',  ( 1.920314736363723472E-13, 2.399999999999995914, 55.00000000000000000 ) ) ;
#256 = LOCAL_TIME ( 11, 14, 57.00000000000000000, #54 ) ;
#257 = CARTESIAN_POINT ( 'NONE',  ( 0.0000000000000000000, 0.0000000000000000000, 0.0000000000000000000 ) ) ;
#258 = MECHANICAL_CONTEXT ( 'NONE', #8, 'mechanical' ) ;
#259 = CC_DESIGN_SECURITY_CLASSIFICATION ( #83, ( #273 ) ) ;
#260 = ORIENTED_EDGE ( 'NONE', *, *, #190, .T. ) ;
#261 = PERSON_AND_ORGANIZATION ( #98, #262 ) ;
#262 = ORGANIZATION ( 'UNSPECIFIED', 'UNSPECIFIED', '' ) ;
#263 = EDGE_LOOP ( 'NONE', ( #181 ) ) ;
#264 = VERTEX_POINT ( 'NONE', #230 ) ;
#265 = EDGE_CURVE ( 'NONE', #52, #52, #295, .T. ) ;
#266 = PERSON_AND_ORGANIZATION_ROLE ( 'creator' ) ;
#267 = DIRECTION ( 'NONE',  ( -3.491481338843133355E-15, 1.229300220569522999E-16, -1.000000000000000000 ) ) ;
#268 = AXIS2_PLACEMENT_3D ( 'NONE', #57, #152, #39 ) ;
#269 = EDGE_LOOP ( 'NONE', ( #110 ) ) ;
#270 = APPROVAL ( #122, 'UNSPECIFIED' ) ;
#271 = PLANE ( 'NONE',  #268 ) ;
#272 = LOCAL_TIME ( 11, 14, 57.00000000000000000, #42 ) ;
#273 = PRODUCT_DEFINITION_FORMATION_WITH_SPECIFIED_SOURCE ( 'ANY', '', #251, .NOT_KNOWN. ) ;
#274 = EDGE_LOOP ( 'NONE', ( #127 ) ) ;
#275 = SHAPE_DEFINITION_REPRESENTATION ( #102, #238 ) ;
#276 = EDGE_LOOP ( 'NONE', ( #281 ) ) ;
#277 = CC_DESIGN_DATE_AND_TIME_ASSIGNMENT ( #31, #125, ( #83 ) ) ;
#278 = CARTESIAN_POINT ( 'NONE',  ( 1.920314736363723345E-14, -6.505213034913026604E-16, 5.500000000000000000 ) ) ;
#279 = DIRECTION ( 'NONE',  ( 3.491481338843133355E-15, -1.224646799147353207E-16, 1.000000000000000000 ) ) ;
#280 = AXIS2_PLACEMENT_3D ( 'NONE', #175, #283, #1 ) ;
#281 = ORIENTED_EDGE ( 'NONE', *, *, #287, .T. ) ;
#282 = AXIS2_PLACEMENT_3D ( 'NONE', #285, #86, #40 ) ;
#283 = DIRECTION ( 'NONE',  ( -3.491481338843133355E-15, 1.229300220569522999E-16, -1.000000000000000000 ) ) ;
#284 = ADVANCED_FACE ( 'NONE', ( #199, #252 ), #2, .T. ) ;
#285 = CARTESIAN_POINT ( 'NONE',  ( 5.607668178315956501E-14, -1.948785266434775801E-15, 16.06099999999999994 ) ) ;
#286 = APPLICATION_PROTOCOL_DEFINITION ( 'international standard', 'config_control_design', 1994, #94 ) ;
#287 = EDGE_CURVE ( 'NONE', #264, #264, #159, .T. ) ;
#288 = COORDINATED_UNIVERSAL_TIME_OFFSET ( 1, 0, .AHEAD. ) ;
#289 = VERTEX_POINT ( 'NONE', #93 ) ;
#290 = CC_DESIGN_APPROVAL ( #270, ( #145 ) ) ;
#291 = ADVANCED_FACE ( 'NONE', ( #136, #226 ), #21, .T. ) ;
#292 = APPROVAL_STATUS ( 'not_yet_approved' ) ;
#293 = PLANE ( 'NONE',  #7 ) ;
#294 = CARTESIAN_POINT ( 'NONE',  ( 1.899365848330664293E-13, -6.661799382076269687E-15, 54.39999999999999858 ) ) ;
#295 = CIRCLE ( 'NONE', #242, 1.250000000000000222 ) ;
#296 = CARTESIAN_POINT ( 'NONE',  ( 1.920314736363723345E-14, -6.735557395310442023E-16, 5.500000000000000000 ) ) ;
#297 = DESIGN_CONTEXT ( 'detailed design', #94, 'design' ) ;
#298 = PLANE ( 'NONE',  #28 ) ;
#299 = FACE_BOUND ( 'NONE', #232, .T. ) ;
#300 = EDGE_LOOP ( 'NONE', ( #78 ) ) ;
#301 = APPROVAL ( #204, 'UNSPECIFIED' ) ;
#302 = VERTEX_POINT ( 'NONE', #247 ) ;
#303 = APPROVAL_DATE_TIME ( #63, #225 ) ;
ENDSEC;
END-ISO-10303-21;
