ISO-10303-21;
HEADER;
FILE_DESCRIPTION (( 'STEP AP203' ),
    '1' );
FILE_NAME ('388792.step',
    '2021-12-13T10:14:57',
    ( '' ),
    ( '' ),
    'SwSTEP 2.0',
    'SolidWorks 2019',
    '' );
FILE_SCHEMA (( 'CONFIG_CONTROL_DESIGN' ));
ENDSEC;

DATA;
#1 = AXIS2_PLACEMENT_3D ( 'NONE', #260, #258, #135 ) ;
#2 = SECURITY_CLASSIFICATION ( '', '', #19 ) ;
#3 =( LENGTH_UNIT ( ) NAMED_UNIT ( * ) SI_UNIT ( .MILLI., .METRE. ) );
#4 = MANIFOLD_SOLID_BREP ( 'Corps-Déplacer/Copier1[1]', #240 ) ;
#5 = DIRECTION ( 'NONE',  ( 1.000000000000000000, 0.0000000000000000000, 0.0000000000000000000 ) ) ;
#6 = CARTESIAN_POINT ( 'NONE',  ( 5.481625701983718737E-14, -1.922695474661344271E-15, 15.69999999999999929 ) ) ;
#7 = CARTESIAN_POINT ( 'NONE',  ( 2.094888803305880013E-14, 0.9999999999999993339, 6.000000000000000000 ) ) ;
#8 = EDGE_CURVE ( 'NONE', #31, #31, #336, .T. ) ;
#9 = TOROIDAL_SURFACE ( 'NONE', #310, 3.000000000000000000, 2.000000000000000000 ) ;
#10 = APPROVAL_PERSON_ORGANIZATION ( #65, #136, #269 ) ;
#11 = COORDINATED_UNIVERSAL_TIME_OFFSET ( 1, 0, .AHEAD. ) ;
#12 = CC_DESIGN_PERSON_AND_ORGANIZATION_ASSIGNMENT ( #103, #303, ( #182 ) ) ;
#13 = MANIFOLD_SOLID_BREP ( 'Corps-Déplacer/Copier1[2]', #109 ) ;
#14 = DATE_AND_TIME ( #179, #197 ) ;
#15 = EDGE_CURVE ( 'NONE', #224, #224, #288, .T. ) ;
#16 = EDGE_LOOP ( 'NONE', ( #216 ) ) ;
#17 = FACE_OUTER_BOUND ( 'NONE', #129, .T. ) ;
#18 =( GEOMETRIC_REPRESENTATION_CONTEXT ( 3 ) GLOBAL_UNCERTAINTY_ASSIGNED_CONTEXT ( ( #78 ) ) GLOBAL_UNIT_ASSIGNED_CONTEXT ( ( #3, #219, #64 ) ) REPRESENTATION_CONTEXT ( 'NONE', 'WORKASPACE' ) );
#19 = SECURITY_CLASSIFICATION_LEVEL ( 'unclassified' ) ;
#20 = ORIENTED_EDGE ( 'NONE', *, *, #8, .F. ) ;
#21 = FACE_OUTER_BOUND ( 'NONE', #248, .T. ) ;
#22 = PERSON_AND_ORGANIZATION ( #238, #187 ) ;
#23 = DIRECTION ( 'NONE',  ( 4.275831445896958607E-31, 1.000000000000000000, 1.224646799147353207E-16 ) ) ;
#24 = ORIENTED_EDGE ( 'NONE', *, *, #294, .T. ) ;
#25 = DIRECTION ( 'NONE',  ( 0.0000000000000000000, 1.000000000000000000, 0.0000000000000000000 ) ) ;
#26 = AXIS2_PLACEMENT_3D ( 'NONE', #71, #96, #23 ) ;
#27 = DIRECTION ( 'NONE',  ( 0.0000000000000000000, 1.000000000000000000, 0.0000000000000000000 ) ) ;
#28 = DIRECTION ( 'NONE',  ( 3.491481338843133355E-15, -1.224646799147353207E-16, 1.000000000000000000 ) ) ;
#29 = DIRECTION ( 'NONE',  ( -4.275831445896958607E-31, -1.000000000000000000, -1.224646799147353207E-16 ) ) ;
#30 = CARTESIAN_POINT ( 'NONE',  ( 2.339292497024899664E-14, -8.205133554287266562E-16, 6.700000000000000178 ) ) ;
#31 = VERTEX_POINT ( 'NONE', #168 ) ;
#32 = VERTEX_POINT ( 'NONE', #142 ) ;
#33 = CARTESIAN_POINT ( 'NONE',  ( 1.899365848330664293E-13, 2.999999999999995559, 54.39999999999999858 ) ) ;
#34 = AXIS2_PLACEMENT_3D ( 'NONE', #164, #287, #338 ) ;
#35 = ADVANCED_BREP_SHAPE_REPRESENTATION ( '388792', ( #4, #13, #249 ), #18 ) ;
#36 = CARTESIAN_POINT ( 'NONE',  ( 1.571166602479410010E-14, 0.9999999999999993339, 4.500000000000000000 ) ) ;
#37 = EDGE_CURVE ( 'NONE', #221, #221, #306, .T. ) ;
#38 = CARTESIAN_POINT ( 'NONE',  ( 2.137183397710479182E-32, 0.9999999999999993339, 6.121136532892404794E-18 ) ) ;
#39 = PRODUCT ( '388792', '388792', '', ( #116 ) ) ;
#40 = PERSON_AND_ORGANIZATION ( #238, #187 ) ;
#41 = AXIS2_PLACEMENT_3D ( 'NONE', #312, #60, #25 ) ;
#42 = FACE_OUTER_BOUND ( 'NONE', #117, .T. ) ;
#43 = EDGE_LOOP ( 'NONE', ( #304 ) ) ;
#44 = CYLINDRICAL_SURFACE ( 'NONE', #26, 0.9999999999999995559 ) ;
#45 = CALENDAR_DATE ( 2021, 13, 12 ) ;
#46 = EDGE_LOOP ( 'NONE', ( #55 ) ) ;
#47 = FACE_BOUND ( 'NONE', #76, .T. ) ;
#48 = CC_DESIGN_PERSON_AND_ORGANIZATION_ASSIGNMENT ( #331, #122, ( #86 ) ) ;
#49 = CONICAL_SURFACE ( 'NONE', #314, 2.950000000000000178, 0.2094395102393127317 ) ;
#50 = APPROVAL_STATUS ( 'not_yet_approved' ) ;
#51 = CC_DESIGN_APPROVAL ( #207, ( #2 ) ) ;
#52 = FACE_BOUND ( 'NONE', #307, .T. ) ;
#53 = EDGE_LOOP ( 'NONE', ( #100 ) ) ;
#54 = DIRECTION ( 'NONE',  ( -4.275831445896958607E-31, -1.000000000000000000, -1.224646799147353207E-16 ) ) ;
#55 = ORIENTED_EDGE ( 'NONE', *, *, #201, .T. ) ;
#56 = DIRECTION ( 'NONE',  ( 0.0000000000000000000, 1.000000000000000000, 0.0000000000000000000 ) ) ;
#57 = CARTESIAN_POINT ( 'NONE',  ( 1.920314736363723472E-13, -6.735557395310442615E-15, 55.00000000000000000 ) ) ;
#58 = DIRECTION ( 'NONE',  ( -3.491481338843133355E-15, 1.224646799147353207E-16, -1.000000000000000000 ) ) ;
#59 = PLANE ( 'NONE',  #170 ) ;
#60 = DIRECTION ( 'NONE',  ( -3.491481338843133355E-15, 1.224646799147353207E-16, -1.000000000000000000 ) ) ;
#61 = EDGE_CURVE ( 'NONE', #194, #194, #220, .T. ) ;
#62 = CYLINDRICAL_SURFACE ( 'NONE', #143, 2.950000000000000178 ) ;
#63 = CARTESIAN_POINT ( 'NONE',  ( 4.515754487950944886E-14, 2.949999999999998845, 12.93363489505916597 ) ) ;
#64 =( NAMED_UNIT ( * ) SI_UNIT ( $, .STERADIAN. ) SOLID_ANGLE_UNIT ( ) );
#65 = PERSON_AND_ORGANIZATION ( #238, #187 ) ;
#66 = PERSON_AND_ORGANIZATION_ROLE ( 'design_supplier' ) ;
#67 = AXIS2_PLACEMENT_3D ( 'NONE', #280, #316, #92 ) ;
#68 = CALENDAR_DATE ( 2021, 13, 12 ) ;
#69 = ORIENTED_EDGE ( 'NONE', *, *, #61, .T. ) ;
#70 = ORIENTED_EDGE ( 'NONE', *, *, #61, .F. ) ;
#71 = CARTESIAN_POINT ( 'NONE',  ( 0.0000000000000000000, 0.0000000000000000000, 0.0000000000000000000 ) ) ;
#72 = EDGE_CURVE ( 'NONE', #115, #115, #343, .T. ) ;
#73 = AXIS2_PLACEMENT_3D ( 'NONE', #158, #165, #56 ) ;
#74 = ORIENTED_EDGE ( 'NONE', *, *, #210, .T. ) ;
#75 = CARTESIAN_POINT ( 'NONE',  ( 5.481625701983718737E-14, 4.461785353419020636E-32, 15.69999999999999929 ) ) ;
#76 = EDGE_LOOP ( 'NONE', ( #20 ) ) ;
#77 = FACE_OUTER_BOUND ( 'NONE', #46, .T. ) ;
#78 = UNCERTAINTY_MEASURE_WITH_UNIT (LENGTH_MEASURE( 1.000000000000000082E-05 ), #3, 'distance_accuracy_value', 'NONE');
#79 = DIRECTION ( 'NONE',  ( 0.0000000000000000000, 1.000000000000000000, 0.0000000000000000000 ) ) ;
#80 = DESIGN_CONTEXT ( 'detailed design', #167, 'design' ) ;
#81 = AXIS2_PLACEMENT_3D ( 'NONE', #57, #83, #162 ) ;
#82 = DIRECTION ( 'NONE',  ( 0.0000000000000000000, 1.000000000000000000, 0.0000000000000000000 ) ) ;
#83 = DIRECTION ( 'NONE',  ( -3.491481338843133355E-15, 1.224646799147353207E-16, -1.000000000000000000 ) ) ;
#84 = EDGE_LOOP ( 'NONE', ( #131 ) ) ;
#85 = CARTESIAN_POINT ( 'NONE',  ( 4.515754487950944886E-14, -1.583913457557472169E-15, 12.93363489505916597 ) ) ;
#86 = PRODUCT_DEFINITION_FORMATION_WITH_SPECIFIED_SOURCE ( 'ANY', '', #39, .NOT_KNOWN. ) ;
#87 = VERTEX_POINT ( 'NONE', #112 ) ;
#88 = CARTESIAN_POINT ( 'NONE',  ( 2.094888803305880013E-14, -7.347880794884119736E-16, 6.000000000000000000 ) ) ;
#89 = FACE_OUTER_BOUND ( 'NONE', #276, .T. ) ;
#90 = AXIS2_PLACEMENT_3D ( 'NONE', #85, #291, #267 ) ;
#91 = VERTEX_POINT ( 'NONE', #319 ) ;
#92 = DIRECTION ( 'NONE',  ( 4.275831445896957731E-31, 1.000000000000000000, 1.224646799147353207E-16 ) ) ;
#93 = APPLICATION_CONTEXT ( 'configuration controlled 3d designs of mechanical parts and assemblies' ) ;
#94 = APPROVAL_DATE_TIME ( #273, #207 ) ;
#95 = PRODUCT_DEFINITION_SHAPE ( 'NONE', 'NONE',  #182 ) ;
#96 = DIRECTION ( 'NONE',  ( -3.491481338843133355E-15, 1.224646799147353207E-16, -1.000000000000000000 ) ) ;
#97 = CC_DESIGN_PERSON_AND_ORGANIZATION_ASSIGNMENT ( #293, #265, ( #39 ) ) ;
#98 = PERSON_AND_ORGANIZATION_ROLE ( 'classification_officer' ) ;
#99 = COORDINATED_UNIVERSAL_TIME_OFFSET ( 1, 0, .AHEAD. ) ;
#100 = ORIENTED_EDGE ( 'NONE', *, *, #72, .F. ) ;
#101 = APPROVAL_STATUS ( 'not_yet_approved' ) ;
#102 = ADVANCED_FACE ( 'NONE', ( #204, #333 ), #44, .T. ) ;
#103 = PERSON_AND_ORGANIZATION ( #238, #187 ) ;
#104 = DIRECTION ( 'NONE',  ( -3.491481338843133355E-15, 1.224646799147353207E-16, -1.000000000000000000 ) ) ;
#105 = AXIS2_PLACEMENT_3D ( 'NONE', #239, #342, #110 ) ;
#106 = EDGE_LOOP ( 'NONE', ( #251 ) ) ;
#107 = EDGE_CURVE ( 'NONE', #32, #32, #160, .T. ) ;
#108 = FACE_OUTER_BOUND ( 'NONE', #325, .T. ) ;
#109 = CLOSED_SHELL ( 'NONE', ( #271, #102, #300 ) ) ;
#110 = DIRECTION ( 'NONE',  ( 0.0000000000000000000, -1.000000000000000000, 0.0000000000000000000 ) ) ;
#111 = ADVANCED_FACE ( 'NONE', ( #52, #200 ), #296, .F. ) ;
#112 = CARTESIAN_POINT ( 'NONE',  ( 5.481625701983718737E-14, 2.999999999999993339, 15.69999999999999929 ) ) ;
#113 = CIRCLE ( 'NONE', #73, 3.000000000000002220 ) ;
#114 = LOCAL_TIME ( 11, 14, 57.00000000000000000, #153 ) ;
#115 = VERTEX_POINT ( 'NONE', #7 ) ;
#116 = MECHANICAL_CONTEXT ( 'NONE', #93, 'mechanical' ) ;
#117 = EDGE_LOOP ( 'NONE', ( #74 ) ) ;
#118 = PRODUCT_RELATED_PRODUCT_CATEGORY ( 'detail', '', ( #39 ) ) ;
#119 = AXIS2_PLACEMENT_3D ( 'NONE', #6, #340, #214 ) ;
#120 = DATE_TIME_ROLE ( 'creation_date' ) ;
#121 = ADVANCED_FACE ( 'NONE', ( #21 ), #202, .F. ) ;
#122 = PERSON_AND_ORGANIZATION_ROLE ( 'creator' ) ;
#123 = FACE_OUTER_BOUND ( 'NONE', #53, .T. ) ;
#124 = DATE_AND_TIME ( #45, #236 ) ;
#125 = EDGE_LOOP ( 'NONE', ( #24 ) ) ;
#126 = CARTESIAN_POINT ( 'NONE',  ( 0.0000000000000000000, 0.0000000000000000000, 0.0000000000000000000 ) ) ;
#127 = AXIS2_PLACEMENT_3D ( 'NONE', #175, #130, #272 ) ;
#128 = APPROVAL_DATE_TIME ( #14, #136 ) ;
#129 = EDGE_LOOP ( 'NONE', ( #245 ) ) ;
#130 = DIRECTION ( 'NONE',  ( -3.491481338843133355E-15, 1.224646799147353207E-16, -1.000000000000000000 ) ) ;
#131 = ORIENTED_EDGE ( 'NONE', *, *, #107, .F. ) ;
#132 = CARTESIAN_POINT ( 'NONE',  ( 4.515754487950944886E-14, -1.583913457557472169E-15, 12.93363489505916597 ) ) ;
#133 = ORIENTED_EDGE ( 'NONE', *, *, #223, .T. ) ;
#134 = FACE_OUTER_BOUND ( 'NONE', #184, .T. ) ;
#135 = DIRECTION ( 'NONE',  ( 4.275831445896958607E-31, 1.000000000000000000, 1.224646799147353454E-16 ) ) ;
#136 = APPROVAL ( #101, 'UNSPECIFIED' ) ;
#137 = FACE_BOUND ( 'NONE', #332, .T. ) ;
#138 = ADVANCED_FACE ( 'NONE', ( #42, #123 ), #9, .F. ) ;
#139 = AXIS2_PLACEMENT_3D ( 'NONE', #88, #173, #193 ) ;
#140 = CARTESIAN_POINT ( 'NONE',  ( 2.240072761029381388E-14, 1.043704798532385292, 6.415823381635505918 ) ) ;
#141 = ADVANCED_FACE ( 'NONE', ( #326, #151 ), #49, .T. ) ;
#142 = CARTESIAN_POINT ( 'NONE',  ( 2.339292497024899979E-14, 1.624999999999998890, 6.700000000000001066 ) ) ;
#143 = AXIS2_PLACEMENT_3D ( 'NONE', #144, #192, #222 ) ;
#144 = CARTESIAN_POINT ( 'NONE',  ( 0.0000000000000000000, 0.0000000000000000000, 0.0000000000000000000 ) ) ;
#145 = CARTESIAN_POINT ( 'NONE',  ( 1.571166602479410010E-14, 0.9999999999999993339, 4.500000000000000000 ) ) ;
#146 = ADVANCED_FACE ( 'NONE', ( #156, #17 ), #252, .T. ) ;
#147 = CIRCLE ( 'NONE', #41, 1.000000000000000000 ) ;
#148 = CC_DESIGN_SECURITY_CLASSIFICATION ( #2, ( #86 ) ) ;
#149 = APPROVAL_DATE_TIME ( #275, #289 ) ;
#150 = ORIENTED_EDGE ( 'NONE', *, *, #223, .F. ) ;
#151 = FACE_OUTER_BOUND ( 'NONE', #180, .T. ) ;
#152 = ADVANCED_FACE ( 'NONE', ( #47, #209 ), #305, .F. ) ;
#153 = COORDINATED_UNIVERSAL_TIME_OFFSET ( 1, 0, .AHEAD. ) ;
#154 = EDGE_LOOP ( 'NONE', ( #205 ) ) ;
#155 = AXIS2_PLACEMENT_3D ( 'NONE', #30, #311, #79 ) ;
#156 = FACE_OUTER_BOUND ( 'NONE', #246, .T. ) ;
#157 = ORIENTED_EDGE ( 'NONE', *, *, #15, .F. ) ;
#158 = CARTESIAN_POINT ( 'NONE',  ( 1.899365848330664293E-13, -6.662078587361600895E-15, 54.39999999999999858 ) ) ;
#159 = FACE_OUTER_BOUND ( 'NONE', #213, .T. ) ;
#160 = CIRCLE ( 'NONE', #270, 1.624999999999999778 ) ;
#161 = CC_DESIGN_APPROVAL ( #289, ( #86 ) ) ;
#162 = DIRECTION ( 'NONE',  ( 0.0000000000000000000, 1.000000000000000000, 0.0000000000000000000 ) ) ;
#163 = CYLINDRICAL_SURFACE ( 'NONE', #1, 2.999999999999998668 ) ;
#164 = CARTESIAN_POINT ( 'NONE',  ( 5.481625701983718737E-14, -1.922695474661344271E-15, 15.69999999999999929 ) ) ;
#165 = DIRECTION ( 'NONE',  ( -3.491481338843133355E-15, 1.224646799147353207E-16, -1.000000000000000000 ) ) ;
#166 = LOCAL_TIME ( 11, 14, 57.00000000000000000, #199 ) ;
#167 = APPLICATION_CONTEXT ( 'configuration controlled 3d designs of mechanical parts and assemblies' ) ;
#168 = CARTESIAN_POINT ( 'NONE',  ( 5.481625701983718737E-14, 2.949999999999998845, 15.69999999999999929 ) ) ;
#169 = APPLICATION_PROTOCOL_DEFINITION ( 'international standard', 'config_control_design', 1994, #167 ) ;
#170 = AXIS2_PLACEMENT_3D ( 'NONE', #335, #254, #29 ) ;
#171 = FACE_OUTER_BOUND ( 'NONE', #16, .T. ) ;
#172 = COORDINATED_UNIVERSAL_TIME_OFFSET ( 1, 0, .AHEAD. ) ;
#173 = DIRECTION ( 'NONE',  ( -3.491481338843133355E-15, 1.224646799147353207E-16, -1.000000000000000000 ) ) ;
#174 = DATE_TIME_ROLE ( 'classification_date' ) ;
#175 = CARTESIAN_POINT ( 'NONE',  ( 1.920314736363723472E-13, 1.799711739194220919E-32, 55.00000000000000000 ) ) ;
#176 = CIRCLE ( 'NONE', #211, 1.043704798532386180 ) ;
#177 = APPROVAL_ROLE ( '' ) ;
#178 = DIRECTION ( 'NONE',  ( -3.491481338843133355E-15, 1.224646799147353207E-16, -1.000000000000000000 ) ) ;
#179 = CALENDAR_DATE ( 2021, 13, 12 ) ;
#180 = EDGE_LOOP ( 'NONE', ( #301 ) ) ;
#181 = AXIS2_PLACEMENT_3D ( 'NONE', #185, #339, #82 ) ;
#182 = PRODUCT_DEFINITION ( 'UNKNOWN', '', #86, #80 ) ;
#183 = ORIENTED_EDGE ( 'NONE', *, *, #262, .F. ) ;
#184 = EDGE_LOOP ( 'NONE', ( #133 ) ) ;
#185 = CARTESIAN_POINT ( 'NONE',  ( 1.571166602479410010E-14, -5.510910596163088569E-16, 4.500000000000000000 ) ) ;
#186 = FACE_OUTER_BOUND ( 'NONE', #106, .T. ) ;
#187 = ORGANIZATION ( 'UNSPECIFIED', 'UNSPECIFIED', '' ) ;
#188 = PLANE ( 'NONE',  #318 ) ;
#189 = PLANE ( 'NONE',  #327 ) ;
#190 = AXIS2_PLACEMENT_3D ( 'NONE', #198, #264, #191 ) ;
#191 = DIRECTION ( 'NONE',  ( 0.0000000000000000000, 1.000000000000000000, 0.0000000000000000000 ) ) ;
#192 = DIRECTION ( 'NONE',  ( -3.491481338843133355E-15, 1.224646799147353207E-16, -1.000000000000000000 ) ) ;
#193 = DIRECTION ( 'NONE',  ( 0.0000000000000000000, 1.000000000000000000, 0.0000000000000000000 ) ) ;
#194 = VERTEX_POINT ( 'NONE', #243 ) ;
#195 = APPLICATION_PROTOCOL_DEFINITION ( 'international standard', 'config_control_design', 1994, #93 ) ;
#196 = CIRCLE ( 'NONE', #155, 1.104108403438955222 ) ;
#197 = LOCAL_TIME ( 11, 14, 57.00000000000000000, #99 ) ;
#198 = CARTESIAN_POINT ( 'NONE',  ( 1.920314736363723472E-13, -6.735557395310442615E-15, 55.00000000000000000 ) ) ;
#199 = COORDINATED_UNIVERSAL_TIME_OFFSET ( 1, 0, .AHEAD. ) ;
#200 = FACE_OUTER_BOUND ( 'NONE', #281, .T. ) ;
#201 = EDGE_CURVE ( 'NONE', #315, #315, #113, .T. ) ;
#202 = PLANE ( 'NONE',  #127 ) ;
#203 = CIRCLE ( 'NONE', #34, 2.999999999999995115 ) ;
#204 = FACE_OUTER_BOUND ( 'NONE', #232, .T. ) ;
#205 = ORIENTED_EDGE ( 'NONE', *, *, #15, .T. ) ;
#206 = CARTESIAN_POINT ( 'NONE',  ( 2.339292497024899979E-14, -8.575614248302710741E-32, 6.700000000000001066 ) ) ;
#207 = APPROVAL ( #227, 'UNSPECIFIED' ) ;
#208 = EDGE_LOOP ( 'NONE', ( #334 ) ) ;
#209 = FACE_OUTER_BOUND ( 'NONE', #125, .T. ) ;
#210 = EDGE_CURVE ( 'NONE', #268, #268, #176, .T. ) ;
#211 = AXIS2_PLACEMENT_3D ( 'NONE', #235, #58, #27 ) ;
#212 = APPROVAL_PERSON_ORGANIZATION ( #22, #289, #177 ) ;
#213 = EDGE_LOOP ( 'NONE', ( #278 ) ) ;
#214 = DIRECTION ( 'NONE',  ( 0.0000000000000000000, 1.000000000000000000, 0.0000000000000000000 ) ) ;
#215 = CARTESIAN_POINT ( 'NONE',  ( 1.571166602479410010E-14, 7.498798913309279828E-33, 4.500000000000000000 ) ) ;
#216 = ORIENTED_EDGE ( 'NONE', *, *, #37, .F. ) ;
#217 = ADVANCED_FACE ( 'NONE', ( #159, #77 ), #163, .T. ) ;
#218 = DIRECTION ( 'NONE',  ( -4.275831445896958607E-31, -1.000000000000000000, -1.224646799147353207E-16 ) ) ;
#219 =( NAMED_UNIT ( * ) PLANE_ANGLE_UNIT ( ) SI_UNIT ( $, .RADIAN. ) );
#220 = CIRCLE ( 'NONE', #190, 2.400000000000003020 ) ;
#221 = VERTEX_POINT ( 'NONE', #63 ) ;
#222 = DIRECTION ( 'NONE',  ( 4.275831445896958607E-31, 1.000000000000000000, 1.224646799147353207E-16 ) ) ;
#223 = EDGE_CURVE ( 'NONE', #91, #91, #196, .T. ) ;
#224 = VERTEX_POINT ( 'NONE', #38 ) ;
#225 = AXIS2_PLACEMENT_3D ( 'NONE', #75, #282, #54 ) ;
#226 = CC_DESIGN_PERSON_AND_ORGANIZATION_ASSIGNMENT ( #298, #66, ( #86 ) ) ;
#227 = APPROVAL_STATUS ( 'not_yet_approved' ) ;
#228 = CARTESIAN_POINT ( 'NONE',  ( 2.094888803305880013E-14, -8.673617379884035472E-16, 6.000000000000000000 ) ) ;
#229 = ORIENTED_EDGE ( 'NONE', *, *, #8, .T. ) ;
#230 = DIRECTION ( 'NONE',  ( -4.275831445896958607E-31, -1.000000000000000000, -1.224646799147353207E-16 ) ) ;
#231 = DIRECTION ( 'NONE',  ( 0.0000000000000000000, -1.000000000000000000, 0.0000000000000000000 ) ) ;
#232 = EDGE_LOOP ( 'NONE', ( #157 ) ) ;
#233 = DIRECTION ( 'NONE',  ( 4.382052623509996821E-31, 1.000000000000000000, 1.224646799147353207E-16 ) ) ;
#234 = CALENDAR_DATE ( 2021, 13, 12 ) ;
#235 = CARTESIAN_POINT ( 'NONE',  ( 2.240072761029381388E-14, -7.857117568214668939E-16, 6.415823381635505918 ) ) ;
#236 = LOCAL_TIME ( 11, 14, 57.00000000000000000, #11 ) ;
#237 = DIRECTION ( 'NONE',  ( -4.275831445896958607E-31, -1.000000000000000000, -1.224646799147353207E-16 ) ) ;
#238 = PERSON ( 'UNSPECIFIED', 'UNSPECIFIED', 'UNSPECIFIED', ('UNSPECIFIED'), ('UNSPECIFIED'), ('UNSPECIFIED') ) ;
#239 = CARTESIAN_POINT ( 'NONE',  ( 2.339292497024899664E-14, -8.205133554287266562E-16, 6.700000000000000178 ) ) ;
#240 = CLOSED_SHELL ( 'NONE', ( #250, #146, #138, #290, #111, #141, #341, #152, #217, #320, #121 ) ) ;
#241 = VERTEX_POINT ( 'NONE', #36 ) ;
#242 = CIRCLE ( 'NONE', #181, 1.000000000000000000 ) ;
#243 = CARTESIAN_POINT ( 'NONE',  ( 1.920314736363723472E-13, 2.399999999999995914, 55.00000000000000000 ) ) ;
#244 = CARTESIAN_POINT ( 'NONE',  ( 0.0000000000000000000, 0.0000000000000000000, 0.0000000000000000000 ) ) ;
#245 = ORIENTED_EDGE ( 'NONE', *, *, #72, .T. ) ;
#246 = EDGE_LOOP ( 'NONE', ( #183 ) ) ;
#247 = SHAPE_DEFINITION_REPRESENTATION ( #95, #35 ) ;
#248 = EDGE_LOOP ( 'NONE', ( #70 ) ) ;
#249 = AXIS2_PLACEMENT_3D ( 'NONE', #244, #317, #5 ) ;
#250 = ADVANCED_FACE ( 'NONE', ( #309 ), #188, .F. ) ;
#251 = ORIENTED_EDGE ( 'NONE', *, *, #201, .F. ) ;
#252 = CYLINDRICAL_SURFACE ( 'NONE', #255, 1.000000000000000000 ) ;
#253 = ORIENTED_EDGE ( 'NONE', *, *, #107, .T. ) ;
#254 = DIRECTION ( 'NONE',  ( 3.491481338843133355E-15, -1.224646799147353207E-16, 1.000000000000000000 ) ) ;
#255 = AXIS2_PLACEMENT_3D ( 'NONE', #126, #104, #330 ) ;
#256 = CC_DESIGN_APPROVAL ( #136, ( #182 ) ) ;
#257 = CARTESIAN_POINT ( 'NONE',  ( 1.571166602479410010E-14, 7.498798913309279828E-33, 4.500000000000000000 ) ) ;
#258 = DIRECTION ( 'NONE',  ( -3.491481338843133355E-15, 1.224646799147353207E-16, -1.000000000000000000 ) ) ;
#259 = CC_DESIGN_DATE_AND_TIME_ASSIGNMENT ( #328, #174, ( #2 ) ) ;
#260 = CARTESIAN_POINT ( 'NONE',  ( 0.0000000000000000000, 0.0000000000000000000, 0.0000000000000000000 ) ) ;
#261 = CONICAL_SURFACE ( 'NONE', #105, 1.104108403438955222, 0.2094395102393124264 ) ;
#262 = EDGE_CURVE ( 'NONE', #241, #241, #242, .T. ) ;
#263 = CC_DESIGN_PERSON_AND_ORGANIZATION_ASSIGNMENT ( #40, #98, ( #2 ) ) ;
#264 = DIRECTION ( 'NONE',  ( -3.491481338843133355E-15, 1.224646799147353207E-16, -1.000000000000000000 ) ) ;
#265 = PERSON_AND_ORGANIZATION_ROLE ( 'design_owner' ) ;
#266 = CONICAL_SURFACE ( 'NONE', #81, 2.400000000000003020, 0.7853981633974450594 ) ;
#267 = DIRECTION ( 'NONE',  ( 0.0000000000000000000, 1.000000000000000000, 0.0000000000000000000 ) ) ;
#268 = VERTEX_POINT ( 'NONE', #140 ) ;
#269 = APPROVAL_ROLE ( '' ) ;
#270 = AXIS2_PLACEMENT_3D ( 'NONE', #274, #178, #277 ) ;
#271 = ADVANCED_FACE ( 'NONE', ( #286 ), #59, .F. ) ;
#272 = DIRECTION ( 'NONE',  ( 4.275831445896958607E-31, 1.000000000000000000, 1.224646799147353207E-16 ) ) ;
#273 = DATE_AND_TIME ( #234, #114 ) ;
#274 = CARTESIAN_POINT ( 'NONE',  ( 2.339292497024899979E-14, -8.205133554287267548E-16, 6.700000000000001066 ) ) ;
#275 = DATE_AND_TIME ( #324, #279 ) ;
#276 = EDGE_LOOP ( 'NONE', ( #229 ) ) ;
#277 = DIRECTION ( 'NONE',  ( 0.0000000000000000000, 1.000000000000000000, 0.0000000000000000000 ) ) ;
#278 = ORIENTED_EDGE ( 'NONE', *, *, #294, .F. ) ;
#279 = LOCAL_TIME ( 11, 14, 57.00000000000000000, #172 ) ;
#280 = CARTESIAN_POINT ( 'NONE',  ( -4.062113106125907377E-31, 1.424797480040350551E-32, -1.163435433818428420E-16 ) ) ;
#281 = EDGE_LOOP ( 'NONE', ( #253 ) ) ;
#282 = DIRECTION ( 'NONE',  ( 3.491481338843133355E-15, -1.224646799147353207E-16, 1.000000000000000000 ) ) ;
#283 = FACE_BOUND ( 'NONE', #329, .T. ) ;
#284 = APPROVAL_PERSON_ORGANIZATION ( #295, #207, #321 ) ;
#285 = ORIENTED_EDGE ( 'NONE', *, *, #210, .F. ) ;
#286 = FACE_OUTER_BOUND ( 'NONE', #154, .T. ) ;
#287 = DIRECTION ( 'NONE',  ( -3.491481338843133355E-15, 1.224646799147353207E-16, -1.000000000000000000 ) ) ;
#288 = CIRCLE ( 'NONE', #67, 0.9999999999999993339 ) ;
#289 = APPROVAL ( #50, 'UNSPECIFIED' ) ;
#290 = ADVANCED_FACE ( 'NONE', ( #137, #134 ), #261, .T. ) ;
#291 = DIRECTION ( 'NONE',  ( -3.491481338843133355E-15, 1.224646799147353207E-16, -1.000000000000000000 ) ) ;
#292 = AXIS2_PLACEMENT_3D ( 'NONE', #206, #297, #230 ) ;
#293 = PERSON_AND_ORGANIZATION ( #238, #187 ) ;
#294 = EDGE_CURVE ( 'NONE', #87, #87, #203, .T. ) ;
#295 = PERSON_AND_ORGANIZATION ( #238, #187 ) ;
#296 = PLANE ( 'NONE',  #292 ) ;
#297 = DIRECTION ( 'NONE',  ( 3.491481338843133355E-15, -1.224646799147353207E-16, 1.000000000000000000 ) ) ;
#298 = PERSON_AND_ORGANIZATION ( #238, #187 ) ;
#299 = ORIENTED_EDGE ( 'NONE', *, *, #337, .F. ) ;
#300 = ADVANCED_FACE ( 'NONE', ( #108 ), #189, .T. ) ;
#301 = ORIENTED_EDGE ( 'NONE', *, *, #37, .T. ) ;
#302 = DIRECTION ( 'NONE',  ( 3.491481338843133355E-15, -1.224646799147353207E-16, 1.000000000000000000 ) ) ;
#303 = PERSON_AND_ORGANIZATION_ROLE ( 'creator' ) ;
#304 = ORIENTED_EDGE ( 'NONE', *, *, #262, .T. ) ;
#305 = PLANE ( 'NONE',  #225 ) ;
#306 = CIRCLE ( 'NONE', #90, 2.950000000000000178 ) ;
#307 = EDGE_LOOP ( 'NONE', ( #150 ) ) ;
#308 = DIRECTION ( 'NONE',  ( 3.491481338843133355E-15, -1.224646799147353207E-16, 1.000000000000000000 ) ) ;
#309 = FACE_OUTER_BOUND ( 'NONE', #43, .T. ) ;
#310 = AXIS2_PLACEMENT_3D ( 'NONE', #228, #322, #233 ) ;
#311 = DIRECTION ( 'NONE',  ( -3.491481338843133355E-15, 1.224646799147353207E-16, -1.000000000000000000 ) ) ;
#312 = CARTESIAN_POINT ( 'NONE',  ( 1.571166602479410010E-14, -5.510910596163088569E-16, 4.500000000000000000 ) ) ;
#313 = VERTEX_POINT ( 'NONE', #145 ) ;
#314 = AXIS2_PLACEMENT_3D ( 'NONE', #132, #302, #231 ) ;
#315 = VERTEX_POINT ( 'NONE', #33 ) ;
#316 = DIRECTION ( 'NONE',  ( -3.491481338843133355E-15, 1.224646799147353207E-16, -1.000000000000000000 ) ) ;
#317 = DIRECTION ( 'NONE',  ( 0.0000000000000000000, 0.0000000000000000000, 1.000000000000000000 ) ) ;
#318 = AXIS2_PLACEMENT_3D ( 'NONE', #215, #308, #237 ) ;
#319 = CARTESIAN_POINT ( 'NONE',  ( 2.339292497024899664E-14, 1.104108403438954333, 6.700000000000000178 ) ) ;
#320 = ADVANCED_FACE ( 'NONE', ( #186, #283 ), #266, .T. ) ;
#321 = APPROVAL_ROLE ( '' ) ;
#322 = DIRECTION ( 'NONE',  ( -3.491481338843133355E-15, 1.224646799147353207E-16, -1.000000000000000000 ) ) ;
#323 = CC_DESIGN_DATE_AND_TIME_ASSIGNMENT ( #124, #120, ( #182 ) ) ;
#324 = CALENDAR_DATE ( 2021, 13, 12 ) ;
#325 = EDGE_LOOP ( 'NONE', ( #299 ) ) ;
#326 = FACE_BOUND ( 'NONE', #84, .T. ) ;
#327 = AXIS2_PLACEMENT_3D ( 'NONE', #257, #28, #218 ) ;
#328 = DATE_AND_TIME ( #68, #166 ) ;
#329 = EDGE_LOOP ( 'NONE', ( #69 ) ) ;
#330 = DIRECTION ( 'NONE',  ( 4.275831445896958607E-31, 1.000000000000000000, 1.224646799147353207E-16 ) ) ;
#331 = PERSON_AND_ORGANIZATION ( #238, #187 ) ;
#332 = EDGE_LOOP ( 'NONE', ( #285 ) ) ;
#333 = FACE_OUTER_BOUND ( 'NONE', #208, .T. ) ;
#334 = ORIENTED_EDGE ( 'NONE', *, *, #337, .T. ) ;
#335 = CARTESIAN_POINT ( 'NONE',  ( -2.031056553062953688E-31, 7.123987400201752754E-33, -5.817177169092142098E-17 ) ) ;
#336 = CIRCLE ( 'NONE', #119, 2.950000000000000178 ) ;
#337 = EDGE_CURVE ( 'NONE', #313, #313, #147, .T. ) ;
#338 = DIRECTION ( 'NONE',  ( 0.0000000000000000000, 1.000000000000000000, 0.0000000000000000000 ) ) ;
#339 = DIRECTION ( 'NONE',  ( -3.491481338843133355E-15, 1.224646799147353207E-16, -1.000000000000000000 ) ) ;
#340 = DIRECTION ( 'NONE',  ( -3.491481338843133355E-15, 1.224646799147353207E-16, -1.000000000000000000 ) ) ;
#341 = ADVANCED_FACE ( 'NONE', ( #171, #89 ), #62, .T. ) ;
#342 = DIRECTION ( 'NONE',  ( 3.491481338843133355E-15, -1.224646799147353207E-16, 1.000000000000000000 ) ) ;
#343 = CIRCLE ( 'NONE', #139, 1.000000000000000000 ) ;
ENDSEC;
END-ISO-10303-21;
