ISO-10303-21;
HEADER;
FILE_DESCRIPTION (( 'STEP AP203' ),
    '1' );
FILE_NAME ('388791.step',
    '2021-12-13T10:14:56',
    ( '' ),
    ( '' ),
    'SwSTEP 2.0',
    'SolidWorks 2019',
    '' );
FILE_SCHEMA (( 'CONFIG_CONTROL_DESIGN' ));
ENDSEC;

DATA;
#1 = ORIENTED_EDGE ( 'NONE', *, *, #199, .T. ) ;
#2 = DIRECTION ( 'NONE',  ( -3.491481338843133355E-15, 1.224646799147353207E-16, -1.000000000000000000 ) ) ;
#3 = CIRCLE ( 'NONE', #201, 0.9499999999999994005 ) ;
#4 = DIRECTION ( 'NONE',  ( 0.0000000000000000000, 1.000000000000000000, 0.0000000000000000000 ) ) ;
#5 = DIRECTION ( 'NONE',  ( 3.491481338843133355E-15, -1.224646799147353207E-16, 1.000000000000000000 ) ) ;
#6 =( NAMED_UNIT ( * ) PLANE_ANGLE_UNIT ( ) SI_UNIT ( $, .RADIAN. ) );
#7 = DIRECTION ( 'NONE',  ( -3.491481338843133355E-15, 1.224646799147353207E-16, -1.000000000000000000 ) ) ;
#8 = AXIS2_PLACEMENT_3D ( 'NONE', #135, #108, #30 ) ;
#9 = CYLINDRICAL_SURFACE ( 'NONE', #233, 2.950000000000000178 ) ;
#10 = CC_DESIGN_DATE_AND_TIME_ASSIGNMENT ( #280, #314, ( #182 ) ) ;
#11 = VERTEX_POINT ( 'NONE', #121 ) ;
#12 = CALENDAR_DATE ( 2021, 13, 12 ) ;
#13 = CIRCLE ( 'NONE', #71, 0.9499999999999998446 ) ;
#14 = ADVANCED_FACE ( 'NONE', ( #25, #212 ), #319, .T. ) ;
#15 = CARTESIAN_POINT ( 'NONE',  ( 2.339292497024899348E-14, 1.117875371939954121, 6.699999999999999289 ) ) ;
#16 = DATE_AND_TIME ( #262, #301 ) ;
#17 = APPLICATION_PROTOCOL_DEFINITION ( 'international standard', 'config_control_design', 1994, #277 ) ;
#18 = CARTESIAN_POINT ( 'NONE',  ( 1.396592535537253342E-14, -4.898587196589412829E-16, 4.000000000000000000 ) ) ;
#19 = DATE_TIME_ROLE ( 'classification_date' ) ;
#20 = EDGE_LOOP ( 'NONE', ( #192 ) ) ;
#21 = AXIS2_PLACEMENT_3D ( 'NONE', #62, #163, #325 ) ;
#22 = CC_DESIGN_APPROVAL ( #191, ( #255 ) ) ;
#23 = PERSON_AND_ORGANIZATION ( #72, #290 ) ;
#24 = ORIENTED_EDGE ( 'NONE', *, *, #175, .T. ) ;
#25 = FACE_OUTER_BOUND ( 'NONE', #20, .T. ) ;
#26 = ADVANCED_FACE ( 'NONE', ( #315 ), #183, .F. ) ;
#27 = EDGE_LOOP ( 'NONE', ( #269 ) ) ;
#28 = AXIS2_PLACEMENT_3D ( 'NONE', #246, #328, #142 ) ;
#29 = LOCAL_TIME ( 11, 14, 56.00000000000000000, #230 ) ;
#30 = DIRECTION ( 'NONE',  ( 0.0000000000000000000, 1.000000000000000000, 0.0000000000000000000 ) ) ;
#31 = ORIENTED_EDGE ( 'NONE', *, *, #295, .F. ) ;
#32 = CC_DESIGN_PERSON_AND_ORGANIZATION_ASSIGNMENT ( #283, #232, ( #255 ) ) ;
#33 = CYLINDRICAL_SURFACE ( 'NONE', #59, 0.9499999999999996225 ) ;
#34 = AXIS2_PLACEMENT_3D ( 'NONE', #229, #152, #330 ) ;
#35 = DIRECTION ( 'NONE',  ( 4.275831445896958607E-31, 1.000000000000000000, 1.224646799147353207E-16 ) ) ;
#36 = DIRECTION ( 'NONE',  ( 4.275831445896958607E-31, 1.000000000000000000, 1.224646799147353454E-16 ) ) ;
#37 = DIRECTION ( 'NONE',  ( 0.0000000000000000000, 1.000000000000000000, 0.0000000000000000000 ) ) ;
#38 = CIRCLE ( 'NONE', #144, 2.950000000000000178 ) ;
#39 = DIRECTION ( 'NONE',  ( 0.0000000000000000000, 1.000000000000000000, 0.0000000000000000000 ) ) ;
#40 = CARTESIAN_POINT ( 'NONE',  ( 5.481625701983718737E-14, 2.999999999999993339, 15.69999999999999929 ) ) ;
#41 = CALENDAR_DATE ( 2021, 13, 12 ) ;
#42 = EDGE_CURVE ( 'NONE', #334, #334, #111, .T. ) ;
#43 = CARTESIAN_POINT ( 'NONE',  ( 5.481625701983718737E-14, 2.949999999999998845, 15.69999999999999929 ) ) ;
#44 = DIRECTION ( 'NONE',  ( 1.000000000000000000, 0.0000000000000000000, 0.0000000000000000000 ) ) ;
#45 = DESIGN_CONTEXT ( 'detailed design', #321, 'design' ) ;
#46 = APPROVAL_DATE_TIME ( #236, #191 ) ;
#47 = VERTEX_POINT ( 'NONE', #126 ) ;
#48 = PERSON_AND_ORGANIZATION ( #72, #290 ) ;
#49 = ORIENTED_EDGE ( 'NONE', *, *, #161, .F. ) ;
#50 = VERTEX_POINT ( 'NONE', #15 ) ;
#51 = ADVANCED_FACE ( 'NONE', ( #189, #210 ), #266, .F. ) ;
#52 = PERSON_AND_ORGANIZATION ( #72, #290 ) ;
#53 = CIRCLE ( 'NONE', #34, 2.999999999999995115 ) ;
#54 = EDGE_LOOP ( 'NONE', ( #215 ) ) ;
#55 = FACE_OUTER_BOUND ( 'NONE', #134, .T. ) ;
#56 = EDGE_CURVE ( 'NONE', #285, #285, #96, .T. ) ;
#57 = FACE_OUTER_BOUND ( 'NONE', #94, .T. ) ;
#58 = EDGE_LOOP ( 'NONE', ( #204 ) ) ;
#59 = AXIS2_PLACEMENT_3D ( 'NONE', #139, #116, #35 ) ;
#60 = DIRECTION ( 'NONE',  ( -3.491481338843133355E-15, 1.224646799147353207E-16, -1.000000000000000000 ) ) ;
#61 = APPROVAL ( #177, 'UNSPECIFIED' ) ;
#62 = CARTESIAN_POINT ( 'NONE',  ( 1.990144363140586328E-14, -8.673617379884035472E-16, 5.700000000000000178 ) ) ;
#63 = CARTESIAN_POINT ( 'NONE',  ( 1.920314736363723472E-13, 1.799711739194220919E-32, 55.00000000000000000 ) ) ;
#64 = DIRECTION ( 'NONE',  ( -3.491481338843133355E-15, 1.224646799147353207E-16, -1.000000000000000000 ) ) ;
#65 = DIRECTION ( 'NONE',  ( 0.0000000000000000000, 1.000000000000000000, 0.0000000000000000000 ) ) ;
#66 = PLANE ( 'NONE',  #310 ) ;
#67 = CARTESIAN_POINT ( 'NONE',  ( -1.924160766915530117E-31, 6.749047454536289720E-33, -5.511015469305303858E-17 ) ) ;
#68 = COORDINATED_UNIVERSAL_TIME_OFFSET ( 1, 0, .AHEAD. ) ;
#69 = FACE_OUTER_BOUND ( 'NONE', #292, .T. ) ;
#70 = CALENDAR_DATE ( 2021, 13, 12 ) ;
#71 = AXIS2_PLACEMENT_3D ( 'NONE', #300, #7, #37 ) ;
#72 = PERSON ( 'UNSPECIFIED', 'UNSPECIFIED', 'UNSPECIFIED', ('UNSPECIFIED'), ('UNSPECIFIED'), ('UNSPECIFIED') ) ;
#73 = DIRECTION ( 'NONE',  ( -3.491481338843133355E-15, 1.224646799147353207E-16, -1.000000000000000000 ) ) ;
#74 = EDGE_LOOP ( 'NONE', ( #49 ) ) ;
#75 = PERSON_AND_ORGANIZATION_ROLE ( 'design_owner' ) ;
#76 = CC_DESIGN_PERSON_AND_ORGANIZATION_ASSIGNMENT ( #23, #287, ( #182 ) ) ;
#77 = CARTESIAN_POINT ( 'NONE',  ( 4.515754487950944886E-14, 2.949999999999998845, 12.93363489505916597 ) ) ;
#78 = SECURITY_CLASSIFICATION_LEVEL ( 'unclassified' ) ;
#79 = UNCERTAINTY_MEASURE_WITH_UNIT (LENGTH_MEASURE( 1.000000000000000082E-05 ), #211, 'distance_accuracy_value', 'NONE');
#80 = EDGE_LOOP ( 'NONE', ( #107 ) ) ;
#81 = AXIS2_PLACEMENT_3D ( 'NONE', #296, #60, #243 ) ;
#82 = DIRECTION ( 'NONE',  ( 3.491481338843133355E-15, -1.224646799147353207E-16, 1.000000000000000000 ) ) ;
#83 = EDGE_LOOP ( 'NONE', ( #322 ) ) ;
#84 = DIRECTION ( 'NONE',  ( 3.491481338843133355E-15, -1.224646799147353207E-16, 1.000000000000000000 ) ) ;
#85 = ORIENTED_EDGE ( 'NONE', *, *, #238, .T. ) ;
#86 = CONICAL_SURFACE ( 'NONE', #342, 1.117875371939955009, 0.2094395102393055708 ) ;
#87 = DIRECTION ( 'NONE',  ( -3.491481338843133355E-15, 1.224646799147353207E-16, -1.000000000000000000 ) ) ;
#88 = FACE_OUTER_BOUND ( 'NONE', #338, .T. ) ;
#89 = FACE_OUTER_BOUND ( 'NONE', #80, .T. ) ;
#90 = FACE_BOUND ( 'NONE', #239, .T. ) ;
#91 = ADVANCED_FACE ( 'NONE', ( #343, #55 ), #188, .T. ) ;
#92 = CARTESIAN_POINT ( 'NONE',  ( 2.339292497024899979E-14, -8.205133554287267548E-16, 6.700000000000001066 ) ) ;
#93 = DIRECTION ( 'NONE',  ( 0.0000000000000000000, -1.000000000000000000, 0.0000000000000000000 ) ) ;
#94 = EDGE_LOOP ( 'NONE', ( #105 ) ) ;
#95 = CC_DESIGN_PERSON_AND_ORGANIZATION_ASSIGNMENT ( #52, #205, ( #173 ) ) ;
#96 = CIRCLE ( 'NONE', #81, 2.400000000000003020 ) ;
#97 = LOCAL_TIME ( 11, 14, 56.00000000000000000, #150 ) ;
#98 = DIRECTION ( 'NONE',  ( -3.491481338843133355E-15, 1.224646799147353207E-16, -1.000000000000000000 ) ) ;
#99 = PERSON_AND_ORGANIZATION_ROLE ( 'creator' ) ;
#100 = ADVANCED_FACE ( 'NONE', ( #57, #187 ), #155, .T. ) ;
#101 = AXIS2_PLACEMENT_3D ( 'NONE', #198, #2, #143 ) ;
#102 = VERTEX_POINT ( 'NONE', #254 ) ;
#103 = APPROVAL_ROLE ( '' ) ;
#104 = CARTESIAN_POINT ( 'NONE',  ( 4.515754487950944886E-14, -1.583913457557472169E-15, 12.93363489505916597 ) ) ;
#105 = ORIENTED_EDGE ( 'NONE', *, *, #175, .F. ) ;
#106 = EDGE_LOOP ( 'NONE', ( #289 ) ) ;
#107 = ORIENTED_EDGE ( 'NONE', *, *, #320, .T. ) ;
#108 = DIRECTION ( 'NONE',  ( -3.491481338843133355E-15, 1.224646799147353207E-16, -1.000000000000000000 ) ) ;
#109 = ORIENTED_EDGE ( 'NONE', *, *, #274, .T. ) ;
#110 = CC_DESIGN_PERSON_AND_ORGANIZATION_ASSIGNMENT ( #124, #75, ( #113 ) ) ;
#111 = CIRCLE ( 'NONE', #8, 0.9937047985323830268 ) ;
#112 = DIRECTION ( 'NONE',  ( -3.491481338843133355E-15, 1.224646799147353207E-16, -1.000000000000000000 ) ) ;
#113 = PRODUCT ( '388791', '388791', '', ( #174 ) ) ;
#114 = DIRECTION ( 'NONE',  ( 3.491481338843133355E-15, -1.224646799147353207E-16, 1.000000000000000000 ) ) ;
#115 = FACE_OUTER_BOUND ( 'NONE', #74, .T. ) ;
#116 = DIRECTION ( 'NONE',  ( -3.491481338843133355E-15, 1.224646799147353207E-16, -1.000000000000000000 ) ) ;
#117 = AXIS2_PLACEMENT_3D ( 'NONE', #168, #64, #4 ) ;
#118 = CC_DESIGN_APPROVAL ( #120, ( #182 ) ) ;
#119 = CARTESIAN_POINT ( 'NONE',  ( 0.0000000000000000000, 0.0000000000000000000, 0.0000000000000000000 ) ) ;
#120 = APPROVAL ( #208, 'UNSPECIFIED' ) ;
#121 = CARTESIAN_POINT ( 'NONE',  ( 1.396592535537253342E-14, 0.9499999999999994005, 4.000000000000000000 ) ) ;
#122 = AXIS2_PLACEMENT_3D ( 'NONE', #176, #73, #203 ) ;
#123 = PRODUCT_DEFINITION_SHAPE ( 'NONE', 'NONE',  #182 ) ;
#124 = PERSON_AND_ORGANIZATION ( #72, #290 ) ;
#125 = DIRECTION ( 'NONE',  ( 4.275831445896958607E-31, 1.000000000000000000, 1.224646799147353454E-16 ) ) ;
#126 = CARTESIAN_POINT ( 'NONE',  ( 1.396592535537253342E-14, 0.9499999999999994005, 4.000000000000000000 ) ) ;
#127 = ORIENTED_EDGE ( 'NONE', *, *, #320, .F. ) ;
#128 = SHAPE_DEFINITION_REPRESENTATION ( #123, #193 ) ;
#129 = AXIS2_PLACEMENT_3D ( 'NONE', #92, #169, #276 ) ;
#130 = APPROVAL_PERSON_ORGANIZATION ( #180, #120, #312 ) ;
#131 = LOCAL_TIME ( 11, 14, 56.00000000000000000, #148 ) ;
#132 = APPROVAL_STATUS ( 'not_yet_approved' ) ;
#133 = PRODUCT_RELATED_PRODUCT_CATEGORY ( 'detail', '', ( #113 ) ) ;
#134 = EDGE_LOOP ( 'NONE', ( #1 ) ) ;
#135 = CARTESIAN_POINT ( 'NONE',  ( 2.135328320864082654E-14, -7.489723528470446534E-16, 6.115823381635491884 ) ) ;
#136 = DIRECTION ( 'NONE',  ( 4.275831445896958607E-31, 1.000000000000000000, 1.224646799147353207E-16 ) ) ;
#137 = ORIENTED_EDGE ( 'NONE', *, *, #274, .F. ) ;
#138 = ORIENTED_EDGE ( 'NONE', *, *, #186, .T. ) ;
#139 = CARTESIAN_POINT ( 'NONE',  ( 0.0000000000000000000, 0.0000000000000000000, 0.0000000000000000000 ) ) ;
#140 =( GEOMETRIC_REPRESENTATION_CONTEXT ( 3 ) GLOBAL_UNCERTAINTY_ASSIGNED_CONTEXT ( ( #79 ) ) GLOBAL_UNIT_ASSIGNED_CONTEXT ( ( #211, #6, #305 ) ) REPRESENTATION_CONTEXT ( 'NONE', 'WORKASPACE' ) );
#141 = DIRECTION ( 'NONE',  ( -3.491481338843133355E-15, 1.224646799147353207E-16, -1.000000000000000000 ) ) ;
#142 = DIRECTION ( 'NONE',  ( -4.275831445896958607E-31, -1.000000000000000000, -1.224646799147353207E-16 ) ) ;
#143 = DIRECTION ( 'NONE',  ( 0.0000000000000000000, 1.000000000000000000, 0.0000000000000000000 ) ) ;
#144 = AXIS2_PLACEMENT_3D ( 'NONE', #329, #279, #218 ) ;
#145 = CARTESIAN_POINT ( 'NONE',  ( 5.481625701983718737E-14, 4.461785353419020636E-32, 15.69999999999999929 ) ) ;
#146 = ADVANCED_FACE ( 'NONE', ( #196, #299 ), #66, .F. ) ;
#147 = VERTEX_POINT ( 'NONE', #252 ) ;
#148 = COORDINATED_UNIVERSAL_TIME_OFFSET ( 1, 0, .AHEAD. ) ;
#149 = CARTESIAN_POINT ( 'NONE',  ( 2.137183397710479182E-32, 0.9499999999999994005, 6.121136532892404794E-18 ) ) ;
#150 = COORDINATED_UNIVERSAL_TIME_OFFSET ( 1, 0, .AHEAD. ) ;
#151 = ADVANCED_FACE ( 'NONE', ( #90, #326 ), #86, .T. ) ;
#152 = DIRECTION ( 'NONE',  ( -3.491481338843133355E-15, 1.224646799147353207E-16, -1.000000000000000000 ) ) ;
#153 = APPROVAL_DATE_TIME ( #227, #120 ) ;
#154 = ADVANCED_FACE ( 'NONE', ( #271 ), #324, .T. ) ;
#155 = CONICAL_SURFACE ( 'NONE', #117, 2.400000000000003020, 0.7853981633974450594 ) ;
#156 = ORIENTED_EDGE ( 'NONE', *, *, #56, .F. ) ;
#157 = EDGE_LOOP ( 'NONE', ( #85 ) ) ;
#158 = CARTESIAN_POINT ( 'NONE',  ( 2.339292497024899664E-14, -1.145935993436750406E-14, 6.700000000000000178 ) ) ;
#159 = CLOSED_SHELL ( 'NONE', ( #284, #171, #154 ) ) ;
#160 = APPROVAL_PERSON_ORGANIZATION ( #256, #191, #253 ) ;
#161 = EDGE_CURVE ( 'NONE', #259, #259, #3, .T. ) ;
#162 = EDGE_LOOP ( 'NONE', ( #265 ) ) ;
#163 = DIRECTION ( 'NONE',  ( -3.491481338843133355E-15, 1.224646799147353207E-16, -1.000000000000000000 ) ) ;
#164 = EDGE_CURVE ( 'NONE', #47, #47, #13, .T. ) ;
#165 = AXIS2_PLACEMENT_3D ( 'NONE', #18, #98, #282 ) ;
#166 = DIRECTION ( 'NONE',  ( 4.275831445896958607E-31, 1.000000000000000000, 1.224646799147353207E-16 ) ) ;
#167 = CC_DESIGN_APPROVAL ( #61, ( #173 ) ) ;
#168 = CARTESIAN_POINT ( 'NONE',  ( 1.920314736363723472E-13, -6.735557395310442615E-15, 55.00000000000000000 ) ) ;
#169 = DIRECTION ( 'NONE',  ( -3.491481338843133355E-15, 1.224646799147353207E-16, -1.000000000000000000 ) ) ;
#170 = FACE_OUTER_BOUND ( 'NONE', #237, .T. ) ;
#171 = ADVANCED_FACE ( 'NONE', ( #115, #89 ), #33, .T. ) ;
#172 = TOROIDAL_SURFACE ( 'NONE', #21, 2.950000000000000178, 2.000000000000000000 ) ;
#173 = PRODUCT_DEFINITION_FORMATION_WITH_SPECIFIED_SOURCE ( 'ANY', '', #113, .NOT_KNOWN. ) ;
#174 = MECHANICAL_CONTEXT ( 'NONE', #277, 'mechanical' ) ;
#175 = EDGE_CURVE ( 'NONE', #102, #102, #195, .T. ) ;
#176 = CARTESIAN_POINT ( 'NONE',  ( 1.990144363140586328E-14, -6.980486755139913108E-16, 5.700000000000000178 ) ) ;
#177 = APPROVAL_STATUS ( 'not_yet_approved' ) ;
#178 = CARTESIAN_POINT ( 'NONE',  ( 2.135328320864082654E-14, 0.9937047985323823607, 6.115823381635491884 ) ) ;
#179 = PERSON_AND_ORGANIZATION ( #72, #290 ) ;
#180 = PERSON_AND_ORGANIZATION ( #72, #290 ) ;
#181 = VERTEX_POINT ( 'NONE', #43 ) ;
#182 = PRODUCT_DEFINITION ( 'UNKNOWN', '', #173, #45 ) ;
#183 = PLANE ( 'NONE',  #263 ) ;
#184 = CLOSED_SHELL ( 'NONE', ( #26, #14, #242, #151, #51, #91, #223, #146, #260, #100, #247 ) ) ;
#185 = DIRECTION ( 'NONE',  ( 3.491481338843133355E-15, -1.224646799147353207E-16, 1.000000000000000000 ) ) ;
#186 = EDGE_CURVE ( 'NONE', #281, #281, #248, .T. ) ;
#187 = FACE_BOUND ( 'NONE', #307, .T. ) ;
#188 = CONICAL_SURFACE ( 'NONE', #278, 2.950000000000000178, 0.2094395102393127317 ) ;
#189 = FACE_BOUND ( 'NONE', #58, .T. ) ;
#190 = DIRECTION ( 'NONE',  ( -3.491481338843133355E-15, 1.224646799147353207E-16, -1.000000000000000000 ) ) ;
#191 = APPROVAL ( #132, 'UNSPECIFIED' ) ;
#192 = ORIENTED_EDGE ( 'NONE', *, *, #164, .F. ) ;
#193 = ADVANCED_BREP_SHAPE_REPRESENTATION ( '388791', ( #339, #228, #197 ), #140 ) ;
#194 = PLANE ( 'NONE',  #217 ) ;
#195 = CIRCLE ( 'NONE', #267, 3.000000000000002220 ) ;
#196 = FACE_BOUND ( 'NONE', #241, .T. ) ;
#197 = AXIS2_PLACEMENT_3D ( 'NONE', #202, #257, #44 ) ;
#198 = CARTESIAN_POINT ( 'NONE',  ( 4.515754487950944886E-14, -1.583913457557472169E-15, 12.93363489505916597 ) ) ;
#199 = EDGE_CURVE ( 'NONE', #313, #313, #213, .T. ) ;
#200 = DIRECTION ( 'NONE',  ( -3.491481338843133355E-15, 1.224646799147353207E-16, -1.000000000000000000 ) ) ;
#201 = AXIS2_PLACEMENT_3D ( 'NONE', #275, #112, #36 ) ;
#202 = CARTESIAN_POINT ( 'NONE',  ( 0.0000000000000000000, 0.0000000000000000000, 0.0000000000000000000 ) ) ;
#203 = DIRECTION ( 'NONE',  ( 0.0000000000000000000, 1.000000000000000000, 0.0000000000000000000 ) ) ;
#204 = ORIENTED_EDGE ( 'NONE', *, *, #238, .F. ) ;
#205 = PERSON_AND_ORGANIZATION_ROLE ( 'design_supplier' ) ;
#206 = DIRECTION ( 'NONE',  ( 3.491481338843133355E-15, -1.224646799147353207E-16, 1.000000000000000000 ) ) ;
#207 = CC_DESIGN_SECURITY_CLASSIFICATION ( #255, ( #173 ) ) ;
#208 = APPROVAL_STATUS ( 'not_yet_approved' ) ;
#209 = CARTESIAN_POINT ( 'NONE',  ( 2.339292497024899979E-14, 1.624999999999998890, 6.700000000000001066 ) ) ;
#210 = FACE_OUTER_BOUND ( 'NONE', #293, .T. ) ;
#211 =( LENGTH_UNIT ( ) NAMED_UNIT ( * ) SI_UNIT ( .MILLI., .METRE. ) );
#212 = FACE_OUTER_BOUND ( 'NONE', #54, .T. ) ;
#213 = CIRCLE ( 'NONE', #101, 2.950000000000000178 ) ;
#214 = ORIENTED_EDGE ( 'NONE', *, *, #235, .F. ) ;
#215 = ORIENTED_EDGE ( 'NONE', *, *, #295, .T. ) ;
#216 = DIRECTION ( 'NONE',  ( -4.275831445896958607E-31, -1.000000000000000000, -1.224646799147353207E-16 ) ) ;
#217 = AXIS2_PLACEMENT_3D ( 'NONE', #63, #141, #166 ) ;
#218 = DIRECTION ( 'NONE',  ( 0.0000000000000000000, 1.000000000000000000, 0.0000000000000000000 ) ) ;
#219 = FACE_OUTER_BOUND ( 'NONE', #341, .T. ) ;
#220 = CARTESIAN_POINT ( 'NONE',  ( 2.339292497024899348E-14, -8.205133554287265576E-16, 6.699999999999999289 ) ) ;
#221 = AXIS2_PLACEMENT_3D ( 'NONE', #158, #185, #291 ) ;
#222 = CARTESIAN_POINT ( 'NONE',  ( 1.899365848330664293E-13, -6.662078587361600895E-15, 54.39999999999999858 ) ) ;
#223 = ADVANCED_FACE ( 'NONE', ( #297, #170 ), #9, .T. ) ;
#224 = DIRECTION ( 'NONE',  ( 4.275831445896958607E-31, 1.000000000000000000, 1.224646799147353207E-16 ) ) ;
#225 = CYLINDRICAL_SURFACE ( 'NONE', #331, 2.999999999999998668 ) ;
#226 = AXIS2_PLACEMENT_3D ( 'NONE', #67, #206, #332 ) ;
#227 = DATE_AND_TIME ( #41, #29 ) ;
#228 = MANIFOLD_SOLID_BREP ( 'Corps-Déplacer/Copier1[2]', #159 ) ;
#229 = CARTESIAN_POINT ( 'NONE',  ( 5.481625701983718737E-14, -1.922695474661344271E-15, 15.69999999999999929 ) ) ;
#230 = COORDINATED_UNIVERSAL_TIME_OFFSET ( 1, 0, .AHEAD. ) ;
#231 = EDGE_LOOP ( 'NONE', ( #137 ) ) ;
#232 = PERSON_AND_ORGANIZATION_ROLE ( 'classification_officer' ) ;
#233 = AXIS2_PLACEMENT_3D ( 'NONE', #119, #244, #224 ) ;
#234 = CIRCLE ( 'NONE', #323, 1.117875371939955009 ) ;
#235 = EDGE_CURVE ( 'NONE', #181, #181, #38, .T. ) ;
#236 = DATE_AND_TIME ( #70, #97 ) ;
#237 = EDGE_LOOP ( 'NONE', ( #340 ) ) ;
#238 = EDGE_CURVE ( 'NONE', #50, #50, #234, .T. ) ;
#239 = EDGE_LOOP ( 'NONE', ( #286 ) ) ;
#240 = DIRECTION ( 'NONE',  ( 0.0000000000000000000, -1.000000000000000000, 0.0000000000000000000 ) ) ;
#241 = EDGE_LOOP ( 'NONE', ( #214 ) ) ;
#242 = ADVANCED_FACE ( 'NONE', ( #245, #88 ), #172, .F. ) ;
#243 = DIRECTION ( 'NONE',  ( 0.0000000000000000000, 1.000000000000000000, 0.0000000000000000000 ) ) ;
#244 = DIRECTION ( 'NONE',  ( -3.491481338843133355E-15, 1.224646799147353207E-16, -1.000000000000000000 ) ) ;
#245 = FACE_OUTER_BOUND ( 'NONE', #83, .T. ) ;
#246 = CARTESIAN_POINT ( 'NONE',  ( 1.396592535537253342E-14, 7.123858967643815426E-33, 4.000000000000000000 ) ) ;
#247 = ADVANCED_FACE ( 'NONE', ( #219 ), #194, .F. ) ;
#248 = CIRCLE ( 'NONE', #129, 1.624999999999999778 ) ;
#249 = DIRECTION ( 'NONE',  ( -4.275831445896958607E-31, -1.000000000000000000, -1.224646799147353207E-16 ) ) ;
#250 = VERTEX_POINT ( 'NONE', #40 ) ;
#251 = CC_DESIGN_DATE_AND_TIME_ASSIGNMENT ( #308, #19, ( #255 ) ) ;
#252 = CARTESIAN_POINT ( 'NONE',  ( 1.990144363140586328E-14, 0.9499999999999994005, 5.700000000000000178 ) ) ;
#253 = APPROVAL_ROLE ( '' ) ;
#254 = CARTESIAN_POINT ( 'NONE',  ( 1.899365848330664293E-13, 2.999999999999995559, 54.39999999999999858 ) ) ;
#255 = SECURITY_CLASSIFICATION ( '', '', #78 ) ;
#256 = PERSON_AND_ORGANIZATION ( #72, #290 ) ;
#257 = DIRECTION ( 'NONE',  ( 0.0000000000000000000, 0.0000000000000000000, 1.000000000000000000 ) ) ;
#258 = CARTESIAN_POINT ( 'NONE',  ( 0.0000000000000000000, 0.0000000000000000000, 0.0000000000000000000 ) ) ;
#259 = VERTEX_POINT ( 'NONE', #149 ) ;
#260 = ADVANCED_FACE ( 'NONE', ( #273, #69 ), #225, .T. ) ;
#261 = COORDINATED_UNIVERSAL_TIME_OFFSET ( 1, 0, .AHEAD. ) ;
#262 = CALENDAR_DATE ( 2021, 13, 12 ) ;
#263 = AXIS2_PLACEMENT_3D ( 'NONE', #270, #82, #216 ) ;
#264 = ORIENTED_EDGE ( 'NONE', *, *, #161, .T. ) ;
#265 = ORIENTED_EDGE ( 'NONE', *, *, #199, .F. ) ;
#266 = PLANE ( 'NONE',  #221 ) ;
#267 = AXIS2_PLACEMENT_3D ( 'NONE', #222, #190, #65 ) ;
#268 = APPROVAL_PERSON_ORGANIZATION ( #179, #61, #103 ) ;
#269 = ORIENTED_EDGE ( 'NONE', *, *, #164, .T. ) ;
#270 = CARTESIAN_POINT ( 'NONE',  ( 1.396592535537253342E-14, 7.123858967643815426E-33, 4.000000000000000000 ) ) ;
#271 = FACE_OUTER_BOUND ( 'NONE', #336, .T. ) ;
#272 = CIRCLE ( 'NONE', #122, 0.9499999999999999556 ) ;
#273 = FACE_OUTER_BOUND ( 'NONE', #231, .T. ) ;
#274 = EDGE_CURVE ( 'NONE', #250, #250, #53, .T. ) ;
#275 = CARTESIAN_POINT ( 'NONE',  ( -3.848321533831060235E-31, 1.349809490907257944E-32, -1.102203093861060772E-16 ) ) ;
#276 = DIRECTION ( 'NONE',  ( 0.0000000000000000000, 1.000000000000000000, 0.0000000000000000000 ) ) ;
#277 = APPLICATION_CONTEXT ( 'configuration controlled 3d designs of mechanical parts and assemblies' ) ;
#278 = AXIS2_PLACEMENT_3D ( 'NONE', #104, #84, #240 ) ;
#279 = DIRECTION ( 'NONE',  ( -3.491481338843133355E-15, 1.224646799147353207E-16, -1.000000000000000000 ) ) ;
#280 = DATE_AND_TIME ( #12, #131 ) ;
#281 = VERTEX_POINT ( 'NONE', #209 ) ;
#282 = DIRECTION ( 'NONE',  ( 0.0000000000000000000, 1.000000000000000000, 0.0000000000000000000 ) ) ;
#283 = PERSON_AND_ORGANIZATION ( #72, #290 ) ;
#284 = ADVANCED_FACE ( 'NONE', ( #306 ), #309, .F. ) ;
#285 = VERTEX_POINT ( 'NONE', #303 ) ;
#286 = ORIENTED_EDGE ( 'NONE', *, *, #42, .F. ) ;
#287 = PERSON_AND_ORGANIZATION_ROLE ( 'creator' ) ;
#288 = APPLICATION_PROTOCOL_DEFINITION ( 'international standard', 'config_control_design', 1994, #321 ) ;
#289 = ORIENTED_EDGE ( 'NONE', *, *, #186, .F. ) ;
#290 = ORGANIZATION ( 'UNSPECIFIED', 'UNSPECIFIED', '' ) ;
#291 = DIRECTION ( 'NONE',  ( -4.275831445896958607E-31, -1.000000000000000000, -1.224646799147353207E-16 ) ) ;
#292 = EDGE_LOOP ( 'NONE', ( #24 ) ) ;
#293 = EDGE_LOOP ( 'NONE', ( #138 ) ) ;
#294 = EDGE_LOOP ( 'NONE', ( #109 ) ) ;
#295 = EDGE_CURVE ( 'NONE', #147, #147, #272, .T. ) ;
#296 = CARTESIAN_POINT ( 'NONE',  ( 1.920314736363723472E-13, -6.735557395310442615E-15, 55.00000000000000000 ) ) ;
#297 = FACE_OUTER_BOUND ( 'NONE', #162, .T. ) ;
#298 = CARTESIAN_POINT ( 'NONE',  ( 2.339292497024899348E-14, -8.205133554287265576E-16, 6.699999999999999289 ) ) ;
#299 = FACE_OUTER_BOUND ( 'NONE', #294, .T. ) ;
#300 = CARTESIAN_POINT ( 'NONE',  ( 1.396592535537253342E-14, -4.898587196589412829E-16, 4.000000000000000000 ) ) ;
#301 = LOCAL_TIME ( 11, 14, 56.00000000000000000, #68 ) ;
#302 = CALENDAR_DATE ( 2021, 13, 12 ) ;
#303 = CARTESIAN_POINT ( 'NONE',  ( 1.920314736363723472E-13, 2.399999999999995914, 55.00000000000000000 ) ) ;
#304 = APPROVAL_DATE_TIME ( #16, #61 ) ;
#305 =( NAMED_UNIT ( * ) SI_UNIT ( $, .STERADIAN. ) SOLID_ANGLE_UNIT ( ) );
#306 = FACE_OUTER_BOUND ( 'NONE', #335, .T. ) ;
#307 = EDGE_LOOP ( 'NONE', ( #317 ) ) ;
#308 = DATE_AND_TIME ( #302, #311 ) ;
#309 = PLANE ( 'NONE',  #226 ) ;
#310 = AXIS2_PLACEMENT_3D ( 'NONE', #145, #5, #249 ) ;
#311 = LOCAL_TIME ( 11, 14, 56.00000000000000000, #261 ) ;
#312 = APPROVAL_ROLE ( '' ) ;
#313 = VERTEX_POINT ( 'NONE', #77 ) ;
#314 = DATE_TIME_ROLE ( 'creation_date' ) ;
#315 = FACE_OUTER_BOUND ( 'NONE', #27, .T. ) ;
#316 = CIRCLE ( 'NONE', #165, 0.9499999999999998446 ) ;
#317 = ORIENTED_EDGE ( 'NONE', *, *, #56, .T. ) ;
#318 = CARTESIAN_POINT ( 'NONE',  ( 0.0000000000000000000, 0.0000000000000000000, 0.0000000000000000000 ) ) ;
#319 = CYLINDRICAL_SURFACE ( 'NONE', #327, 0.9499999999999998446 ) ;
#320 = EDGE_CURVE ( 'NONE', #11, #11, #316, .T. ) ;
#321 = APPLICATION_CONTEXT ( 'configuration controlled 3d designs of mechanical parts and assemblies' ) ;
#322 = ORIENTED_EDGE ( 'NONE', *, *, #42, .T. ) ;
#323 = AXIS2_PLACEMENT_3D ( 'NONE', #220, #200, #39 ) ;
#324 = PLANE ( 'NONE',  #28 ) ;
#325 = DIRECTION ( 'NONE',  ( 4.383125564698007546E-31, 1.000000000000000000, 1.224646799147353207E-16 ) ) ;
#326 = FACE_OUTER_BOUND ( 'NONE', #157, .T. ) ;
#327 = AXIS2_PLACEMENT_3D ( 'NONE', #318, #87, #136 ) ;
#328 = DIRECTION ( 'NONE',  ( 3.491481338843133355E-15, -1.224646799147353207E-16, 1.000000000000000000 ) ) ;
#329 = CARTESIAN_POINT ( 'NONE',  ( 5.481625701983718737E-14, -1.922695474661344271E-15, 15.69999999999999929 ) ) ;
#330 = DIRECTION ( 'NONE',  ( 0.0000000000000000000, 1.000000000000000000, 0.0000000000000000000 ) ) ;
#331 = AXIS2_PLACEMENT_3D ( 'NONE', #258, #333, #125 ) ;
#332 = DIRECTION ( 'NONE',  ( -4.275831445896958607E-31, -1.000000000000000000, -1.224646799147353207E-16 ) ) ;
#333 = DIRECTION ( 'NONE',  ( -3.491481338843133355E-15, 1.224646799147353207E-16, -1.000000000000000000 ) ) ;
#334 = VERTEX_POINT ( 'NONE', #178 ) ;
#335 = EDGE_LOOP ( 'NONE', ( #264 ) ) ;
#336 = EDGE_LOOP ( 'NONE', ( #127 ) ) ;
#337 = CC_DESIGN_PERSON_AND_ORGANIZATION_ASSIGNMENT ( #48, #99, ( #173 ) ) ;
#338 = EDGE_LOOP ( 'NONE', ( #31 ) ) ;
#339 = MANIFOLD_SOLID_BREP ( 'Corps-Déplacer/Copier1[1]', #184 ) ;
#340 = ORIENTED_EDGE ( 'NONE', *, *, #235, .T. ) ;
#341 = EDGE_LOOP ( 'NONE', ( #156 ) ) ;
#342 = AXIS2_PLACEMENT_3D ( 'NONE', #298, #114, #93 ) ;
#343 = FACE_BOUND ( 'NONE', #106, .T. ) ;
ENDSEC;
END-ISO-10303-21;
