ISO-10303-21;
HEADER;
FILE_DESCRIPTION (( 'STEP AP203' ),
    '1' );
FILE_NAME ('388788.step',
    '2021-12-13T10:14:54',
    ( '' ),
    ( '' ),
    'SwSTEP 2.0',
    'SolidWorks 2019',
    '' );
FILE_SCHEMA (( 'CONFIG_CONTROL_DESIGN' ));
ENDSEC;

DATA;
#1 = DIRECTION ( 'NONE',  ( 0.0000000000000000000, -1.000000000000000000, 0.0000000000000000000 ) ) ;
#2 = FACE_OUTER_BOUND ( 'NONE', #152, .T. ) ;
#3 = CIRCLE ( 'NONE', #169, 2.999999999999997780 ) ;
#4 = DIRECTION ( 'NONE',  ( 0.0000000000000000000, 0.0000000000000000000, 1.000000000000000000 ) ) ;
#5 = CARTESIAN_POINT ( 'NONE',  ( -1.603473408473258309E-31, 5.624227617539895830E-33, -4.592530369944789138E-17 ) ) ;
#6 = EDGE_LOOP ( 'NONE', ( #111 ) ) ;
#7 = APPLICATION_PROTOCOL_DEFINITION ( 'international standard', 'config_control_design', 1994, #32 ) ;
#8 = ORIENTED_EDGE ( 'NONE', *, *, #254, .F. ) ;
#9 = DIRECTION ( 'NONE',  ( -4.275831445896958607E-31, -1.000000000000000000, -1.224646799147353207E-16 ) ) ;
#10 = SECURITY_CLASSIFICATION_LEVEL ( 'unclassified' ) ;
#11 = ADVANCED_FACE ( 'NONE', ( #79 ), #289, .F. ) ;
#12 = CIRCLE ( 'NONE', #256, 2.950000000000000622 ) ;
#13 = CARTESIAN_POINT ( 'NONE',  ( 1.187103655206665183E-14, 0.7999999999999994893, 3.399999999999999911 ) ) ;
#14 = CC_DESIGN_APPROVAL ( #134, ( #41 ) ) ;
#15 = AXIS2_PLACEMENT_3D ( 'NONE', #231, #279, #258 ) ;
#16 = ADVANCED_FACE ( 'NONE', ( #184, #57 ), #139, .T. ) ;
#17 = DIRECTION ( 'NONE',  ( 3.491481338843133355E-15, -1.221293900448883903E-16, 1.000000000000000000 ) ) ;
#18 = EDGE_LOOP ( 'NONE', ( #251 ) ) ;
#19 = FACE_OUTER_BOUND ( 'NONE', #250, .T. ) ;
#20 = ORIENTED_EDGE ( 'NONE', *, *, #272, .F. ) ;
#21 = CLOSED_SHELL ( 'NONE', ( #244, #157, #221, #177, #194, #236, #16, #105, #119, #301 ) ) ;
#22 = AXIS2_PLACEMENT_3D ( 'NONE', #249, #321, #67 ) ;
#23 = CARTESIAN_POINT ( 'NONE',  ( 1.899365848330664293E-13, -6.662279761283508940E-15, 54.39999999999999858 ) ) ;
#24 = CARTESIAN_POINT ( 'NONE',  ( 1.815570296198430607E-14, -0.8404082057734585387, 5.200000000000002842 ) ) ;
#25 = CARTESIAN_POINT ( 'NONE',  ( 1.920314736363723472E-13, -6.735557395310442615E-15, 55.00000000000000000 ) ) ;
#26 = DIRECTION ( 'NONE',  ( 0.0000000000000000000, -1.000000000000000000, 0.0000000000000000000 ) ) ;
#27 = PLANE ( 'NONE',  #15 ) ;
#28 = CIRCLE ( 'NONE', #215, 0.7999999999999999334 ) ;
#29 = DIRECTION ( 'NONE',  ( 3.491481338843133355E-15, -1.224646799147353207E-16, 1.000000000000000000 ) ) ;
#30 = APPROVAL_STATUS ( 'not_yet_approved' ) ;
#31 = EDGE_LOOP ( 'NONE', ( #8 ) ) ;
#32 = APPLICATION_CONTEXT ( 'configuration controlled 3d designs of mechanical parts and assemblies' ) ;
#33 = ORIENTED_EDGE ( 'NONE', *, *, #272, .T. ) ;
#34 = AXIS2_PLACEMENT_3D ( 'NONE', #13, #17, #170 ) ;
#35 = DESIGN_CONTEXT ( 'detailed design', #32, 'design' ) ;
#36 = DATE_TIME_ROLE ( 'classification_date' ) ;
#37 = CC_DESIGN_SECURITY_CLASSIFICATION ( #41, ( #95 ) ) ;
#38 = PLANE ( 'NONE',  #34 ) ;
#39 = LOCAL_TIME ( 11, 14, 54.00000000000000000, #200 ) ;
#40 = CARTESIAN_POINT ( 'NONE',  ( 1.920314736363723472E-13, -6.735557395310442615E-15, 55.00000000000000000 ) ) ;
#41 = SECURITY_CLASSIFICATION ( '', '', #10 ) ;
#42 = AXIS2_PLACEMENT_3D ( 'NONE', #210, #167, #286 ) ;
#43 = AXIS2_PLACEMENT_3D ( 'NONE', #226, #240, #319 ) ;
#44 = DIRECTION ( 'NONE',  ( 0.0000000000000000000, -1.000000000000000000, 0.0000000000000000000 ) ) ;
#45 = DIRECTION ( 'NONE',  ( 0.0000000000000000000, -1.000000000000000000, 0.0000000000000000000 ) ) ;
#46 = PLANE ( 'NONE',  #43 ) ;
#47 = EDGE_LOOP ( 'NONE', ( #71 ) ) ;
#48 = FACE_OUTER_BOUND ( 'NONE', #47, .T. ) ;
#49 = VERTEX_POINT ( 'NONE', #314 ) ;
#50 = ORIENTED_EDGE ( 'NONE', *, *, #145, .T. ) ;
#51 = FACE_OUTER_BOUND ( 'NONE', #309, .T. ) ;
#52 = DATE_AND_TIME ( #311, #185 ) ;
#53 = DIRECTION ( 'NONE',  ( 3.491481338843133355E-15, -1.221293900448883903E-16, 1.000000000000000000 ) ) ;
#54 = AXIS2_PLACEMENT_3D ( 'NONE', #320, #273, #44 ) ;
#55 = CC_DESIGN_DATE_AND_TIME_ASSIGNMENT ( #52, #259, ( #295 ) ) ;
#56 = PERSON_AND_ORGANIZATION ( #202, #239 ) ;
#57 = FACE_OUTER_BOUND ( 'NONE', #205, .T. ) ;
#58 = DIRECTION ( 'NONE',  ( 0.0000000000000000000, -1.000000000000000000, 0.0000000000000000000 ) ) ;
#59 = PERSON_AND_ORGANIZATION ( #202, #239 ) ;
#60 = SHAPE_DEFINITION_REPRESENTATION ( #237, #100 ) ;
#61 = DIRECTION ( 'NONE',  ( -3.491481338843133355E-15, 1.224646799147353207E-16, -1.000000000000000000 ) ) ;
#62 = AXIS2_PLACEMENT_3D ( 'NONE', #269, #245, #92 ) ;
#63 = EDGE_CURVE ( 'NONE', #222, #222, #193, .T. ) ;
#64 = AXIS2_PLACEMENT_3D ( 'NONE', #160, #122, #153 ) ;
#65 = FACE_OUTER_BOUND ( 'NONE', #130, .T. ) ;
#66 = ORIENTED_EDGE ( 'NONE', *, *, #268, .T. ) ;
#67 = DIRECTION ( 'NONE',  ( 0.0000000000000000000, -1.000000000000000000, 0.0000000000000000000 ) ) ;
#68 = ORIENTED_EDGE ( 'NONE', *, *, #90, .F. ) ;
#69 = ADVANCED_FACE ( 'NONE', ( #2 ), #293, .T. ) ;
#70 = FACE_OUTER_BOUND ( 'NONE', #132, .T. ) ;
#71 = ORIENTED_EDGE ( 'NONE', *, *, #98, .T. ) ;
#72 =( GEOMETRIC_REPRESENTATION_CONTEXT ( 3 ) GLOBAL_UNCERTAINTY_ASSIGNED_CONTEXT ( ( #292 ) ) GLOBAL_UNIT_ASSIGNED_CONTEXT ( ( #209, #106, #179 ) ) REPRESENTATION_CONTEXT ( 'NONE', 'WORKASPACE' ) );
#73 = VERTEX_POINT ( 'NONE', #232 ) ;
#74 = CARTESIAN_POINT ( 'NONE',  ( 1.899365848330664293E-13, -6.662279761283508940E-15, 54.39999999999999858 ) ) ;
#75 = PERSON_AND_ORGANIZATION_ROLE ( 'design_owner' ) ;
#76 = ORIENTED_EDGE ( 'NONE', *, *, #63, .T. ) ;
#77 = EDGE_CURVE ( 'NONE', #296, #296, #168, .T. ) ;
#78 = DIRECTION ( 'NONE',  ( 1.000000000000000000, 0.0000000000000000000, 0.0000000000000000000 ) ) ;
#79 = FACE_OUTER_BOUND ( 'NONE', #229, .T. ) ;
#80 = CARTESIAN_POINT ( 'NONE',  ( 1.187103655206665183E-14, -4.163799117101000559E-16, 3.399999999999999911 ) ) ;
#81 = CC_DESIGN_APPROVAL ( #126, ( #95 ) ) ;
#82 = COORDINATED_UNIVERSAL_TIME_OFFSET ( 1, 0, .AHEAD. ) ;
#83 = ORIENTED_EDGE ( 'NONE', *, *, #90, .T. ) ;
#84 = CARTESIAN_POINT ( 'NONE',  ( 1.899365848330664293E-13, -3.000000000000009326, 54.39999999999999858 ) ) ;
#85 = EDGE_CURVE ( 'NONE', #187, #187, #131, .T. ) ;
#86 = DIRECTION ( 'NONE',  ( 3.491481338843133355E-15, -1.221293900448883903E-16, 1.000000000000000000 ) ) ;
#87 = PERSON_AND_ORGANIZATION ( #202, #239 ) ;
#88 = PERSON_AND_ORGANIZATION ( #202, #239 ) ;
#89 = DIRECTION ( 'NONE',  ( 0.0000000000000000000, -1.000000000000000000, 0.0000000000000000000 ) ) ;
#90 = EDGE_CURVE ( 'NONE', #49, #49, #201, .T. ) ;
#91 = MANIFOLD_SOLID_BREP ( 'Corps-Déplacer/Copier4[2]', #305 ) ;
#92 = DIRECTION ( 'NONE',  ( -4.264124862660221187E-31, -1.000000000000000000, -1.221293900448883903E-16 ) ) ;
#93 = AXIS2_PLACEMENT_3D ( 'NONE', #5, #29, #9 ) ;
#94 = APPROVAL_PERSON_ORGANIZATION ( #118, #134, #148 ) ;
#95 = PRODUCT_DEFINITION_FORMATION_WITH_SPECIFIED_SOURCE ( 'ANY', '', #97, .NOT_KNOWN. ) ;
#96 = DIRECTION ( 'NONE',  ( 0.0000000000000000000, -1.000000000000000000, 0.0000000000000000000 ) ) ;
#97 = PRODUCT ( '388788', '388788', '', ( #166 ) ) ;
#98 = EDGE_CURVE ( 'NONE', #161, #161, #270, .T. ) ;
#99 = DIRECTION ( 'NONE',  ( 0.0000000000000000000, -1.000000000000000000, 0.0000000000000000000 ) ) ;
#100 = ADVANCED_BREP_SHAPE_REPRESENTATION ( '388788', ( #303, #91, #306 ), #72 ) ;
#101 = APPROVAL_ROLE ( '' ) ;
#102 = AXIS2_PLACEMENT_3D ( 'NONE', #25, #315, #58 ) ;
#103 = DIRECTION ( 'NONE',  ( 0.0000000000000000000, -1.000000000000000000, 0.0000000000000000000 ) ) ;
#104 = CARTESIAN_POINT ( 'NONE',  ( 1.815570296198430607E-14, -1.350000000000000533, 5.200000000000002842 ) ) ;
#105 = ADVANCED_FACE ( 'NONE', ( #203, #308 ), #149, .T. ) ;
#106 =( NAMED_UNIT ( * ) PLANE_ANGLE_UNIT ( ) SI_UNIT ( $, .RADIAN. ) );
#107 = ORIENTED_EDGE ( 'NONE', *, *, #77, .F. ) ;
#108 = DATE_AND_TIME ( #283, #39 ) ;
#109 = DIRECTION ( 'NONE',  ( 3.491481338843133355E-15, -1.224646799147353207E-16, 1.000000000000000000 ) ) ;
#110 = APPLICATION_PROTOCOL_DEFINITION ( 'international standard', 'config_control_design', 1994, #133 ) ;
#111 = ORIENTED_EDGE ( 'NONE', *, *, #277, .T. ) ;
#112 = LOCAL_TIME ( 11, 14, 54.00000000000000000, #294 ) ;
#113 = DATE_AND_TIME ( #144, #112 ) ;
#114 = CC_DESIGN_APPROVAL ( #173, ( #295 ) ) ;
#115 = CC_DESIGN_PERSON_AND_ORGANIZATION_ASSIGNMENT ( #164, #307, ( #295 ) ) ;
#116 = FACE_OUTER_BOUND ( 'NONE', #257, .T. ) ;
#117 = PLANE ( 'NONE',  #62 ) ;
#118 = PERSON_AND_ORGANIZATION ( #202, #239 ) ;
#119 = ADVANCED_FACE ( 'NONE', ( #208 ), #27, .F. ) ;
#120 = DIRECTION ( 'NONE',  ( 3.491481338843133355E-15, -1.221293900448883903E-16, 1.000000000000000000 ) ) ;
#121 = ORIENTED_EDGE ( 'NONE', *, *, #85, .F. ) ;
#122 = DIRECTION ( 'NONE',  ( 3.491481338843133355E-15, -1.221293900448883903E-16, 1.000000000000000000 ) ) ;
#123 = DIRECTION ( 'NONE',  ( 0.0000000000000000000, -1.000000000000000000, 0.0000000000000000000 ) ) ;
#124 = AXIS2_PLACEMENT_3D ( 'NONE', #235, #86, #103 ) ;
#125 = EDGE_LOOP ( 'NONE', ( #156 ) ) ;
#126 = APPROVAL ( #30, 'UNSPECIFIED' ) ;
#127 = FACE_BOUND ( 'NONE', #198, .T. ) ;
#128 = DIRECTION ( 'NONE',  ( 0.0000000000000000000, 1.000000000000000000, 0.0000000000000000000 ) ) ;
#129 = APPROVAL_STATUS ( 'not_yet_approved' ) ;
#130 = EDGE_LOOP ( 'NONE', ( #50 ) ) ;
#131 = CIRCLE ( 'NONE', #171, 1.349999999999999867 ) ;
#132 = EDGE_LOOP ( 'NONE', ( #68 ) ) ;
#133 = APPLICATION_CONTEXT ( 'configuration controlled 3d designs of mechanical parts and assemblies' ) ;
#134 = APPROVAL ( #214, 'UNSPECIFIED' ) ;
#135 = CARTESIAN_POINT ( 'NONE',  ( 1.187103655206665183E-14, 0.7999999999999994893, 3.399999999999999911 ) ) ;
#136 = EDGE_LOOP ( 'NONE', ( #230 ) ) ;
#137 = DIRECTION ( 'NONE',  ( 0.0000000000000000000, 1.000000000000000000, 0.0000000000000000000 ) ) ;
#138 = VERTEX_POINT ( 'NONE', #135 ) ;
#139 = CYLINDRICAL_SURFACE ( 'NONE', #102, 3.000000000000000000 ) ;
#140 = LOCAL_TIME ( 11, 14, 54.00000000000000000, #297 ) ;
#141 = CALENDAR_DATE ( 2021, 13, 12 ) ;
#142 = CARTESIAN_POINT ( 'NONE',  ( 1.187103655206665341E-14, -4.336808689942017736E-16, 3.400000000000000355 ) ) ;
#143 = PERSON_AND_ORGANIZATION_ROLE ( 'classification_officer' ) ;
#144 = CALENDAR_DATE ( 2021, 13, 12 ) ;
#145 = EDGE_CURVE ( 'NONE', #138, #138, #28, .T. ) ;
#146 = DIRECTION ( 'NONE',  ( 3.491481338843133355E-15, -1.221293900448883903E-16, 1.000000000000000000 ) ) ;
#147 = AXIS2_PLACEMENT_3D ( 'NONE', #142, #189, #26 ) ;
#148 = APPROVAL_ROLE ( '' ) ;
#149 = CONICAL_SURFACE ( 'NONE', #243, 3.000000000000002220, 0.7853981633974450594 ) ;
#150 = FACE_OUTER_BOUND ( 'NONE', #225, .T. ) ;
#151 = DIRECTION ( 'NONE',  ( 3.491481338843133355E-15, -1.221293900448883903E-16, 1.000000000000000000 ) ) ;
#152 = EDGE_LOOP ( 'NONE', ( #284 ) ) ;
#153 = DIRECTION ( 'NONE',  ( -4.374771922673803864E-31, -1.000000000000000000, -1.221293900448883903E-16 ) ) ;
#154 = CC_DESIGN_PERSON_AND_ORGANIZATION_ASSIGNMENT ( #87, #143, ( #41 ) ) ;
#155 = PERSON_AND_ORGANIZATION ( #202, #239 ) ;
#156 = ORIENTED_EDGE ( 'NONE', *, *, #85, .T. ) ;
#157 = ADVANCED_FACE ( 'NONE', ( #178, #48 ), #299, .F. ) ;
#158 = VERTEX_POINT ( 'NONE', #84 ) ;
#159 = EDGE_LOOP ( 'NONE', ( #304 ) ) ;
#160 = CARTESIAN_POINT ( 'NONE',  ( 1.675911042644703695E-14, -8.673617379884035472E-16, 4.799999999999999822 ) ) ;
#161 = VERTEX_POINT ( 'NONE', #288 ) ;
#162 = CARTESIAN_POINT ( 'NONE',  ( -3.206946816946516619E-31, 1.124845523507979166E-32, -9.185060739889578275E-17 ) ) ;
#163 = AXIS2_PLACEMENT_3D ( 'NONE', #174, #146, #96 ) ;
#164 = PERSON_AND_ORGANIZATION ( #202, #239 ) ;
#165 = DIRECTION ( 'NONE',  ( -3.491481338843133355E-15, 1.224646799147353207E-16, -1.000000000000000000 ) ) ;
#166 = MECHANICAL_CONTEXT ( 'NONE', #133, 'mechanical' ) ;
#167 = DIRECTION ( 'NONE',  ( 3.491481338843133355E-15, -1.221293900448883903E-16, 1.000000000000000000 ) ) ;
#168 = CIRCLE ( 'NONE', #42, 2.950000000000001066 ) ;
#169 = AXIS2_PLACEMENT_3D ( 'NONE', #300, #120, #1 ) ;
#170 = DIRECTION ( 'NONE',  ( -4.264124862660221187E-31, -1.000000000000000000, -1.221293900448883903E-16 ) ) ;
#171 = AXIS2_PLACEMENT_3D ( 'NONE', #253, #53, #313 ) ;
#172 = DIRECTION ( 'NONE',  ( 3.491481338843133355E-15, -1.221293900448883903E-16, 1.000000000000000000 ) ) ;
#173 = APPROVAL ( #129, 'UNSPECIFIED' ) ;
#174 = CARTESIAN_POINT ( 'NONE',  ( 1.920314736363723472E-13, -6.735557395310442615E-15, 55.00000000000000000 ) ) ;
#175 = CARTESIAN_POINT ( 'NONE',  ( 4.443750813543088775E-14, -1.572831540126904329E-15, 12.72740817516578637 ) ) ;
#176 = CARTESIAN_POINT ( 'NONE',  ( 0.0000000000000000000, 0.0000000000000000000, 0.0000000000000000000 ) ) ;
#177 = ADVANCED_FACE ( 'NONE', ( #51, #241 ), #274, .T. ) ;
#178 = FACE_OUTER_BOUND ( 'NONE', #278, .T. ) ;
#179 =( NAMED_UNIT ( * ) SI_UNIT ( $, .STERADIAN. ) SOLID_ANGLE_UNIT ( ) );
#180 = CARTESIAN_POINT ( 'NONE',  ( 1.187103655206665183E-14, 5.999039130647423589E-33, 3.399999999999999911 ) ) ;
#181 = APPROVAL_DATE_TIME ( #108, #173 ) ;
#182 = ORIENTED_EDGE ( 'NONE', *, *, #77, .T. ) ;
#183 = PERSON_AND_ORGANIZATION ( #202, #239 ) ;
#184 = FACE_OUTER_BOUND ( 'NONE', #159, .T. ) ;
#185 = LOCAL_TIME ( 11, 14, 54.00000000000000000, #206 ) ;
#186 = DIRECTION ( 'NONE',  ( -3.491481338843133355E-15, 1.224646799147353207E-16, -1.000000000000000000 ) ) ;
#187 = VERTEX_POINT ( 'NONE', #104 ) ;
#188 = EDGE_LOOP ( 'NONE', ( #107 ) ) ;
#189 = DIRECTION ( 'NONE',  ( 3.491481338843133355E-15, -1.221293900448883903E-16, 1.000000000000000000 ) ) ;
#190 = CIRCLE ( 'NONE', #228, 0.8404082057734578726 ) ;
#191 = CC_DESIGN_PERSON_AND_ORGANIZATION_ASSIGNMENT ( #59, #263, ( #95 ) ) ;
#192 = CARTESIAN_POINT ( 'NONE',  ( 2.137183397710483288E-32, 0.7999999999999994893, 6.121136532892404794E-18 ) ) ;
#193 = CIRCLE ( 'NONE', #280, 0.7999999999999994893 ) ;
#194 = ADVANCED_FACE ( 'NONE', ( #271, #150 ), #246, .T. ) ;
#195 = DIRECTION ( 'NONE',  ( 3.491481338843133355E-15, -1.221293900448883903E-16, 1.000000000000000000 ) ) ;
#196 = CC_DESIGN_PERSON_AND_ORGANIZATION_ASSIGNMENT ( #56, #75, ( #97 ) ) ;
#197 = AXIS2_PLACEMENT_3D ( 'NONE', #40, #195, #89 ) ;
#198 = EDGE_LOOP ( 'NONE', ( #248 ) ) ;
#199 = CARTESIAN_POINT ( 'NONE',  ( 1.815570296198430607E-14, -6.535137710750009255E-16, 5.200000000000002842 ) ) ;
#200 = COORDINATED_UNIVERSAL_TIME_OFFSET ( 1, 0, .AHEAD. ) ;
#201 = CIRCLE ( 'NONE', #147, 0.7999999999999999334 ) ;
#202 = PERSON ( 'UNSPECIFIED', 'UNSPECIFIED', 'UNSPECIFIED', ('UNSPECIFIED'), ('UNSPECIFIED'), ('UNSPECIFIED') ) ;
#203 = FACE_BOUND ( 'NONE', #31, .T. ) ;
#204 = CARTESIAN_POINT ( 'NONE',  ( 4.443750813543088775E-14, -2.950000000000002398, 12.72740817516578637 ) ) ;
#205 = EDGE_LOOP ( 'NONE', ( #66 ) ) ;
#206 = COORDINATED_UNIVERSAL_TIME_OFFSET ( 1, 0, .AHEAD. ) ;
#207 = ORIENTED_EDGE ( 'NONE', *, *, #98, .F. ) ;
#208 = FACE_OUTER_BOUND ( 'NONE', #136, .T. ) ;
#209 =( LENGTH_UNIT ( ) NAMED_UNIT ( * ) SI_UNIT ( .MILLI., .METRE. ) );
#210 = CARTESIAN_POINT ( 'NONE',  ( 5.411796075206856701E-14, -1.911446488537351074E-15, 15.50000000000000000 ) ) ;
#211 = CIRCLE ( 'NONE', #265, 3.000000000000002665 ) ;
#212 = APPROVAL_ROLE ( '' ) ;
#213 = EDGE_LOOP ( 'NONE', ( #207 ) ) ;
#214 = APPROVAL_STATUS ( 'not_yet_approved' ) ;
#215 = AXIS2_PLACEMENT_3D ( 'NONE', #80, #186, #128 ) ;
#216 = DATE_AND_TIME ( #242, #140 ) ;
#217 = FACE_OUTER_BOUND ( 'NONE', #18, .T. ) ;
#218 = DIRECTION ( 'NONE',  ( -3.491481338843133355E-15, 1.221293900448883903E-16, -1.000000000000000000 ) ) ;
#219 = FACE_BOUND ( 'NONE', #291, .T. ) ;
#220 = CIRCLE ( 'NONE', #197, 2.400000000000003020 ) ;
#221 = ADVANCED_FACE ( 'NONE', ( #19, #127 ), #117, .F. ) ;
#222 = VERTEX_POINT ( 'NONE', #192 ) ;
#223 = LOCAL_TIME ( 11, 14, 54.00000000000000000, #82 ) ;
#224 = FACE_OUTER_BOUND ( 'NONE', #260, .T. ) ;
#225 = EDGE_LOOP ( 'NONE', ( #33 ) ) ;
#226 = CARTESIAN_POINT ( 'NONE',  ( 5.411796075206856701E-14, 2.999999999999995559, 15.50000000000000000 ) ) ;
#227 = CARTESIAN_POINT ( 'NONE',  ( 0.0000000000000000000, 0.0000000000000000000, 0.0000000000000000000 ) ) ;
#228 = AXIS2_PLACEMENT_3D ( 'NONE', #199, #275, #45 ) ;
#229 = EDGE_LOOP ( 'NONE', ( #76 ) ) ;
#230 = ORIENTED_EDGE ( 'NONE', *, *, #254, .T. ) ;
#231 = CARTESIAN_POINT ( 'NONE',  ( 1.920314736363723472E-13, -6.735557395310442615E-15, 55.00000000000000000 ) ) ;
#232 = CARTESIAN_POINT ( 'NONE',  ( 1.920314736363723472E-13, -2.400000000000009681, 55.00000000000000000 ) ) ;
#233 = DIRECTION ( 'NONE',  ( 4.275831445896958607E-31, 1.000000000000000000, 1.224646799147353207E-16 ) ) ;
#234 = PRODUCT_RELATED_PRODUCT_CATEGORY ( 'detail', '', ( #97 ) ) ;
#235 = CARTESIAN_POINT ( 'NONE',  ( 1.675911042644703379E-14, -6.046620150570447805E-16, 4.799999999999998934 ) ) ;
#236 = ADVANCED_FACE ( 'NONE', ( #217, #219 ), #46, .F. ) ;
#237 = PRODUCT_DEFINITION_SHAPE ( 'NONE', 'NONE',  #295 ) ;
#238 = FACE_OUTER_BOUND ( 'NONE', #213, .T. ) ;
#239 = ORGANIZATION ( 'UNSPECIFIED', 'UNSPECIFIED', '' ) ;
#240 = DIRECTION ( 'NONE',  ( 3.491481338843133355E-15, -1.221293900448883903E-16, 1.000000000000000000 ) ) ;
#241 = FACE_BOUND ( 'NONE', #125, .T. ) ;
#242 = CALENDAR_DATE ( 2021, 13, 12 ) ;
#243 = AXIS2_PLACEMENT_3D ( 'NONE', #74, #218, #137 ) ;
#244 = ADVANCED_FACE ( 'NONE', ( #238, #116 ), #247, .T. ) ;
#245 = DIRECTION ( 'NONE',  ( 3.491481338843133355E-15, -1.221293900448883903E-16, 1.000000000000000000 ) ) ;
#246 = CYLINDRICAL_SURFACE ( 'NONE', #163, 2.950000000000000622 ) ;
#247 = CYLINDRICAL_SURFACE ( 'NONE', #22, 0.8000000000000000444 ) ;
#248 = ORIENTED_EDGE ( 'NONE', *, *, #285, .T. ) ;
#249 = CARTESIAN_POINT ( 'NONE',  ( 1.920314736363723472E-13, -6.735557395310442615E-15, 55.00000000000000000 ) ) ;
#250 = EDGE_LOOP ( 'NONE', ( #121 ) ) ;
#251 = ORIENTED_EDGE ( 'NONE', *, *, #268, .F. ) ;
#252 = CARTESIAN_POINT ( 'NONE',  ( 5.411796075206856701E-14, -2.999999999999999556, 15.50000000000000000 ) ) ;
#253 = CARTESIAN_POINT ( 'NONE',  ( 1.815570296198430607E-14, -6.535137710750009255E-16, 5.200000000000002842 ) ) ;
#254 = EDGE_CURVE ( 'NONE', #73, #73, #220, .T. ) ;
#255 = VERTEX_POINT ( 'NONE', #24 ) ;
#256 = AXIS2_PLACEMENT_3D ( 'NONE', #175, #151, #99 ) ;
#257 = EDGE_LOOP ( 'NONE', ( #83 ) ) ;
#258 = DIRECTION ( 'NONE',  ( 4.264124862660221187E-31, 1.000000000000000000, 1.221293900448883903E-16 ) ) ;
#259 = DATE_TIME_ROLE ( 'creation_date' ) ;
#260 = EDGE_LOOP ( 'NONE', ( #310 ) ) ;
#261 = DATE_AND_TIME ( #141, #223 ) ;
#262 = DIRECTION ( 'NONE',  ( -4.275831445896958607E-31, -1.000000000000000000, -1.224646799147353207E-16 ) ) ;
#263 = PERSON_AND_ORGANIZATION_ROLE ( 'creator' ) ;
#264 = AXIS2_PLACEMENT_3D ( 'NONE', #180, #109, #262 ) ;
#265 = AXIS2_PLACEMENT_3D ( 'NONE', #23, #172, #123 ) ;
#266 = CC_DESIGN_PERSON_AND_ORGANIZATION_ASSIGNMENT ( #88, #318, ( #95 ) ) ;
#267 = APPROVAL_DATE_TIME ( #261, #126 ) ;
#268 = EDGE_CURVE ( 'NONE', #281, #281, #3, .T. ) ;
#269 = CARTESIAN_POINT ( 'NONE',  ( 1.815570296198429345E-14, 0.8404082057734572064, 5.200000000000000178 ) ) ;
#270 = CIRCLE ( 'NONE', #124, 0.8000000000000000444 ) ;
#271 = FACE_OUTER_BOUND ( 'NONE', #188, .T. ) ;
#272 = EDGE_CURVE ( 'NONE', #290, #290, #12, .T. ) ;
#273 = DIRECTION ( 'NONE',  ( 3.491481338843133355E-15, -1.221293900448883903E-16, 1.000000000000000000 ) ) ;
#274 = CONICAL_SURFACE ( 'NONE', #54, 1.349999999999999867, 0.2094395102393127872 ) ;
#275 = DIRECTION ( 'NONE',  ( 3.491481338843133355E-15, -1.221293900448883903E-16, 1.000000000000000000 ) ) ;
#276 = CARTESIAN_POINT ( 'NONE',  ( 5.411796075206856701E-14, -2.950000000000002842, 15.50000000000000000 ) ) ;
#277 = EDGE_CURVE ( 'NONE', #158, #158, #211, .T. ) ;
#278 = EDGE_LOOP ( 'NONE', ( #282 ) ) ;
#279 = DIRECTION ( 'NONE',  ( -3.491481338843133355E-15, 1.221293900448883903E-16, -1.000000000000000000 ) ) ;
#280 = AXIS2_PLACEMENT_3D ( 'NONE', #162, #165, #233 ) ;
#281 = VERTEX_POINT ( 'NONE', #252 ) ;
#282 = ORIENTED_EDGE ( 'NONE', *, *, #285, .F. ) ;
#283 = CALENDAR_DATE ( 2021, 13, 12 ) ;
#284 = ORIENTED_EDGE ( 'NONE', *, *, #145, .F. ) ;
#285 = EDGE_CURVE ( 'NONE', #255, #255, #190, .T. ) ;
#286 = DIRECTION ( 'NONE',  ( 0.0000000000000000000, -1.000000000000000000, 0.0000000000000000000 ) ) ;
#287 = CC_DESIGN_DATE_AND_TIME_ASSIGNMENT ( #113, #36, ( #41 ) ) ;
#288 = CARTESIAN_POINT ( 'NONE',  ( 1.675911042644703379E-14, -0.8000000000000007105, 4.799999999999998934 ) ) ;
#289 = PLANE ( 'NONE',  #93 ) ;
#290 = VERTEX_POINT ( 'NONE', #204 ) ;
#291 = EDGE_LOOP ( 'NONE', ( #182 ) ) ;
#292 = UNCERTAINTY_MEASURE_WITH_UNIT (LENGTH_MEASURE( 1.000000000000000082E-05 ), #209, 'distance_accuracy_value', 'NONE');
#293 = PLANE ( 'NONE',  #264 ) ;
#294 = COORDINATED_UNIVERSAL_TIME_OFFSET ( 1, 0, .AHEAD. ) ;
#295 = PRODUCT_DEFINITION ( 'UNKNOWN', '', #95, #35 ) ;
#296 = VERTEX_POINT ( 'NONE', #276 ) ;
#297 = COORDINATED_UNIVERSAL_TIME_OFFSET ( 1, 0, .AHEAD. ) ;
#298 = ADVANCED_FACE ( 'NONE', ( #224, #65 ), #323, .T. ) ;
#299 = TOROIDAL_SURFACE ( 'NONE', #64, 2.800000000000000266, 2.000000000000000000 ) ;
#300 = CARTESIAN_POINT ( 'NONE',  ( 5.411796075206856701E-14, -1.911446488537351074E-15, 15.50000000000000000 ) ) ;
#301 = ADVANCED_FACE ( 'NONE', ( #70 ), #38, .F. ) ;
#302 = DIRECTION ( 'NONE',  ( 4.275831445896958607E-31, 1.000000000000000000, 1.224646799147353207E-16 ) ) ;
#303 = MANIFOLD_SOLID_BREP ( 'Corps-Déplacer/Copier4[1]', #21 ) ;
#304 = ORIENTED_EDGE ( 'NONE', *, *, #277, .F. ) ;
#305 = CLOSED_SHELL ( 'NONE', ( #11, #298, #69 ) ) ;
#306 = AXIS2_PLACEMENT_3D ( 'NONE', #227, #4, #78 ) ;
#307 = PERSON_AND_ORGANIZATION_ROLE ( 'creator' ) ;
#308 = FACE_OUTER_BOUND ( 'NONE', #6, .T. ) ;
#309 = EDGE_LOOP ( 'NONE', ( #20 ) ) ;
#310 = ORIENTED_EDGE ( 'NONE', *, *, #63, .F. ) ;
#311 = CALENDAR_DATE ( 2021, 13, 12 ) ;
#312 = AXIS2_PLACEMENT_3D ( 'NONE', #176, #61, #302 ) ;
#313 = DIRECTION ( 'NONE',  ( 0.0000000000000000000, -1.000000000000000000, 0.0000000000000000000 ) ) ;
#314 = CARTESIAN_POINT ( 'NONE',  ( 1.187103655206665341E-14, -0.8000000000000003775, 3.400000000000000355 ) ) ;
#315 = DIRECTION ( 'NONE',  ( 3.491481338843133355E-15, -1.221293900448883903E-16, 1.000000000000000000 ) ) ;
#316 = APPROVAL_PERSON_ORGANIZATION ( #155, #173, #101 ) ;
#317 = APPROVAL_DATE_TIME ( #216, #134 ) ;
#318 = PERSON_AND_ORGANIZATION_ROLE ( 'design_supplier' ) ;
#319 = DIRECTION ( 'NONE',  ( -4.264124862660221187E-31, -1.000000000000000000, -1.221293900448883903E-16 ) ) ;
#320 = CARTESIAN_POINT ( 'NONE',  ( 1.815570296198430607E-14, -6.535137710750009255E-16, 5.200000000000002842 ) ) ;
#321 = DIRECTION ( 'NONE',  ( 3.491481338843133355E-15, -1.221293900448883903E-16, 1.000000000000000000 ) ) ;
#322 = APPROVAL_PERSON_ORGANIZATION ( #183, #126, #212 ) ;
#323 = CYLINDRICAL_SURFACE ( 'NONE', #312, 0.7999999999999997113 ) ;
ENDSEC;
END-ISO-10303-21;
