ISO-10303-21;
HEADER;
FILE_DESCRIPTION (( 'STEP AP203' ),
    '1' );
FILE_NAME ('388787.step',
    '2021-12-13T10:14:54',
    ( '' ),
    ( '' ),
    'SwSTEP 2.0',
    'SolidWorks 2019',
    '' );
FILE_SCHEMA (( 'CONFIG_CONTROL_DESIGN' ));
ENDSEC;

DATA;
#1 = DIRECTION ( 'NONE',  ( 0.0000000000000000000, 1.000000000000000000, 0.0000000000000000000 ) ) ;
#2 = AXIS2_PLACEMENT_3D ( 'NONE', #241, #171, #237 ) ;
#3 = AXIS2_PLACEMENT_3D ( 'NONE', #197, #274, #221 ) ;
#4 = DIRECTION ( 'NONE',  ( -3.491481338843133355E-15, 1.212637059702799026E-16, -1.000000000000000000 ) ) ;
#5 = PRODUCT ( '388787', '388787', '', ( #195 ) ) ;
#6 = DIRECTION ( 'NONE',  ( 0.0000000000000000000, 1.000000000000000000, 0.0000000000000000000 ) ) ;
#7 = CC_DESIGN_PERSON_AND_ORGANIZATION_ASSIGNMENT ( #92, #289, ( #131 ) ) ;
#8 = PRODUCT_DEFINITION_SHAPE ( 'NONE', 'NONE',  #136 ) ;
#9 = APPROVAL_ROLE ( '' ) ;
#10 = EDGE_CURVE ( 'NONE', #301, #301, #83, .T. ) ;
#11 = CALENDAR_DATE ( 2021, 13, 12 ) ;
#12 = PLANE ( 'NONE',  #24 ) ;
#13 = COORDINATED_UNIVERSAL_TIME_OFFSET ( 1, 0, .AHEAD. ) ;
#14 = CYLINDRICAL_SURFACE ( 'NONE', #139, 0.7500000000000000000 ) ;
#15 = PERSON_AND_ORGANIZATION_ROLE ( 'creator' ) ;
#16 = PLANE ( 'NONE',  #51 ) ;
#17 = EDGE_LOOP ( 'NONE', ( #148 ) ) ;
#18 = DIRECTION ( 'NONE',  ( 4.233899664741929704E-31, 1.000000000000000000, 1.212637059702799026E-16 ) ) ;
#19 = EDGE_LOOP ( 'NONE', ( #46 ) ) ;
#20 = CIRCLE ( 'NONE', #187, 0.7499999999999994449 ) ;
#21 = VERTEX_POINT ( 'NONE', #203 ) ;
#22 = DIRECTION ( 'NONE',  ( -3.491481338843133355E-15, 1.212637059702799026E-16, -1.000000000000000000 ) ) ;
#23 = CC_DESIGN_PERSON_AND_ORGANIZATION_ASSIGNMENT ( #180, #15, ( #136 ) ) ;
#24 = AXIS2_PLACEMENT_3D ( 'NONE', #189, #170, #267 ) ;
#25 = CARTESIAN_POINT ( 'NONE',  ( 1.571166602479410010E-14, -5.913236867555655114E-16, 4.500000000000000000 ) ) ;
#26 = ORIENTED_EDGE ( 'NONE', *, *, #10, .T. ) ;
#27 = EDGE_LOOP ( 'NONE', ( #99 ) ) ;
#28 = DIRECTION ( 'NONE',  ( -3.491481338843133355E-15, 1.212637059702799026E-16, -1.000000000000000000 ) ) ;
#29 = DIRECTION ( 'NONE',  ( -3.491481338843133355E-15, 1.212637059702799026E-16, -1.000000000000000000 ) ) ;
#30 = CIRCLE ( 'NONE', #219, 1.599999999999997646 ) ;
#31 = CALENDAR_DATE ( 2021, 13, 12 ) ;
#32 = DATE_AND_TIME ( #11, #128 ) ;
#33 = DIRECTION ( 'NONE',  ( 4.275831445896958607E-31, 1.000000000000000000, 1.224646799147353454E-16 ) ) ;
#34 = DATE_AND_TIME ( #31, #302 ) ;
#35 = UNCERTAINTY_MEASURE_WITH_UNIT (LENGTH_MEASURE( 1.000000000000000082E-05 ), #84, 'distance_accuracy_value', 'NONE');
#36 = LOCAL_TIME ( 11, 14, 54.00000000000000000, #116 ) ;
#37 = DIRECTION ( 'NONE',  ( 0.0000000000000000000, 1.000000000000000000, 0.0000000000000000000 ) ) ;
#38 = PERSON_AND_ORGANIZATION ( #55, #91 ) ;
#39 = FACE_OUTER_BOUND ( 'NONE', #115, .T. ) ;
#40 = EDGE_LOOP ( 'NONE', ( #202 ) ) ;
#41 = FACE_BOUND ( 'NONE', #258, .T. ) ;
#42 = EDGE_LOOP ( 'NONE', ( #253 ) ) ;
#43 = CC_DESIGN_APPROVAL ( #79, ( #136 ) ) ;
#44 = FACE_OUTER_BOUND ( 'NONE', #144, .T. ) ;
#45 = ORIENTED_EDGE ( 'NONE', *, *, #165, .F. ) ;
#46 = ORIENTED_EDGE ( 'NONE', *, *, #10, .F. ) ;
#47 = CONICAL_SURFACE ( 'NONE', #193, 1.999999999999997780, 0.7853981633974516097 ) ;
#48 = DIRECTION ( 'NONE',  ( -3.491481338843133355E-15, 1.224646799147353207E-16, -1.000000000000000000 ) ) ;
#49 = CIRCLE ( 'NONE', #266, 1.149999999999999911 ) ;
#50 = CARTESIAN_POINT ( 'NONE',  ( 1.117274028429802674E-14, -4.336808689942017736E-16, 3.200000000000000178 ) ) ;
#51 = AXIS2_PLACEMENT_3D ( 'NONE', #183, #143, #145 ) ;
#52 = ADVANCED_FACE ( 'NONE', ( #303, #186 ), #284, .T. ) ;
#53 = CARTESIAN_POINT ( 'NONE',  ( 2.901682989385142742E-14, -1.053429401414305478E-15, 8.310750388677677236 ) ) ;
#54 = FACE_OUTER_BOUND ( 'NONE', #42, .T. ) ;
#55 = PERSON ( 'UNSPECIFIED', 'UNSPECIFIED', 'UNSPECIFIED', ('UNSPECIFIED'), ('UNSPECIFIED'), ('UNSPECIFIED') ) ;
#56 = DATE_AND_TIME ( #141, #36 ) ;
#57 = AXIS2_PLACEMENT_3D ( 'NONE', #196, #142, #226 ) ;
#58 = DATE_TIME_ROLE ( 'classification_date' ) ;
#59 = FACE_OUTER_BOUND ( 'NONE', #281, .T. ) ;
#60 =( NAMED_UNIT ( * ) SI_UNIT ( $, .STERADIAN. ) SOLID_ANGLE_UNIT ( ) );
#61 = APPROVAL_ROLE ( '' ) ;
#62 = CARTESIAN_POINT ( 'NONE',  ( 1.117274028429802674E-14, 0.7499999999999994449, 3.200000000000000178 ) ) ;
#63 = FACE_OUTER_BOUND ( 'NONE', #124, .T. ) ;
#64 = EDGE_LOOP ( 'NONE', ( #118 ) ) ;
#65 = LOCAL_TIME ( 11, 14, 54.00000000000000000, #89 ) ;
#66 = APPROVAL_ROLE ( '' ) ;
#67 = CARTESIAN_POINT ( 'NONE',  ( 2.137183397710474803E-32, 0.7499999999999994449, 6.121136532892404794E-18 ) ) ;
#68 = MANIFOLD_SOLID_BREP ( 'Corps-Déplacer/Copier3[2]', #200 ) ;
#69 = DIRECTION ( 'NONE',  ( 7.703719777548953922E-31, 1.000000000000000000, 2.168404344971011826E-16 ) ) ;
#70 = EDGE_CURVE ( 'NONE', #117, #117, #119, .T. ) ;
#71 = ORIENTED_EDGE ( 'NONE', *, *, #252, .F. ) ;
#72 = AXIS2_PLACEMENT_3D ( 'NONE', #25, #211, #102 ) ;
#73 = AXIS2_PLACEMENT_3D ( 'NONE', #50, #4, #217 ) ;
#74 = CARTESIAN_POINT ( 'NONE',  ( 1.312796983405018142E-13, 1.999999999999993117, 37.60000000000000142 ) ) ;
#75 = ADVANCED_FACE ( 'NONE', ( #97, #166 ), #262, .T. ) ;
#76 = AXIS2_PLACEMENT_3D ( 'NONE', #158, #181, #222 ) ;
#77 = DIRECTION ( 'NONE',  ( -3.491481338843133355E-15, 1.212637059702799026E-16, -1.000000000000000000 ) ) ;
#78 = FACE_OUTER_BOUND ( 'NONE', #17, .T. ) ;
#79 = APPROVAL ( #242, 'UNSPECIFIED' ) ;
#80 = CIRCLE ( 'NONE', #255, 1.999999999999996669 ) ;
#81 = FACE_OUTER_BOUND ( 'NONE', #146, .T. ) ;
#82 = ADVANCED_FACE ( 'NONE', ( #78, #168 ), #264, .T. ) ;
#83 = CIRCLE ( 'NONE', #290, 0.7499999999999998890 ) ;
#84 =( LENGTH_UNIT ( ) NAMED_UNIT ( * ) SI_UNIT ( .MILLI., .METRE. ) );
#85 = APPLICATION_PROTOCOL_DEFINITION ( 'international standard', 'config_control_design', 1994, #209 ) ;
#86 = CARTESIAN_POINT ( 'NONE',  ( 1.312796983405018142E-13, -4.605152354371830719E-15, 37.60000000000000142 ) ) ;
#87 = CYLINDRICAL_SURFACE ( 'NONE', #201, 1.959999999999999964 ) ;
#88 = EDGE_CURVE ( 'NONE', #298, #298, #49, .T. ) ;
#89 = COORDINATED_UNIVERSAL_TIME_OFFSET ( 1, 0, .AHEAD. ) ;
#90 = DIRECTION ( 'NONE',  ( 0.0000000000000000000, 1.000000000000000000, 0.0000000000000000000 ) ) ;
#91 = ORGANIZATION ( 'UNSPECIFIED', 'UNSPECIFIED', '' ) ;
#92 = PERSON_AND_ORGANIZATION ( #55, #91 ) ;
#93 = ORIENTED_EDGE ( 'NONE', *, *, #125, .F. ) ;
#94 = VERTEX_POINT ( 'NONE', #137 ) ;
#95 = ORIENTED_EDGE ( 'NONE', *, *, #70, .T. ) ;
#96 = CLOSED_SHELL ( 'NONE', ( #229, #52, #263, #82, #204, #98, #276, #282, #214 ) ) ;
#97 = FACE_OUTER_BOUND ( 'NONE', #300, .T. ) ;
#98 = ADVANCED_FACE ( 'NONE', ( #265, #59 ), #47, .T. ) ;
#99 = ORIENTED_EDGE ( 'NONE', *, *, #88, .F. ) ;
#100 = ORIENTED_EDGE ( 'NONE', *, *, #101, .T. ) ;
#101 = EDGE_CURVE ( 'NONE', #21, #21, #138, .T. ) ;
#102 = DIRECTION ( 'NONE',  ( 0.0000000000000000000, -1.000000000000000000, 0.0000000000000000000 ) ) ;
#103 = DIRECTION ( 'NONE',  ( 0.0000000000000000000, 1.000000000000000000, 0.0000000000000000000 ) ) ;
#104 = CIRCLE ( 'NONE', #164, 1.999999999999997780 ) ;
#105 = CARTESIAN_POINT ( 'NONE',  ( 3.456566525454702022E-14, -1.246147698995077355E-15, 9.900000000000000355 ) ) ;
#106 = APPROVAL_DATE_TIME ( #176, #261 ) ;
#107 = PERSON_AND_ORGANIZATION_ROLE ( 'design_owner' ) ;
#108 = CARTESIAN_POINT ( 'NONE',  ( 1.571166602479410010E-14, -5.913236867555655114E-16, 4.500000000000000000 ) ) ;
#109 = DATE_TIME_ROLE ( 'creation_date' ) ;
#110 = CC_DESIGN_PERSON_AND_ORGANIZATION_ASSIGNMENT ( #296, #224, ( #210 ) ) ;
#111 = DESIGN_CONTEXT ( 'detailed design', #209, 'design' ) ;
#112 = DIRECTION ( 'NONE',  ( -3.491481338843133355E-15, 1.212637059702799026E-16, -1.000000000000000000 ) ) ;
#113 = DATE_AND_TIME ( #156, #65 ) ;
#114 = FACE_OUTER_BOUND ( 'NONE', #228, .T. ) ;
#115 = EDGE_LOOP ( 'NONE', ( #256 ) ) ;
#116 = COORDINATED_UNIVERSAL_TIME_OFFSET ( 1, 0, .AHEAD. ) ;
#117 = VERTEX_POINT ( 'NONE', #199 ) ;
#118 = ORIENTED_EDGE ( 'NONE', *, *, #165, .T. ) ;
#119 = CIRCLE ( 'NONE', #269, 0.7500000000000000000 ) ;
#120 = EDGE_CURVE ( 'NONE', #277, #277, #20, .T. ) ;
#121 = DIRECTION ( 'NONE',  ( -3.491481338843133355E-15, 1.212637059702799026E-16, -1.000000000000000000 ) ) ;
#122 = EDGE_LOOP ( 'NONE', ( #162 ) ) ;
#123 = FACE_OUTER_BOUND ( 'NONE', #223, .T. ) ;
#124 = EDGE_LOOP ( 'NONE', ( #100 ) ) ;
#125 = EDGE_CURVE ( 'NONE', #160, #160, #178, .T. ) ;
#126 = CARTESIAN_POINT ( 'NONE',  ( 1.571166602479410010E-14, -5.913236867555655114E-16, 4.500000000000000000 ) ) ;
#127 = EDGE_LOOP ( 'NONE', ( #93 ) ) ;
#128 = LOCAL_TIME ( 11, 14, 54.00000000000000000, #13 ) ;
#129 = DIRECTION ( 'NONE',  ( 0.0000000000000000000, 1.000000000000000000, 0.0000000000000000000 ) ) ;
#130 = CARTESIAN_POINT ( 'NONE',  ( 3.456566525454702022E-14, -1.246147698995077355E-15, 9.900000000000000355 ) ) ;
#131 = SECURITY_CLASSIFICATION ( '', '', #216 ) ;
#132 = PERSON_AND_ORGANIZATION ( #55, #91 ) ;
#133 = DIRECTION ( 'NONE',  ( -3.491481338843133355E-15, 1.212637059702799026E-16, -1.000000000000000000 ) ) ;
#134 = PERSON_AND_ORGANIZATION ( #55, #91 ) ;
#135 = FACE_OUTER_BOUND ( 'NONE', #19, .T. ) ;
#136 = PRODUCT_DEFINITION ( 'UNKNOWN', '', #210, #111 ) ;
#137 = CARTESIAN_POINT ( 'NONE',  ( 3.456566525454702022E-14, 1.999999999999995337, 9.900000000000000355 ) ) ;
#138 = CIRCLE ( 'NONE', #73, 0.7499999999999998890 ) ;
#139 = AXIS2_PLACEMENT_3D ( 'NONE', #246, #254, #37 ) ;
#140 = DIRECTION ( 'NONE',  ( -3.491481338843133355E-15, 1.212637059702799026E-16, -1.000000000000000000 ) ) ;
#141 = CALENDAR_DATE ( 2021, 13, 12 ) ;
#142 = DIRECTION ( 'NONE',  ( 3.491481338843133355E-15, -1.224646799147353207E-16, 1.000000000000000000 ) ) ;
#143 = DIRECTION ( 'NONE',  ( -3.491481338843133355E-15, 1.212637059702799026E-16, -1.000000000000000000 ) ) ;
#144 = EDGE_LOOP ( 'NONE', ( #295 ) ) ;
#145 = DIRECTION ( 'NONE',  ( 4.233899664741929704E-31, 1.000000000000000000, 1.212637059702799026E-16 ) ) ;
#146 = EDGE_LOOP ( 'NONE', ( #182 ) ) ;
#147 = LOCAL_TIME ( 11, 14, 54.00000000000000000, #154 ) ;
#148 = ORIENTED_EDGE ( 'NONE', *, *, #179, .T. ) ;
#149 = ADVANCED_FACE ( 'NONE', ( #135 ), #12, .T. ) ;
#150 = ORIENTED_EDGE ( 'NONE', *, *, #259, .F. ) ;
#151 = AXIS2_PLACEMENT_3D ( 'NONE', #172, #251, #69 ) ;
#152 = CYLINDRICAL_SURFACE ( 'NONE', #151, 1.999999999999997335 ) ;
#153 = APPROVAL_STATUS ( 'not_yet_approved' ) ;
#154 = COORDINATED_UNIVERSAL_TIME_OFFSET ( 1, 0, .AHEAD. ) ;
#155 = DIRECTION ( 'NONE',  ( -3.491481338843133355E-15, 1.212637059702799026E-16, -1.000000000000000000 ) ) ;
#156 = CALENDAR_DATE ( 2021, 13, 12 ) ;
#157 = APPROVAL_DATE_TIME ( #113, #163 ) ;
#158 = CARTESIAN_POINT ( 'NONE',  ( 1.326762908760390423E-13, -4.653657836759941941E-15, 38.00000000000000000 ) ) ;
#159 = ORIENTED_EDGE ( 'NONE', *, *, #259, .T. ) ;
#160 = VERTEX_POINT ( 'NONE', #270 ) ;
#161 = DIRECTION ( 'NONE',  ( 0.0000000000000000000, 1.000000000000000000, 0.0000000000000000000 ) ) ;
#162 = ORIENTED_EDGE ( 'NONE', *, *, #88, .T. ) ;
#163 = APPROVAL ( #153, 'UNSPECIFIED' ) ;
#164 = AXIS2_PLACEMENT_3D ( 'NONE', #225, #140, #161 ) ;
#165 = EDGE_CURVE ( 'NONE', #243, #243, #280, .T. ) ;
#166 = FACE_OUTER_BOUND ( 'NONE', #287, .T. ) ;
#167 = MANIFOLD_SOLID_BREP ( 'Corps-Déplacer/Copier3[1]', #96 ) ;
#168 = FACE_BOUND ( 'NONE', #127, .T. ) ;
#169 = APPROVAL_PERSON_ORGANIZATION ( #132, #261, #9 ) ;
#170 = DIRECTION ( 'NONE',  ( 3.491481338843133355E-15, -1.224646799147353207E-16, 1.000000000000000000 ) ) ;
#171 = DIRECTION ( 'NONE',  ( -3.491481338843133355E-15, 1.212637059702799026E-16, -1.000000000000000000 ) ) ;
#172 = CARTESIAN_POINT ( 'NONE',  ( 1.117274028429802674E-14, -4.336808689942017736E-16, 3.200000000000000178 ) ) ;
#173 = PERSON_AND_ORGANIZATION_ROLE ( 'design_supplier' ) ;
#174 = PERSON_AND_ORGANIZATION ( #55, #91 ) ;
#175 = CARTESIAN_POINT ( 'NONE',  ( 1.571166602479410010E-14, 1.149999999999999245, 4.500000000000000000 ) ) ;
#176 = DATE_AND_TIME ( #218, #147 ) ;
#177 = CARTESIAN_POINT ( 'NONE',  ( 1.326762908760390423E-13, -4.653657836759941941E-15, 38.00000000000000000 ) ) ;
#178 = CIRCLE ( 'NONE', #236, 1.959999999999999964 ) ;
#179 = EDGE_CURVE ( 'NONE', #94, #94, #80, .T. ) ;
#180 = PERSON_AND_ORGANIZATION ( #55, #91 ) ;
#181 = DIRECTION ( 'NONE',  ( 3.491481338843133355E-15, -1.212637059702799026E-16, 1.000000000000000000 ) ) ;
#182 = ORIENTED_EDGE ( 'NONE', *, *, #252, .T. ) ;
#183 = CARTESIAN_POINT ( 'NONE',  ( 1.571166602479410010E-14, 1.149999999999999245, 4.500000000000000000 ) ) ;
#184 = CC_DESIGN_PERSON_AND_ORGANIZATION_ASSIGNMENT ( #291, #107, ( #5 ) ) ;
#185 = ORIENTED_EDGE ( 'NONE', *, *, #120, .F. ) ;
#186 = FACE_BOUND ( 'NONE', #27, .T. ) ;
#187 = AXIS2_PLACEMENT_3D ( 'NONE', #268, #292, #33 ) ;
#188 = EDGE_LOOP ( 'NONE', ( #95 ) ) ;
#189 = CARTESIAN_POINT ( 'NONE',  ( 1.117274028429802674E-14, 5.624099184981958503E-33, 3.200000000000000178 ) ) ;
#190 = DIRECTION ( 'NONE',  ( 0.0000000000000000000, 1.000000000000000000, 0.0000000000000000000 ) ) ;
#191 = SHAPE_DEFINITION_REPRESENTATION ( #8, #207 ) ;
#192 = APPLICATION_CONTEXT ( 'configuration controlled 3d designs of mechanical parts and assemblies' ) ;
#193 = AXIS2_PLACEMENT_3D ( 'NONE', #86, #155, #103 ) ;
#194 =( NAMED_UNIT ( * ) PLANE_ANGLE_UNIT ( ) SI_UNIT ( $, .RADIAN. ) );
#195 = MECHANICAL_CONTEXT ( 'NONE', #192, 'mechanical' ) ;
#196 = CARTESIAN_POINT ( 'NONE',  ( -1.496577622325834519E-31, 5.249287671874432113E-33, -4.286368670157951514E-17 ) ) ;
#197 = CARTESIAN_POINT ( 'NONE',  ( 0.0000000000000000000, 0.0000000000000000000, 0.0000000000000000000 ) ) ;
#198 = FACE_OUTER_BOUND ( 'NONE', #122, .T. ) ;
#199 = CARTESIAN_POINT ( 'NONE',  ( 1.571166602479410010E-14, 0.7499999999999994449, 4.500000000000000000 ) ) ;
#200 = CLOSED_SHELL ( 'NONE', ( #235, #75, #149 ) ) ;
#201 = AXIS2_PLACEMENT_3D ( 'NONE', #230, #22, #273 ) ;
#202 = ORIENTED_EDGE ( 'NONE', *, *, #120, .T. ) ;
#203 = CARTESIAN_POINT ( 'NONE',  ( 1.117274028429802674E-14, 0.7499999999999994449, 3.200000000000000178 ) ) ;
#204 = ADVANCED_FACE ( 'NONE', ( #81, #54 ), #152, .T. ) ;
#205 = CARTESIAN_POINT ( 'NONE',  ( 1.117274028429802674E-14, 0.7499999999999994449, 3.200000000000000178 ) ) ;
#206 = CC_DESIGN_APPROVAL ( #261, ( #131 ) ) ;
#207 = ADVANCED_BREP_SHAPE_REPRESENTATION ( '388787', ( #167, #68, #3 ), #245 ) ;
#208 = DIRECTION ( 'NONE',  ( 4.275831445896958607E-31, 1.000000000000000000, 1.224646799147353454E-16 ) ) ;
#209 = APPLICATION_CONTEXT ( 'configuration controlled 3d designs of mechanical parts and assemblies' ) ;
#210 = PRODUCT_DEFINITION_FORMATION_WITH_SPECIFIED_SOURCE ( 'ANY', '', #5, .NOT_KNOWN. ) ;
#211 = DIRECTION ( 'NONE',  ( 3.491481338843133355E-15, -1.212637059702799026E-16, 1.000000000000000000 ) ) ;
#212 = PRODUCT_RELATED_PRODUCT_CATEGORY ( 'detail', '', ( #5 ) ) ;
#213 = APPROVAL_PERSON_ORGANIZATION ( #134, #163, #61 ) ;
#214 = ADVANCED_FACE ( 'NONE', ( #220, #39 ), #14, .T. ) ;
#215 = APPROVAL_STATUS ( 'not_yet_approved' ) ;
#216 = SECURITY_CLASSIFICATION_LEVEL ( 'unclassified' ) ;
#217 = DIRECTION ( 'NONE',  ( 0.0000000000000000000, 1.000000000000000000, 0.0000000000000000000 ) ) ;
#218 = CALENDAR_DATE ( 2021, 13, 12 ) ;
#219 = AXIS2_PLACEMENT_3D ( 'NONE', #177, #121, #90 ) ;
#220 = FACE_OUTER_BOUND ( 'NONE', #188, .T. ) ;
#221 = DIRECTION ( 'NONE',  ( 1.000000000000000000, 0.0000000000000000000, 0.0000000000000000000 ) ) ;
#222 = DIRECTION ( 'NONE',  ( -4.233899664741929704E-31, -1.000000000000000000, -1.212637059702799026E-16 ) ) ;
#223 = EDGE_LOOP ( 'NONE', ( #150 ) ) ;
#224 = PERSON_AND_ORGANIZATION_ROLE ( 'creator' ) ;
#225 = CARTESIAN_POINT ( 'NONE',  ( 1.312796983405018142E-13, -4.605152354371830719E-15, 37.60000000000000142 ) ) ;
#226 = DIRECTION ( 'NONE',  ( -4.275831445896958607E-31, -1.000000000000000000, -1.224646799147353207E-16 ) ) ;
#227 = AXIS2_PLACEMENT_3D ( 'NONE', #53, #238, #288 ) ;
#228 = EDGE_LOOP ( 'NONE', ( #45 ) ) ;
#229 = ADVANCED_FACE ( 'NONE', ( #198, #41 ), #16, .T. ) ;
#230 = CARTESIAN_POINT ( 'NONE',  ( 1.117274028429802674E-14, -4.336808689942017736E-16, 3.200000000000000178 ) ) ;
#231 = DIRECTION ( 'NONE',  ( 0.0000000000000000000, 1.000000000000000000, 0.0000000000000000000 ) ) ;
#232 = DIRECTION ( 'NONE',  ( -3.491481338843133355E-15, 1.224646799147353207E-16, -1.000000000000000000 ) ) ;
#233 = CARTESIAN_POINT ( 'NONE',  ( 0.0000000000000000000, 0.0000000000000000000, 0.0000000000000000000 ) ) ;
#234 = AXIS2_PLACEMENT_3D ( 'NONE', #233, #48, #208 ) ;
#235 = ADVANCED_FACE ( 'NONE', ( #294 ), #293, .F. ) ;
#236 = AXIS2_PLACEMENT_3D ( 'NONE', #130, #28, #190 ) ;
#237 = DIRECTION ( 'NONE',  ( 4.233899664741929704E-31, 1.000000000000000000, 1.212637059702799026E-16 ) ) ;
#238 = DIRECTION ( 'NONE',  ( -3.491481338843133355E-15, 1.212637059702799026E-16, -1.000000000000000000 ) ) ;
#239 = APPROVAL_PERSON_ORGANIZATION ( #38, #79, #66 ) ;
#240 = COORDINATED_UNIVERSAL_TIME_OFFSET ( 1, 0, .AHEAD. ) ;
#241 = CARTESIAN_POINT ( 'NONE',  ( 3.456566525454702022E-14, 1.999999999999995337, 9.900000000000000355 ) ) ;
#242 = APPROVAL_STATUS ( 'not_yet_approved' ) ;
#243 = VERTEX_POINT ( 'NONE', #299 ) ;
#244 = CC_DESIGN_PERSON_AND_ORGANIZATION_ASSIGNMENT ( #174, #173, ( #210 ) ) ;
#245 =( GEOMETRIC_REPRESENTATION_CONTEXT ( 3 ) GLOBAL_UNCERTAINTY_ASSIGNED_CONTEXT ( ( #35 ) ) GLOBAL_UNIT_ASSIGNED_CONTEXT ( ( #84, #194, #60 ) ) REPRESENTATION_CONTEXT ( 'NONE', 'WORKASPACE' ) );
#246 = CARTESIAN_POINT ( 'NONE',  ( 1.117274028429802674E-14, -4.336808689942017736E-16, 3.200000000000000178 ) ) ;
#247 = CC_DESIGN_DATE_AND_TIME_ASSIGNMENT ( #34, #58, ( #131 ) ) ;
#248 = APPROVAL_DATE_TIME ( #32, #79 ) ;
#249 = PLANE ( 'NONE',  #286 ) ;
#250 = EDGE_LOOP ( 'NONE', ( #159 ) ) ;
#251 = DIRECTION ( 'NONE',  ( -3.491481338843133355E-15, 1.212637059702799026E-16, -1.000000000000000000 ) ) ;
#252 = EDGE_CURVE ( 'NONE', #278, #278, #104, .T. ) ;
#253 = ORIENTED_EDGE ( 'NONE', *, *, #179, .F. ) ;
#254 = DIRECTION ( 'NONE',  ( -3.491481338843133355E-15, 1.212637059702799026E-16, -1.000000000000000000 ) ) ;
#255 = AXIS2_PLACEMENT_3D ( 'NONE', #105, #29, #129 ) ;
#256 = ORIENTED_EDGE ( 'NONE', *, *, #101, .F. ) ;
#257 = VERTEX_POINT ( 'NONE', #279 ) ;
#258 = EDGE_LOOP ( 'NONE', ( #283 ) ) ;
#259 = EDGE_CURVE ( 'NONE', #257, #257, #30, .T. ) ;
#260 = CC_DESIGN_APPROVAL ( #163, ( #210 ) ) ;
#261 = APPROVAL ( #215, 'UNSPECIFIED' ) ;
#262 = CYLINDRICAL_SURFACE ( 'NONE', #234, 0.7499999999999996669 ) ;
#263 = ADVANCED_FACE ( 'NONE', ( #44, #114 ), #87, .T. ) ;
#264 = PLANE ( 'NONE',  #2 ) ;
#265 = FACE_BOUND ( 'NONE', #250, .T. ) ;
#266 = AXIS2_PLACEMENT_3D ( 'NONE', #108, #133, #6 ) ;
#267 = DIRECTION ( 'NONE',  ( -4.275831445896958607E-31, -1.000000000000000000, -1.224646799147353207E-16 ) ) ;
#268 = CARTESIAN_POINT ( 'NONE',  ( -2.993155244651669039E-31, 1.049857534374886423E-32, -8.572737340315903028E-17 ) ) ;
#269 = AXIS2_PLACEMENT_3D ( 'NONE', #126, #77, #1 ) ;
#270 = CARTESIAN_POINT ( 'NONE',  ( 3.456566525454702022E-14, 1.959999999999998632, 9.900000000000000355 ) ) ;
#271 = CC_DESIGN_DATE_AND_TIME_ASSIGNMENT ( #56, #109, ( #136 ) ) ;
#272 = APPLICATION_PROTOCOL_DEFINITION ( 'international standard', 'config_control_design', 1994, #192 ) ;
#273 = DIRECTION ( 'NONE',  ( 7.860938548519330173E-31, 1.000000000000000000, 2.212657494868376441E-16 ) ) ;
#274 = DIRECTION ( 'NONE',  ( 0.0000000000000000000, 0.0000000000000000000, 1.000000000000000000 ) ) ;
#275 = PLANE ( 'NONE',  #76 ) ;
#276 = ADVANCED_FACE ( 'NONE', ( #123 ), #275, .T. ) ;
#277 = VERTEX_POINT ( 'NONE', #67 ) ;
#278 = VERTEX_POINT ( 'NONE', #74 ) ;
#279 = CARTESIAN_POINT ( 'NONE',  ( 1.326762908760390423E-13, 1.599999999999993205, 38.00000000000000000 ) ) ;
#280 = CIRCLE ( 'NONE', #227, 1.959999999999999520 ) ;
#281 = EDGE_LOOP ( 'NONE', ( #71 ) ) ;
#282 = ADVANCED_FACE ( 'NONE', ( #63 ), #249, .T. ) ;
#283 = ORIENTED_EDGE ( 'NONE', *, *, #70, .F. ) ;
#284 = CONICAL_SURFACE ( 'NONE', #72, 1.149999999999999911, 0.2094395102393125097 ) ;
#285 = CARTESIAN_POINT ( 'NONE',  ( 1.117274028429802674E-14, -3.918869757271530460E-16, 3.200000000000000178 ) ) ;
#286 = AXIS2_PLACEMENT_3D ( 'NONE', #205, #112, #18 ) ;
#287 = EDGE_LOOP ( 'NONE', ( #26 ) ) ;
#288 = DIRECTION ( 'NONE',  ( 0.0000000000000000000, 1.000000000000000000, 0.0000000000000000000 ) ) ;
#289 = PERSON_AND_ORGANIZATION_ROLE ( 'classification_officer' ) ;
#290 = AXIS2_PLACEMENT_3D ( 'NONE', #285, #232, #231 ) ;
#291 = PERSON_AND_ORGANIZATION ( #55, #91 ) ;
#292 = DIRECTION ( 'NONE',  ( -3.491481338843133355E-15, 1.224646799147353207E-16, -1.000000000000000000 ) ) ;
#293 = PLANE ( 'NONE',  #57 ) ;
#294 = FACE_OUTER_BOUND ( 'NONE', #40, .T. ) ;
#295 = ORIENTED_EDGE ( 'NONE', *, *, #125, .T. ) ;
#296 = PERSON_AND_ORGANIZATION ( #55, #91 ) ;
#297 = CC_DESIGN_SECURITY_CLASSIFICATION ( #131, ( #210 ) ) ;
#298 = VERTEX_POINT ( 'NONE', #175 ) ;
#299 = CARTESIAN_POINT ( 'NONE',  ( 2.901682989385142742E-14, 1.959999999999998632, 8.310750388677677236 ) ) ;
#300 = EDGE_LOOP ( 'NONE', ( #185 ) ) ;
#301 = VERTEX_POINT ( 'NONE', #62 ) ;
#302 = LOCAL_TIME ( 11, 14, 54.00000000000000000, #240 ) ;
#303 = FACE_OUTER_BOUND ( 'NONE', #64, .T. ) ;
ENDSEC;
END-ISO-10303-21;
