ISO-10303-21;
HEADER;
FILE_DESCRIPTION (( 'STEP AP203' ),
    '1' );
FILE_NAME ('388786.step',
    '2021-12-13T10:14:53',
    ( '' ),
    ( '' ),
    'SwSTEP 2.0',
    'SolidWorks 2019',
    '' );
FILE_SCHEMA (( 'CONFIG_CONTROL_DESIGN' ));
ENDSEC;

DATA;
#1 = ADVANCED_BREP_SHAPE_REPRESENTATION ( '388786', ( #180, #293, #84 ), #247 ) ;
#2 = DIRECTION ( 'NONE',  ( 0.0000000000000000000, 1.000000000000000000, 0.0000000000000000000 ) ) ;
#3 = APPROVAL ( #211, 'UNSPECIFIED' ) ;
#4 = CARTESIAN_POINT ( 'NONE',  ( 3.421651712066271319E-14, -1.166206390548428260E-15, 9.800000000000002487 ) ) ;
#5 = FACE_OUTER_BOUND ( 'NONE', #292, .T. ) ;
#6 = APPROVAL_PERSON_ORGANIZATION ( #299, #25, #321 ) ;
#7 = DIRECTION ( 'NONE',  ( 3.491481338843133355E-15, -1.236684910004083010E-16, 1.000000000000000000 ) ) ;
#8 = PRODUCT_DEFINITION_SHAPE ( 'NONE', 'NONE',  #254 ) ;
#9 = CARTESIAN_POINT ( 'NONE',  ( 1.047444401652940007E-14, 0.6999999999999995115, 3.000000000000000000 ) ) ;
#10 = EDGE_CURVE ( 'NONE', #145, #145, #67, .T. ) ;
#11 = CARTESIAN_POINT ( 'NONE',  ( 1.326762908760390423E-13, -4.653657836759941941E-15, 38.00000000000000000 ) ) ;
#12 = AXIS2_PLACEMENT_3D ( 'NONE', #204, #222, #158 ) ;
#13 = DIRECTION ( 'NONE',  ( -4.317862285308156031E-31, -1.000000000000000000, -1.236684910004083010E-16 ) ) ;
#14 = DIRECTION ( 'NONE',  ( 3.491481338843133355E-15, -1.236684910004083010E-16, 1.000000000000000000 ) ) ;
#15 = APPLICATION_PROTOCOL_DEFINITION ( 'international standard', 'config_control_design', 1994, #185 ) ;
#16 = AXIS2_PLACEMENT_3D ( 'NONE', #11, #88, #110 ) ;
#17 = CC_DESIGN_PERSON_AND_ORGANIZATION_ASSIGNMENT ( #267, #27, ( #254 ) ) ;
#18 = DATE_TIME_ROLE ( 'creation_date' ) ;
#19 = EDGE_LOOP ( 'NONE', ( #126 ) ) ;
#20 = APPROVAL_ROLE ( '' ) ;
#21 = EDGE_LOOP ( 'NONE', ( #210 ) ) ;
#22 = APPROVAL_STATUS ( 'not_yet_approved' ) ;
#23 = DIRECTION ( 'NONE',  ( 4.275831445896958607E-31, 1.000000000000000000, 1.224646799147353207E-16 ) ) ;
#24 = APPROVAL_DATE_TIME ( #317, #3 ) ;
#25 = APPROVAL ( #188, 'UNSPECIFIED' ) ;
#26 = FACE_BOUND ( 'NONE', #208, .T. ) ;
#27 = PERSON_AND_ORGANIZATION_ROLE ( 'creator' ) ;
#28 = AXIS2_PLACEMENT_3D ( 'NONE', #233, #42, #48 ) ;
#29 = ORIENTED_EDGE ( 'NONE', *, *, #51, .F. ) ;
#30 = CIRCLE ( 'NONE', #248, 1.999999999999997780 ) ;
#31 = ADVANCED_FACE ( 'NONE', ( #76, #150 ), #214, .F. ) ;
#32 = ORIENTED_EDGE ( 'NONE', *, *, #189, .T. ) ;
#33 = DIRECTION ( 'NONE',  ( 3.491481338843133355E-15, -1.236684910004083010E-16, 1.000000000000000000 ) ) ;
#34 = PLANE ( 'NONE',  #16 ) ;
#35 = LOCAL_TIME ( 11, 14, 53.00000000000000000, #167 ) ;
#36 = DIRECTION ( 'NONE',  ( 0.0000000000000000000, -1.000000000000000000, 0.0000000000000000000 ) ) ;
#37 = DIRECTION ( 'NONE',  ( 0.0000000000000000000, -1.000000000000000000, 0.0000000000000000000 ) ) ;
#38 = DIRECTION ( 'NONE',  ( 4.275831445896958607E-31, 1.000000000000000000, 1.224646799147353207E-16 ) ) ;
#39 = EDGE_CURVE ( 'NONE', #187, #187, #323, .T. ) ;
#40 = CLOSED_SHELL ( 'NONE', ( #246, #115, #285, #60, #173, #31, #308, #87, #120, #220 ) ) ;
#41 = AXIS2_PLACEMENT_3D ( 'NONE', #266, #197, #318 ) ;
#42 = DIRECTION ( 'NONE',  ( 3.491481338843133355E-15, -1.236684910004083010E-16, 1.000000000000000000 ) ) ;
#43 = CARTESIAN_POINT ( 'NONE',  ( 1.550217714446351020E-14, -1.149999999999999911, 4.439999999999999503 ) ) ;
#44 = UNCERTAINTY_MEASURE_WITH_UNIT (LENGTH_MEASURE( 1.000000000000000082E-05 ), #209, 'distance_accuracy_value', 'NONE');
#45 = PRODUCT_DEFINITION_FORMATION_WITH_SPECIFIED_SOURCE ( 'ANY', '', #156, .NOT_KNOWN. ) ;
#46 = CARTESIAN_POINT ( 'NONE',  ( 0.0000000000000000000, 0.0000000000000000000, 0.0000000000000000000 ) ) ;
#47 = CARTESIAN_POINT ( 'NONE',  ( 1.047444401652940953E-14, -0.7000000000000001776, 3.000000000000002665 ) ) ;
#48 = DIRECTION ( 'NONE',  ( 0.0000000000000000000, -1.000000000000000000, 0.0000000000000000000 ) ) ;
#49 = DATE_AND_TIME ( #53, #201 ) ;
#50 = EDGE_LOOP ( 'NONE', ( #102 ) ) ;
#51 = EDGE_CURVE ( 'NONE', #140, #140, #160, .T. ) ;
#52 = PLANE ( 'NONE',  #305 ) ;
#53 = CALENDAR_DATE ( 2021, 13, 12 ) ;
#54 = ORIENTED_EDGE ( 'NONE', *, *, #189, .F. ) ;
#55 = APPROVAL_DATE_TIME ( #174, #25 ) ;
#56 = ORIENTED_EDGE ( 'NONE', *, *, #184, .T. ) ;
#57 = CARTESIAN_POINT ( 'NONE',  ( -2.779363672356821459E-31, 9.748695452417935421E-33, -7.960413940742226547E-17 ) ) ;
#58 = FACE_OUTER_BOUND ( 'NONE', #124, .T. ) ;
#59 = DIRECTION ( 'NONE',  ( 3.491481338843133355E-15, -1.236684910004083010E-16, 1.000000000000000000 ) ) ;
#60 = ADVANCED_FACE ( 'NONE', ( #322, #26 ), #90, .T. ) ;
#61 = DIRECTION ( 'NONE',  ( 3.491481338843133355E-15, -1.236684910004083010E-16, 1.000000000000000000 ) ) ;
#62 = CC_DESIGN_APPROVAL ( #3, ( #254 ) ) ;
#63 = PLANE ( 'NONE',  #111 ) ;
#64 = FACE_OUTER_BOUND ( 'NONE', #99, .T. ) ;
#65 = CARTESIAN_POINT ( 'NONE',  ( 3.421651712066271319E-14, -1.999999999999997780, 9.800000000000002487 ) ) ;
#66 = ORIENTED_EDGE ( 'NONE', *, *, #129, .T. ) ;
#67 = CIRCLE ( 'NONE', #101, 0.6999999999999995115 ) ;
#68 = DIRECTION ( 'NONE',  ( 0.0000000000000000000, -1.000000000000000000, 0.0000000000000000000 ) ) ;
#69 = EDGE_CURVE ( 'NONE', #286, #286, #278, .T. ) ;
#70 = CARTESIAN_POINT ( 'NONE',  ( 3.421651712066271319E-14, -1.960000000000001297, 9.800000000000002487 ) ) ;
#71 = PERSON_AND_ORGANIZATION ( #215, #116 ) ;
#72 = AXIS2_PLACEMENT_3D ( 'NONE', #291, #14, #68 ) ;
#73 = MECHANICAL_CONTEXT ( 'NONE', #185, 'mechanical' ) ;
#74 = DIRECTION ( 'NONE',  ( 3.491481338843133355E-15, -1.236684910004083010E-16, 1.000000000000000000 ) ) ;
#75 = COORDINATED_UNIVERSAL_TIME_OFFSET ( 1, 0, .AHEAD. ) ;
#76 = FACE_OUTER_BOUND ( 'NONE', #273, .T. ) ;
#77 = APPROVAL_DATE_TIME ( #192, #261 ) ;
#78 = TOROIDAL_SURFACE ( 'NONE', #153, 2.700000000000000178, 2.000000000000000000 ) ;
#79 = EDGE_LOOP ( 'NONE', ( #32 ) ) ;
#80 = DATE_TIME_ROLE ( 'classification_date' ) ;
#81 = APPLICATION_CONTEXT ( 'configuration controlled 3d designs of mechanical parts and assemblies' ) ;
#82 = DIRECTION ( 'NONE',  ( 3.491481338843133355E-15, -1.236684910004083010E-16, 1.000000000000000000 ) ) ;
#83 = CARTESIAN_POINT ( 'NONE',  ( 1.312796983405018142E-13, -4.604190440359778453E-15, 37.60000000000000142 ) ) ;
#84 = AXIS2_PLACEMENT_3D ( 'NONE', #46, #168, #289 ) ;
#85 = FACE_OUTER_BOUND ( 'NONE', #271, .T. ) ;
#86 = CARTESIAN_POINT ( 'NONE',  ( 1.550217714446351336E-14, 0.7144522166414625231, 4.440000000000000391 ) ) ;
#87 = ADVANCED_FACE ( 'NONE', ( #98, #245 ), #218, .T. ) ;
#88 = DIRECTION ( 'NONE',  ( -3.491481338843133355E-15, 1.236684910004083010E-16, -1.000000000000000000 ) ) ;
#89 = CARTESIAN_POINT ( 'NONE',  ( 1.550217714446351020E-14, -5.033432787862395914E-16, 4.439999999999999503 ) ) ;
#90 = CONICAL_SURFACE ( 'NONE', #263, 1.149999999999999467, 0.2094395102393123986 ) ;
#91 = DIRECTION ( 'NONE',  ( 3.491481338843133355E-15, -1.236684910004083010E-16, 1.000000000000000000 ) ) ;
#92 = CC_DESIGN_PERSON_AND_ORGANIZATION_ASSIGNMENT ( #265, #125, ( #45 ) ) ;
#93 = PERSON_AND_ORGANIZATION_ROLE ( 'design_owner' ) ;
#94 = CARTESIAN_POINT ( 'NONE',  ( 1.312796983405018142E-13, -2.000000000000002665, 37.60000000000000142 ) ) ;
#95 = EDGE_LOOP ( 'NONE', ( #260 ) ) ;
#96 = CIRCLE ( 'NONE', #237, 1.149999999999999467 ) ;
#97 = PERSON_AND_ORGANIZATION ( #215, #116 ) ;
#98 = FACE_BOUND ( 'NONE', #50, .T. ) ;
#99 = EDGE_LOOP ( 'NONE', ( #216 ) ) ;
#100 = LOCAL_TIME ( 11, 14, 53.00000000000000000, #241 ) ;
#101 = AXIS2_PLACEMENT_3D ( 'NONE', #57, #191, #23 ) ;
#102 = ORIENTED_EDGE ( 'NONE', *, *, #107, .F. ) ;
#103 = ADVANCED_FACE ( 'NONE', ( #268 ), #52, .T. ) ;
#104 = ORIENTED_EDGE ( 'NONE', *, *, #198, .F. ) ;
#105 = DIRECTION ( 'NONE',  ( 0.0000000000000000000, -1.000000000000000000, 0.0000000000000000000 ) ) ;
#106 = DIRECTION ( 'NONE',  ( 0.0000000000000000000, -1.000000000000000000, 0.0000000000000000000 ) ) ;
#107 = EDGE_CURVE ( 'NONE', #287, #287, #290, .T. ) ;
#108 = DIRECTION ( 'NONE',  ( 3.491481338843133355E-15, -1.236684910004083010E-16, 1.000000000000000000 ) ) ;
#109 = PLANE ( 'NONE',  #12 ) ;
#110 = DIRECTION ( 'NONE',  ( 4.317862285308156031E-31, 1.000000000000000000, 1.236684910004083010E-16 ) ) ;
#111 = AXIS2_PLACEMENT_3D ( 'NONE', #9, #91, #275 ) ;
#112 = CC_DESIGN_PERSON_AND_ORGANIZATION_ASSIGNMENT ( #217, #172, ( #45 ) ) ;
#113 = VERTEX_POINT ( 'NONE', #311 ) ;
#114 = VERTEX_POINT ( 'NONE', #47 ) ;
#115 = ADVANCED_FACE ( 'NONE', ( #310, #251 ), #78, .F. ) ;
#116 = ORGANIZATION ( 'UNSPECIFIED', 'UNSPECIFIED', '' ) ;
#117 = DESIGN_CONTEXT ( 'detailed design', #81, 'design' ) ;
#118 = VERTEX_POINT ( 'NONE', #94 ) ;
#119 = CALENDAR_DATE ( 2021, 13, 12 ) ;
#120 = ADVANCED_FACE ( 'NONE', ( #307 ), #34, .F. ) ;
#121 = CC_DESIGN_APPROVAL ( #261, ( #45 ) ) ;
#122 = COORDINATED_UNIVERSAL_TIME_OFFSET ( 1, 0, .AHEAD. ) ;
#123 = PRODUCT_RELATED_PRODUCT_CATEGORY ( 'detail', '', ( #156 ) ) ;
#124 = EDGE_LOOP ( 'NONE', ( #152 ) ) ;
#125 = PERSON_AND_ORGANIZATION_ROLE ( 'creator' ) ;
#126 = ORIENTED_EDGE ( 'NONE', *, *, #10, .F. ) ;
#127 = CALENDAR_DATE ( 2021, 13, 12 ) ;
#128 = EDGE_LOOP ( 'NONE', ( #258 ) ) ;
#129 = EDGE_CURVE ( 'NONE', #165, #165, #96, .T. ) ;
#130 = DATE_AND_TIME ( #127, #304 ) ;
#131 = ORIENTED_EDGE ( 'NONE', *, *, #141, .T. ) ;
#132 = ORIENTED_EDGE ( 'NONE', *, *, #129, .F. ) ;
#133 = DIRECTION ( 'NONE',  ( 0.0000000000000000000, -1.000000000000000000, 0.0000000000000000000 ) ) ;
#134 = FACE_OUTER_BOUND ( 'NONE', #249, .T. ) ;
#135 = DIRECTION ( 'NONE',  ( 3.491481338843133355E-15, -1.236684910004083010E-16, 1.000000000000000000 ) ) ;
#136 = FACE_OUTER_BOUND ( 'NONE', #128, .T. ) ;
#137 = AXIS2_PLACEMENT_3D ( 'NONE', #250, #33, #133 ) ;
#138 = DIRECTION ( 'NONE',  ( 0.0000000000000000000, -1.000000000000000000, 0.0000000000000000000 ) ) ;
#139 = CLOSED_SHELL ( 'NONE', ( #226, #236, #103 ) ) ;
#140 = VERTEX_POINT ( 'NONE', #207 ) ;
#141 = EDGE_CURVE ( 'NONE', #235, #235, #190, .T. ) ;
#142 = VERTEX_POINT ( 'NONE', #65 ) ;
#143 = CC_DESIGN_SECURITY_CLASSIFICATION ( #239, ( #45 ) ) ;
#144 = AXIS2_PLACEMENT_3D ( 'NONE', #200, #154, #37 ) ;
#145 = VERTEX_POINT ( 'NONE', #259 ) ;
#146 = CC_DESIGN_DATE_AND_TIME_ASSIGNMENT ( #49, #18, ( #254 ) ) ;
#147 = PERSON_AND_ORGANIZATION ( #215, #116 ) ;
#148 = CARTESIAN_POINT ( 'NONE',  ( 2.880734101352085330E-14, -9.746130289332278561E-16, 8.250750388677682068 ) ) ;
#149 = EDGE_LOOP ( 'NONE', ( #104 ) ) ;
#150 = FACE_BOUND ( 'NONE', #21, .T. ) ;
#151 = SHAPE_DEFINITION_REPRESENTATION ( #8, #1 ) ;
#152 = ORIENTED_EDGE ( 'NONE', *, *, #141, .F. ) ;
#153 = AXIS2_PLACEMENT_3D ( 'NONE', #179, #108, #203 ) ;
#154 = DIRECTION ( 'NONE',  ( 3.491481338843133355E-15, -1.236684910004083010E-16, 1.000000000000000000 ) ) ;
#155 = FACE_OUTER_BOUND ( 'NONE', #19, .T. ) ;
#156 = PRODUCT ( '388786', '388786', '', ( #73 ) ) ;
#157 = CARTESIAN_POINT ( 'NONE',  ( 1.326762908760390423E-13, -4.653657836759941941E-15, 38.00000000000000000 ) ) ;
#158 = DIRECTION ( 'NONE',  ( -4.275831445896958607E-31, -1.000000000000000000, -1.224646799147353207E-16 ) ) ;
#159 = DIRECTION ( 'NONE',  ( 3.491481338843133355E-15, -1.236684910004083010E-16, 1.000000000000000000 ) ) ;
#160 = CIRCLE ( 'NONE', #205, 1.959999999999999964 ) ;
#161 = ORIENTED_EDGE ( 'NONE', *, *, #69, .F. ) ;
#162 = CIRCLE ( 'NONE', #229, 0.7144522166414630782 ) ;
#163 = EDGE_LOOP ( 'NONE', ( #284 ) ) ;
#164 =( NAMED_UNIT ( * ) PLANE_ANGLE_UNIT ( ) SI_UNIT ( $, .RADIAN. ) );
#165 = VERTEX_POINT ( 'NONE', #43 ) ;
#166 = AXIS2_PLACEMENT_3D ( 'NONE', #4, #178, #138 ) ;
#167 = COORDINATED_UNIVERSAL_TIME_OFFSET ( 1, 0, .AHEAD. ) ;
#168 = DIRECTION ( 'NONE',  ( 0.0000000000000000000, 0.0000000000000000000, 1.000000000000000000 ) ) ;
#169 = DIRECTION ( 'NONE',  ( 0.0000000000000000000, -1.000000000000000000, 0.0000000000000000000 ) ) ;
#170 = DIRECTION ( 'NONE',  ( -3.491481338843133355E-15, 1.224646799147353207E-16, -1.000000000000000000 ) ) ;
#171 = APPROVAL_PERSON_ORGANIZATION ( #147, #261, #20 ) ;
#172 = PERSON_AND_ORGANIZATION_ROLE ( 'design_supplier' ) ;
#173 = ADVANCED_FACE ( 'NONE', ( #303, #134 ), #182, .T. ) ;
#174 = DATE_AND_TIME ( #195, #35 ) ;
#175 = DIRECTION ( 'NONE',  ( 0.0000000000000000000, -1.000000000000000000, 0.0000000000000000000 ) ) ;
#176 = EDGE_LOOP ( 'NONE', ( #234 ) ) ;
#177 = CYLINDRICAL_SURFACE ( 'NONE', #137, 0.6999999999999999556 ) ;
#178 = DIRECTION ( 'NONE',  ( 3.491481338843133355E-15, -1.236684910004083010E-16, 1.000000000000000000 ) ) ;
#179 = CARTESIAN_POINT ( 'NONE',  ( 1.466422162314116325E-14, -4.336808689942017736E-16, 4.200000000000000178 ) ) ;
#180 = MANIFOLD_SOLID_BREP ( 'Corps-Déplacer/Copier4[1]', #40 ) ;
#181 = AXIS2_PLACEMENT_3D ( 'NONE', #219, #170, #2 ) ;
#182 = CYLINDRICAL_SURFACE ( 'NONE', #224, 1.959999999999999964 ) ;
#183 = CARTESIAN_POINT ( 'NONE',  ( 0.0000000000000000000, 0.0000000000000000000, 0.0000000000000000000 ) ) ;
#184 = EDGE_CURVE ( 'NONE', #113, #113, #162, .T. ) ;
#185 = APPLICATION_CONTEXT ( 'configuration controlled 3d designs of mechanical parts and assemblies' ) ;
#186 = CARTESIAN_POINT ( 'NONE',  ( 1.047444401652940007E-14, 0.6999999999999995115, 3.000000000000000000 ) ) ;
#187 = VERTEX_POINT ( 'NONE', #186 ) ;
#188 = APPROVAL_STATUS ( 'not_yet_approved' ) ;
#189 = EDGE_CURVE ( 'NONE', #142, #142, #269, .T. ) ;
#190 = CIRCLE ( 'NONE', #144, 0.7000000000000000666 ) ;
#191 = DIRECTION ( 'NONE',  ( -3.491481338843133355E-15, 1.224646799147353207E-16, -1.000000000000000000 ) ) ;
#192 = DATE_AND_TIME ( #315, #100 ) ;
#193 = DIRECTION ( 'NONE',  ( -3.491481338843133355E-15, 1.236684910004083010E-16, -1.000000000000000000 ) ) ;
#194 = ORIENTED_EDGE ( 'NONE', *, *, #39, .F. ) ;
#195 = CALENDAR_DATE ( 2021, 13, 12 ) ;
#196 = AXIS2_PLACEMENT_3D ( 'NONE', #276, #7, #105 ) ;
#197 = DIRECTION ( 'NONE',  ( 3.491481338843133355E-15, -1.236684910004083010E-16, 1.000000000000000000 ) ) ;
#198 = EDGE_CURVE ( 'NONE', #118, #118, #30, .T. ) ;
#199 = EDGE_LOOP ( 'NONE', ( #56 ) ) ;
#200 = CARTESIAN_POINT ( 'NONE',  ( 1.466422162314116956E-14, -4.736628409461414985E-16, 4.200000000000001954 ) ) ;
#201 = LOCAL_TIME ( 11, 14, 53.00000000000000000, #244 ) ;
#202 = FACE_BOUND ( 'NONE', #199, .T. ) ;
#203 = DIRECTION ( 'NONE',  ( -4.430863538087984068E-31, -1.000000000000000000, -1.236684910004083010E-16 ) ) ;
#204 = CARTESIAN_POINT ( 'NONE',  ( -1.389681836178410729E-31, 4.874347726208967711E-33, -3.980206970371113274E-17 ) ) ;
#205 = AXIS2_PLACEMENT_3D ( 'NONE', #148, #82, #175 ) ;
#206 = DIRECTION ( 'NONE',  ( 3.491481338843133355E-15, -1.236684910004083010E-16, 1.000000000000000000 ) ) ;
#207 = CARTESIAN_POINT ( 'NONE',  ( 2.880734101352085330E-14, -1.960000000000000853, 8.250750388677682068 ) ) ;
#208 = EDGE_LOOP ( 'NONE', ( #66 ) ) ;
#209 =( LENGTH_UNIT ( ) NAMED_UNIT ( * ) SI_UNIT ( .MILLI., .METRE. ) );
#210 = ORIENTED_EDGE ( 'NONE', *, *, #69, .T. ) ;
#211 = APPROVAL_STATUS ( 'not_yet_approved' ) ;
#212 = CC_DESIGN_DATE_AND_TIME_ASSIGNMENT ( #130, #80, ( #239 ) ) ;
#213 = AXIS2_PLACEMENT_3D ( 'NONE', #86, #59, #13 ) ;
#214 = PLANE ( 'NONE',  #257 ) ;
#215 = PERSON ( 'UNSPECIFIED', 'UNSPECIFIED', 'UNSPECIFIED', ('UNSPECIFIED'), ('UNSPECIFIED'), ('UNSPECIFIED') ) ;
#216 = ORIENTED_EDGE ( 'NONE', *, *, #10, .T. ) ;
#217 = PERSON_AND_ORGANIZATION ( #215, #116 ) ;
#218 = CONICAL_SURFACE ( 'NONE', #309, 1.999999999999997780, 0.7853981633974516097 ) ;
#219 = CARTESIAN_POINT ( 'NONE',  ( 1.047444401652940007E-14, -3.673940397442059868E-16, 3.000000000000000000 ) ) ;
#220 = ADVANCED_FACE ( 'NONE', ( #227 ), #63, .F. ) ;
#221 = EDGE_LOOP ( 'NONE', ( #319 ) ) ;
#222 = DIRECTION ( 'NONE',  ( 3.491481338843133355E-15, -1.224646799147353207E-16, 1.000000000000000000 ) ) ;
#223 = CC_DESIGN_APPROVAL ( #25, ( #239 ) ) ;
#224 = AXIS2_PLACEMENT_3D ( 'NONE', #157, #135, #252 ) ;
#225 = CARTESIAN_POINT ( 'NONE',  ( 1.312796983405018142E-13, -4.604190440359778453E-15, 37.60000000000000142 ) ) ;
#226 = ADVANCED_FACE ( 'NONE', ( #64 ), #109, .F. ) ;
#227 = FACE_OUTER_BOUND ( 'NONE', #95, .T. ) ;
#228 = CYLINDRICAL_SURFACE ( 'NONE', #297, 0.6999999999999996225 ) ;
#229 = AXIS2_PLACEMENT_3D ( 'NONE', #255, #159, #279 ) ;
#230 = CYLINDRICAL_SURFACE ( 'NONE', #72, 1.999999999999997335 ) ;
#231 = FACE_OUTER_BOUND ( 'NONE', #149, .T. ) ;
#232 = ORIENTED_EDGE ( 'NONE', *, *, #300, .T. ) ;
#233 = CARTESIAN_POINT ( 'NONE',  ( 1.047444401652940953E-14, -3.252606517456521191E-16, 3.000000000000002665 ) ) ;
#234 = ORIENTED_EDGE ( 'NONE', *, *, #107, .T. ) ;
#235 = VERTEX_POINT ( 'NONE', #262 ) ;
#236 = ADVANCED_FACE ( 'NONE', ( #155, #136 ), #228, .T. ) ;
#237 = AXIS2_PLACEMENT_3D ( 'NONE', #89, #61, #106 ) ;
#238 = PERSON_AND_ORGANIZATION_ROLE ( 'classification_officer' ) ;
#239 = SECURITY_CLASSIFICATION ( '', '', #270 ) ;
#240 = EDGE_LOOP ( 'NONE', ( #131 ) ) ;
#241 = COORDINATED_UNIVERSAL_TIME_OFFSET ( 1, 0, .AHEAD. ) ;
#242 = CARTESIAN_POINT ( 'NONE',  ( 1.047444401652940007E-14, 5.249159239316495469E-33, 3.000000000000000000 ) ) ;
#243 = CARTESIAN_POINT ( 'NONE',  ( 1.550217714446351020E-14, -5.033432787862395914E-16, 4.439999999999999503 ) ) ;
#244 = COORDINATED_UNIVERSAL_TIME_OFFSET ( 1, 0, .AHEAD. ) ;
#245 = FACE_OUTER_BOUND ( 'NONE', #221, .T. ) ;
#246 = ADVANCED_FACE ( 'NONE', ( #58, #85 ), #177, .T. ) ;
#247 =( GEOMETRIC_REPRESENTATION_CONTEXT ( 3 ) GLOBAL_UNCERTAINTY_ASSIGNED_CONTEXT ( ( #44 ) ) GLOBAL_UNIT_ASSIGNED_CONTEXT ( ( #209, #164, #312 ) ) REPRESENTATION_CONTEXT ( 'NONE', 'WORKASPACE' ) );
#248 = AXIS2_PLACEMENT_3D ( 'NONE', #225, #206, #36 ) ;
#249 = EDGE_LOOP ( 'NONE', ( #298 ) ) ;
#250 = CARTESIAN_POINT ( 'NONE',  ( 1.326762908760390423E-13, -4.653657836759941941E-15, 38.00000000000000000 ) ) ;
#251 = FACE_OUTER_BOUND ( 'NONE', #240, .T. ) ;
#252 = DIRECTION ( 'NONE',  ( 0.0000000000000000000, -1.000000000000000000, 0.0000000000000000000 ) ) ;
#253 = DIRECTION ( 'NONE',  ( -4.275831445896958607E-31, -1.000000000000000000, -1.224646799147353207E-16 ) ) ;
#254 = PRODUCT_DEFINITION ( 'UNKNOWN', '', #45, #117 ) ;
#255 = CARTESIAN_POINT ( 'NONE',  ( 1.550217714446351020E-14, -5.033432787862395914E-16, 4.439999999999999503 ) ) ;
#256 = CC_DESIGN_PERSON_AND_ORGANIZATION_ASSIGNMENT ( #295, #238, ( #239 ) ) ;
#257 = AXIS2_PLACEMENT_3D ( 'NONE', #294, #272, #302 ) ;
#258 = ORIENTED_EDGE ( 'NONE', *, *, #39, .T. ) ;
#259 = CARTESIAN_POINT ( 'NONE',  ( 2.137183397710479182E-32, 0.6999999999999995115, 6.121136532892404794E-18 ) ) ;
#260 = ORIENTED_EDGE ( 'NONE', *, *, #300, .F. ) ;
#261 = APPROVAL ( #22, 'UNSPECIFIED' ) ;
#262 = CARTESIAN_POINT ( 'NONE',  ( 1.466422162314116956E-14, -0.7000000000000005107, 4.200000000000001954 ) ) ;
#263 = AXIS2_PLACEMENT_3D ( 'NONE', #243, #74, #169 ) ;
#264 = APPLICATION_PROTOCOL_DEFINITION ( 'international standard', 'config_control_design', 1994, #81 ) ;
#265 = PERSON_AND_ORGANIZATION ( #215, #116 ) ;
#266 = CARTESIAN_POINT ( 'NONE',  ( 3.421651712066271319E-14, -1.166206390548428260E-15, 9.800000000000002487 ) ) ;
#267 = PERSON_AND_ORGANIZATION ( #215, #116 ) ;
#268 = FACE_OUTER_BOUND ( 'NONE', #281, .T. ) ;
#269 = CIRCLE ( 'NONE', #166, 1.999999999999996669 ) ;
#270 = SECURITY_CLASSIFICATION_LEVEL ( 'unclassified' ) ;
#271 = EDGE_LOOP ( 'NONE', ( #232 ) ) ;
#272 = DIRECTION ( 'NONE',  ( 3.491481338843133355E-15, -1.236684910004083010E-16, 1.000000000000000000 ) ) ;
#273 = EDGE_LOOP ( 'NONE', ( #54 ) ) ;
#274 = DIRECTION ( 'NONE',  ( 3.491481338843133355E-15, -1.224646799147353207E-16, 1.000000000000000000 ) ) ;
#275 = DIRECTION ( 'NONE',  ( -4.317862285308156031E-31, -1.000000000000000000, -1.236684910004083010E-16 ) ) ;
#276 = CARTESIAN_POINT ( 'NONE',  ( 1.326762908760390423E-13, -4.653657836759941941E-15, 38.00000000000000000 ) ) ;
#277 = LOCAL_TIME ( 11, 14, 53.00000000000000000, #122 ) ;
#278 = CIRCLE ( 'NONE', #41, 1.959999999999999964 ) ;
#279 = DIRECTION ( 'NONE',  ( 0.0000000000000000000, -1.000000000000000000, 0.0000000000000000000 ) ) ;
#280 = DIRECTION ( 'NONE',  ( -3.491481338843133355E-15, 1.224646799147353207E-16, -1.000000000000000000 ) ) ;
#281 = EDGE_LOOP ( 'NONE', ( #194 ) ) ;
#282 = APPROVAL_PERSON_ORGANIZATION ( #71, #3, #288 ) ;
#283 = CARTESIAN_POINT ( 'NONE',  ( 1.326762908760390423E-13, -1.600000000000002309, 38.00000000000000000 ) ) ;
#284 = ORIENTED_EDGE ( 'NONE', *, *, #184, .F. ) ;
#285 = ADVANCED_FACE ( 'NONE', ( #5, #202 ), #306, .F. ) ;
#286 = VERTEX_POINT ( 'NONE', #70 ) ;
#287 = VERTEX_POINT ( 'NONE', #283 ) ;
#288 = APPROVAL_ROLE ( '' ) ;
#289 = DIRECTION ( 'NONE',  ( 1.000000000000000000, 0.0000000000000000000, 0.0000000000000000000 ) ) ;
#290 = CIRCLE ( 'NONE', #196, 1.599999999999997646 ) ;
#291 = CARTESIAN_POINT ( 'NONE',  ( 1.326762908760390423E-13, -4.653657836759941941E-15, 38.00000000000000000 ) ) ;
#292 = EDGE_LOOP ( 'NONE', ( #132 ) ) ;
#293 = MANIFOLD_SOLID_BREP ( 'Corps-Déplacer/Copier4[2]', #139 ) ;
#294 = CARTESIAN_POINT ( 'NONE',  ( 3.421651712066271319E-14, 1.999999999999995337, 9.800000000000000711 ) ) ;
#295 = PERSON_AND_ORGANIZATION ( #215, #116 ) ;
#296 = DIRECTION ( 'NONE',  ( 0.0000000000000000000, 1.000000000000000000, 0.0000000000000000000 ) ) ;
#297 = AXIS2_PLACEMENT_3D ( 'NONE', #183, #280, #38 ) ;
#298 = ORIENTED_EDGE ( 'NONE', *, *, #51, .T. ) ;
#299 = PERSON_AND_ORGANIZATION ( #215, #116 ) ;
#300 = EDGE_CURVE ( 'NONE', #114, #114, #316, .T. ) ;
#301 = EDGE_LOOP ( 'NONE', ( #161 ) ) ;
#302 = DIRECTION ( 'NONE',  ( -4.317862285308156031E-31, -1.000000000000000000, -1.236684910004083010E-16 ) ) ;
#303 = FACE_OUTER_BOUND ( 'NONE', #301, .T. ) ;
#304 = LOCAL_TIME ( 11, 14, 53.00000000000000000, #75 ) ;
#305 = AXIS2_PLACEMENT_3D ( 'NONE', #242, #274, #253 ) ;
#306 = PLANE ( 'NONE',  #213 ) ;
#307 = FACE_OUTER_BOUND ( 'NONE', #176, .T. ) ;
#308 = ADVANCED_FACE ( 'NONE', ( #231, #314 ), #230, .T. ) ;
#309 = AXIS2_PLACEMENT_3D ( 'NONE', #83, #193, #296 ) ;
#310 = FACE_OUTER_BOUND ( 'NONE', #163, .T. ) ;
#311 = CARTESIAN_POINT ( 'NONE',  ( 1.550217714446351020E-14, -0.7144522166414636333, 4.439999999999999503 ) ) ;
#312 =( NAMED_UNIT ( * ) SI_UNIT ( $, .STERADIAN. ) SOLID_ANGLE_UNIT ( ) );
#313 = EDGE_LOOP ( 'NONE', ( #29 ) ) ;
#314 = FACE_OUTER_BOUND ( 'NONE', #79, .T. ) ;
#315 = CALENDAR_DATE ( 2021, 13, 12 ) ;
#316 = CIRCLE ( 'NONE', #28, 0.6999999999999998446 ) ;
#317 = DATE_AND_TIME ( #119, #277 ) ;
#318 = DIRECTION ( 'NONE',  ( 0.0000000000000000000, -1.000000000000000000, 0.0000000000000000000 ) ) ;
#319 = ORIENTED_EDGE ( 'NONE', *, *, #198, .T. ) ;
#320 = CC_DESIGN_PERSON_AND_ORGANIZATION_ASSIGNMENT ( #97, #93, ( #156 ) ) ;
#321 = APPROVAL_ROLE ( '' ) ;
#322 = FACE_OUTER_BOUND ( 'NONE', #313, .T. ) ;
#323 = CIRCLE ( 'NONE', #181, 0.6999999999999998446 ) ;
ENDSEC;
END-ISO-10303-21;
