ISO-10303-21;
HEADER;
FILE_DESCRIPTION (( 'STEP AP203' ),
    '1' );
FILE_NAME ('388785.step',
    '2021-12-13T10:14:53',
    ( '' ),
    ( '' ),
    'SwSTEP 2.0',
    'SolidWorks 2019',
    '' );
FILE_SCHEMA (( 'CONFIG_CONTROL_DESIGN' ));
ENDSEC;

DATA;
#1 = DIRECTION ( 'NONE',  ( 3.491481338843133355E-15, -1.224646799147353207E-16, 1.000000000000000000 ) ) ;
#2 = CARTESIAN_POINT ( 'NONE',  ( 9.776147748760773395E-15, 0.6499999999999995781, 2.799999999999999822 ) ) ;
#3 = FACE_OUTER_BOUND ( 'NONE', #143, .T. ) ;
#4 = ADVANCED_FACE ( 'NONE', ( #103 ), #42, .F. ) ;
#5 = CIRCLE ( 'NONE', #130, 0.6499999999999999112 ) ;
#6 = CLOSED_SHELL ( 'NONE', ( #4, #147, #48, #313, #284, #197, #186, #115, #214, #18, #244 ) ) ;
#7 = VERTEX_POINT ( 'NONE', #224 ) ;
#8 = DIRECTION ( 'NONE',  ( -4.275831445896958607E-31, -1.000000000000000000, -1.224646799147353207E-16 ) ) ;
#9 = ORIENTED_EDGE ( 'NONE', *, *, #290, .T. ) ;
#10 = DATE_TIME_ROLE ( 'classification_date' ) ;
#11 = VERTEX_POINT ( 'NONE', #319 ) ;
#12 = ORIENTED_EDGE ( 'NONE', *, *, #290, .F. ) ;
#13 = CC_DESIGN_PERSON_AND_ORGANIZATION_ASSIGNMENT ( #149, #66, ( #52 ) ) ;
#14 = AXIS2_PLACEMENT_3D ( 'NONE', #80, #189, #267 ) ;
#15 = EDGE_LOOP ( 'NONE', ( #175 ) ) ;
#16 = DIRECTION ( 'NONE',  ( 0.0000000000000000000, 1.000000000000000000, 0.0000000000000000000 ) ) ;
#17 = FACE_OUTER_BOUND ( 'NONE', #15, .T. ) ;
#18 = ADVANCED_FACE ( 'NONE', ( #3, #33 ), #148, .T. ) ;
#19 = CYLINDRICAL_SURFACE ( 'NONE', #264, 1.959999999999999964 ) ;
#20 = FACE_OUTER_BOUND ( 'NONE', #174, .T. ) ;
#21 = APPROVAL ( #291, 'UNSPECIFIED' ) ;
#22 = DIRECTION ( 'NONE',  ( 3.491481338843133355E-15, -1.224646799147353207E-16, 1.000000000000000000 ) ) ;
#23 = MECHANICAL_CONTEXT ( 'NONE', #162, 'mechanical' ) ;
#24 = DIRECTION ( 'NONE',  ( -3.491481338843133355E-15, 1.224646799147353207E-16, -1.000000000000000000 ) ) ;
#25 = TOROIDAL_SURFACE ( 'NONE', #168, 2.649999999999999911, 2.000000000000000000 ) ;
#26 = PERSON_AND_ORGANIZATION_ROLE ( 'creator' ) ;
#27 = FACE_BOUND ( 'NONE', #102, .T. ) ;
#28 = PERSON_AND_ORGANIZATION ( #107, #292 ) ;
#29 = ADVANCED_FACE ( 'NONE', ( #177 ), #35, .T. ) ;
#30 = CIRCLE ( 'NONE', #272, 1.999999999999997780 ) ;
#31 = APPROVAL_PERSON_ORGANIZATION ( #298, #43, #201 ) ;
#32 = CC_DESIGN_PERSON_AND_ORGANIZATION_ASSIGNMENT ( #28, #243, ( #163 ) ) ;
#33 = FACE_BOUND ( 'NONE', #204, .T. ) ;
#34 = DIRECTION ( 'NONE',  ( -4.275831445896958607E-31, -1.000000000000000000, -1.224646799147353207E-16 ) ) ;
#35 = PLANE ( 'NONE',  #36 ) ;
#36 = AXIS2_PLACEMENT_3D ( 'NONE', #146, #254, #8 ) ;
#37 = CONICAL_SURFACE ( 'NONE', #56, 0.7073459598715513552, 0.2094395102393041552 ) ;
#38 = CARTESIAN_POINT ( 'NONE',  ( 1.529268826413292347E-14, -5.363952980265407496E-16, 4.379999999999999893 ) ) ;
#39 = ORIENTED_EDGE ( 'NONE', *, *, #226, .T. ) ;
#40 = EDGE_CURVE ( 'NONE', #202, #202, #110, .T. ) ;
#41 = DIRECTION ( 'NONE',  ( -3.491481338843133355E-15, 1.224646799147353207E-16, -1.000000000000000000 ) ) ;
#42 = PLANE ( 'NONE',  #195 ) ;
#43 = APPROVAL ( #154, 'UNSPECIFIED' ) ;
#44 = ORIENTED_EDGE ( 'NONE', *, *, #40, .F. ) ;
#45 = AXIS2_PLACEMENT_3D ( 'NONE', #209, #282, #184 ) ;
#46 = DIRECTION ( 'NONE',  ( 0.0000000000000000000, 1.000000000000000000, 0.0000000000000000000 ) ) ;
#47 = DIRECTION ( 'NONE',  ( 4.275831445896958607E-31, 1.000000000000000000, 1.224646799147353207E-16 ) ) ;
#48 = ADVANCED_FACE ( 'NONE', ( #239, #240 ), #25, .F. ) ;
#49 = DIRECTION ( 'NONE',  ( -3.491481338843133355E-15, 1.224646799147353207E-16, -1.000000000000000000 ) ) ;
#50 = DESIGN_CONTEXT ( 'detailed design', #190, 'design' ) ;
#51 = DIRECTION ( 'NONE',  ( -3.491481338843133355E-15, 1.224646799147353207E-16, -1.000000000000000000 ) ) ;
#52 = SECURITY_CLASSIFICATION ( '', '', #223 ) ;
#53 = FACE_OUTER_BOUND ( 'NONE', #72, .T. ) ;
#54 = APPLICATION_PROTOCOL_DEFINITION ( 'international standard', 'config_control_design', 1994, #190 ) ;
#55 = DATE_AND_TIME ( #194, #343 ) ;
#56 = AXIS2_PLACEMENT_3D ( 'NONE', #176, #1, #321 ) ;
#57 = EDGE_CURVE ( 'NONE', #91, #91, #30, .T. ) ;
#58 = PRODUCT_RELATED_PRODUCT_CATEGORY ( 'detail', '', ( #152 ) ) ;
#59 = CARTESIAN_POINT ( 'NONE',  ( 1.326762908760390423E-13, 1.199807826129477602E-32, 38.00000000000000000 ) ) ;
#60 = CIRCLE ( 'NONE', #336, 1.959999999999999964 ) ;
#61 = APPROVAL ( #114, 'UNSPECIFIED' ) ;
#62 = VERTEX_POINT ( 'NONE', #221 ) ;
#63 = DIRECTION ( 'NONE',  ( 3.491481338843133355E-15, -1.224646799147353207E-16, 1.000000000000000000 ) ) ;
#64 = CARTESIAN_POINT ( 'NONE',  ( 2.859785213319025394E-14, 1.959999999999998632, 8.190750388677676241 ) ) ;
#65 = EDGE_LOOP ( 'NONE', ( #305 ) ) ;
#66 = PERSON_AND_ORGANIZATION_ROLE ( 'classification_officer' ) ;
#67 = CARTESIAN_POINT ( 'NONE',  ( 3.421651712066271319E-14, -1.200153863164406345E-15, 9.800000000000000711 ) ) ;
#68 = EDGE_LOOP ( 'NONE', ( #258 ) ) ;
#69 = COORDINATED_UNIVERSAL_TIME_OFFSET ( 1, 0, .AHEAD. ) ;
#70 = CARTESIAN_POINT ( 'NONE',  ( 1.312796983405018142E-13, 1.999999999999993117, 37.60000000000000142 ) ) ;
#71 = ORIENTED_EDGE ( 'NONE', *, *, #226, .F. ) ;
#72 = EDGE_LOOP ( 'NONE', ( #12 ) ) ;
#73 = CARTESIAN_POINT ( 'NONE',  ( 0.0000000000000000000, 0.0000000000000000000, 0.0000000000000000000 ) ) ;
#74 = AXIS2_PLACEMENT_3D ( 'NONE', #262, #139, #338 ) ;
#75 = PLANE ( 'NONE',  #236 ) ;
#76 = MANIFOLD_SOLID_BREP ( 'Corps-Déplacer/Copier1[2]', #192 ) ;
#77 = FACE_OUTER_BOUND ( 'NONE', #278, .T. ) ;
#78 = CYLINDRICAL_SURFACE ( 'NONE', #100, 1.999999999999997335 ) ;
#79 = EDGE_CURVE ( 'NONE', #120, #120, #247, .T. ) ;
#80 = CARTESIAN_POINT ( 'NONE',  ( 1.361677722148822009E-14, -4.776122516674677286E-16, 3.899999999999999911 ) ) ;
#81 = AXIS2_PLACEMENT_3D ( 'NONE', #263, #308, #47 ) ;
#82 = CYLINDRICAL_SURFACE ( 'NONE', #101, 0.6499999999999998002 ) ;
#83 = COORDINATED_UNIVERSAL_TIME_OFFSET ( 1, 0, .AHEAD. ) ;
#84 = EDGE_CURVE ( 'NONE', #62, #62, #241, .T. ) ;
#85 = APPROVAL_DATE_TIME ( #55, #61 ) ;
#86 = CC_DESIGN_SECURITY_CLASSIFICATION ( #52, ( #163 ) ) ;
#87 = PLANE ( 'NONE',  #317 ) ;
#88 = APPLICATION_PROTOCOL_DEFINITION ( 'international standard', 'config_control_design', 1994, #162 ) ;
#89 = DIRECTION ( 'NONE',  ( 4.275831445896958607E-31, 1.000000000000000000, 1.224646799147353207E-16 ) ) ;
#90 = PRODUCT_DEFINITION ( 'UNKNOWN', '', #163, #50 ) ;
#91 = VERTEX_POINT ( 'NONE', #70 ) ;
#92 = AXIS2_PLACEMENT_3D ( 'NONE', #124, #323, #34 ) ;
#93 = VERTEX_POINT ( 'NONE', #64 ) ;
#94 = ORIENTED_EDGE ( 'NONE', *, *, #104, .T. ) ;
#95 = CARTESIAN_POINT ( 'NONE',  ( 1.506861679872323384E-14, 0.6937047985323855359, 4.315823381635505385 ) ) ;
#96 = ORIENTED_EDGE ( 'NONE', *, *, #220, .F. ) ;
#97 = CARTESIAN_POINT ( 'NONE',  ( 9.776147748760773395E-15, -3.429011037612588783E-16, 2.799999999999999822 ) ) ;
#98 = ADVANCED_FACE ( 'NONE', ( #17 ), #75, .F. ) ;
#99 = ORIENTED_EDGE ( 'NONE', *, *, #271, .F. ) ;
#100 = AXIS2_PLACEMENT_3D ( 'NONE', #183, #280, #187 ) ;
#101 = AXIS2_PLACEMENT_3D ( 'NONE', #137, #24, #341 ) ;
#102 = EDGE_LOOP ( 'NONE', ( #256 ) ) ;
#103 = FACE_OUTER_BOUND ( 'NONE', #207, .T. ) ;
#104 = EDGE_CURVE ( 'NONE', #318, #318, #5, .T. ) ;
#105 = DIRECTION ( 'NONE',  ( 4.275831445896958607E-31, 1.000000000000000000, 1.224646799147353207E-16 ) ) ;
#106 = DIRECTION ( 'NONE',  ( 3.491481338843133355E-15, -1.224646799147353207E-16, 1.000000000000000000 ) ) ;
#107 = PERSON ( 'UNSPECIFIED', 'UNSPECIFIED', 'UNSPECIFIED', ('UNSPECIFIED'), ('UNSPECIFIED'), ('UNSPECIFIED') ) ;
#108 = DIRECTION ( 'NONE',  ( 0.0000000000000000000, 1.000000000000000000, 0.0000000000000000000 ) ) ;
#109 = CARTESIAN_POINT ( 'NONE',  ( 3.421651712066271319E-14, 1.999999999999995337, 9.800000000000000711 ) ) ;
#110 = CIRCLE ( 'NONE', #135, 0.6937047985323860910 ) ;
#111 = AXIS2_PLACEMENT_3D ( 'NONE', #97, #41, #229 ) ;
#112 = PERSON_AND_ORGANIZATION_ROLE ( 'design_owner' ) ;
#113 = DIRECTION ( 'NONE',  ( -3.491481338843133355E-15, 1.224646799147353207E-16, -1.000000000000000000 ) ) ;
#114 = APPROVAL_STATUS ( 'not_yet_approved' ) ;
#115 = ADVANCED_FACE ( 'NONE', ( #266, #234 ), #129, .F. ) ;
#116 = APPROVAL_DATE_TIME ( #138, #21 ) ;
#117 = CC_DESIGN_PERSON_AND_ORGANIZATION_ASSIGNMENT ( #196, #259, ( #163 ) ) ;
#118 = LOCAL_TIME ( 11, 14, 53.00000000000000000, #136 ) ;
#119 = FACE_OUTER_BOUND ( 'NONE', #127, .T. ) ;
#120 = VERTEX_POINT ( 'NONE', #180 ) ;
#121 = FACE_OUTER_BOUND ( 'NONE', #123, .T. ) ;
#122 = CARTESIAN_POINT ( 'NONE',  ( 1.326762908760390423E-13, -4.653657836759941941E-15, 38.00000000000000000 ) ) ;
#123 = EDGE_LOOP ( 'NONE', ( #182 ) ) ;
#124 = CARTESIAN_POINT ( 'NONE',  ( 1.529268826413292347E-14, 1.392786386552418018E-32, 4.379999999999999893 ) ) ;
#125 = EDGE_LOOP ( 'NONE', ( #329 ) ) ;
#126 = EDGE_LOOP ( 'NONE', ( #297 ) ) ;
#127 = EDGE_LOOP ( 'NONE', ( #99 ) ) ;
#128 = DIRECTION ( 'NONE',  ( -3.491481338843133355E-15, 1.224646799147353207E-16, -1.000000000000000000 ) ) ;
#129 = PLANE ( 'NONE',  #316 ) ;
#130 = AXIS2_PLACEMENT_3D ( 'NONE', #161, #128, #108 ) ;
#131 = DIRECTION ( 'NONE',  ( -3.491481338843133355E-15, 1.224646799147353207E-16, -1.000000000000000000 ) ) ;
#132 = DIRECTION ( 'NONE',  ( -4.275831445896958607E-31, -1.000000000000000000, -1.224646799147353207E-16 ) ) ;
#133 = FACE_OUTER_BOUND ( 'NONE', #275, .T. ) ;
#134 = APPROVAL_ROLE ( '' ) ;
#135 = AXIS2_PLACEMENT_3D ( 'NONE', #283, #309, #46 ) ;
#136 = COORDINATED_UNIVERSAL_TIME_OFFSET ( 1, 0, .AHEAD. ) ;
#137 = CARTESIAN_POINT ( 'NONE',  ( 0.0000000000000000000, 0.0000000000000000000, 0.0000000000000000000 ) ) ;
#138 = DATE_AND_TIME ( #217, #265 ) ;
#139 = DIRECTION ( 'NONE',  ( -3.491481338843133355E-15, 1.224646799147353207E-16, -1.000000000000000000 ) ) ;
#140 = PERSON_AND_ORGANIZATION ( #107, #292 ) ;
#141 = LOCAL_TIME ( 11, 14, 53.00000000000000000, #69 ) ;
#142 = DATE_AND_TIME ( #144, #141 ) ;
#143 = EDGE_LOOP ( 'NONE', ( #251 ) ) ;
#144 = CALENDAR_DATE ( 2021, 13, 12 ) ;
#145 = CARTESIAN_POINT ( 'NONE',  ( 1.529268826413292662E-14, 1.149999999999999467, 4.380000000000000782 ) ) ;
#146 = CARTESIAN_POINT ( 'NONE',  ( 9.776147748760773395E-15, 4.874219293651031067E-33, 2.799999999999999822 ) ) ;
#147 = ADVANCED_FACE ( 'NONE', ( #53, #166 ), #213, .T. ) ;
#148 = CONICAL_SURFACE ( 'NONE', #276, 1.599999999999997646, 0.7853981633974516097 ) ;
#149 = PERSON_AND_ORGANIZATION ( #107, #292 ) ;
#150 = DIRECTION ( 'NONE',  ( -3.491481338843133355E-15, 1.224646799147353207E-16, -1.000000000000000000 ) ) ;
#151 = EDGE_LOOP ( 'NONE', ( #324 ) ) ;
#152 = PRODUCT ( '388785', '388785', '', ( #23 ) ) ;
#153 = ORIENTED_EDGE ( 'NONE', *, *, #293, .F. ) ;
#154 = APPROVAL_STATUS ( 'not_yet_approved' ) ;
#155 = DIRECTION ( 'NONE',  ( 0.0000000000000000000, 1.000000000000000000, 0.0000000000000000000 ) ) ;
#156 = ORIENTED_EDGE ( 'NONE', *, *, #79, .F. ) ;
#157 = AXIS2_PLACEMENT_3D ( 'NONE', #270, #249, #315 ) ;
#158 = LOCAL_TIME ( 11, 14, 53.00000000000000000, #228 ) ;
#159 = CARTESIAN_POINT ( 'NONE',  ( 1.326762908760390423E-13, -4.653657836759941941E-15, 38.00000000000000000 ) ) ;
#160 = CARTESIAN_POINT ( 'NONE',  ( 3.421651712066271319E-14, 2.969524369670473466E-32, 9.800000000000000711 ) ) ;
#161 = CARTESIAN_POINT ( 'NONE',  ( 9.776147748760773395E-15, -3.429011037612588783E-16, 2.799999999999999822 ) ) ;
#162 = APPLICATION_CONTEXT ( 'configuration controlled 3d designs of mechanical parts and assemblies' ) ;
#163 = PRODUCT_DEFINITION_FORMATION_WITH_SPECIFIED_SOURCE ( 'ANY', '', #152, .NOT_KNOWN. ) ;
#164 = CARTESIAN_POINT ( 'NONE',  ( 1.312796983405018142E-13, -4.604671964794047724E-15, 37.60000000000000142 ) ) ;
#165 = CC_DESIGN_DATE_AND_TIME_ASSIGNMENT ( #142, #10, ( #52 ) ) ;
#166 = FACE_OUTER_BOUND ( 'NONE', #125, .T. ) ;
#167 = PERSON_AND_ORGANIZATION ( #107, #292 ) ;
#168 = AXIS2_PLACEMENT_3D ( 'NONE', #185, #311, #208 ) ;
#169 = CARTESIAN_POINT ( 'NONE',  ( 1.529268826413292347E-14, 0.7073459598715508001, 4.379999999999999893 ) ) ;
#170 = DIRECTION ( 'NONE',  ( -3.491481338843133355E-15, 1.224646799147353207E-16, -1.000000000000000000 ) ) ;
#171 =( LENGTH_UNIT ( ) NAMED_UNIT ( * ) SI_UNIT ( .MILLI., .METRE. ) );
#172 = CIRCLE ( 'NONE', #261, 0.6499999999999995781 ) ;
#173 = SHAPE_DEFINITION_REPRESENTATION ( #203, #245 ) ;
#174 = EDGE_LOOP ( 'NONE', ( #96 ) ) ;
#175 = ORIENTED_EDGE ( 'NONE', *, *, #271, .T. ) ;
#176 = CARTESIAN_POINT ( 'NONE',  ( 1.529268826413292347E-14, -5.363952980265407496E-16, 4.379999999999999893 ) ) ;
#177 = FACE_OUTER_BOUND ( 'NONE', #300, .T. ) ;
#178 = DATE_AND_TIME ( #255, #158 ) ;
#179 =( GEOMETRIC_REPRESENTATION_CONTEXT ( 3 ) GLOBAL_UNCERTAINTY_ASSIGNED_CONTEXT ( ( #191 ) ) GLOBAL_UNIT_ASSIGNED_CONTEXT ( ( #171, #337, #219 ) ) REPRESENTATION_CONTEXT ( 'NONE', 'WORKASPACE' ) );
#180 = CARTESIAN_POINT ( 'NONE',  ( 1.326762908760390423E-13, 1.599999999999993205, 38.00000000000000000 ) ) ;
#181 = ORIENTED_EDGE ( 'NONE', *, *, #40, .T. ) ;
#182 = ORIENTED_EDGE ( 'NONE', *, *, #328, .T. ) ;
#183 = CARTESIAN_POINT ( 'NONE',  ( 0.0000000000000000000, 0.0000000000000000000, 0.0000000000000000000 ) ) ;
#184 = DIRECTION ( 'NONE',  ( 0.0000000000000000000, 1.000000000000000000, 0.0000000000000000000 ) ) ;
#185 = CARTESIAN_POINT ( 'NONE',  ( 1.361677722148821851E-14, -4.336808689942017736E-16, 3.899999999999999467 ) ) ;
#186 = ADVANCED_FACE ( 'NONE', ( #20, #312 ), #19, .T. ) ;
#187 = DIRECTION ( 'NONE',  ( 4.275831445896959482E-31, 1.000000000000000000, 1.224646799147353454E-16 ) ) ;
#188 = CIRCLE ( 'NONE', #281, 1.999999999999996669 ) ;
#189 = DIRECTION ( 'NONE',  ( -3.491481338843133355E-15, 1.224646799147353207E-16, -1.000000000000000000 ) ) ;
#190 = APPLICATION_CONTEXT ( 'configuration controlled 3d designs of mechanical parts and assemblies' ) ;
#191 = UNCERTAINTY_MEASURE_WITH_UNIT (LENGTH_MEASURE( 1.000000000000000082E-05 ), #171, 'distance_accuracy_value', 'NONE');
#192 = CLOSED_SHELL ( 'NONE', ( #98, #238, #29 ) ) ;
#193 = APPROVAL_PERSON_ORGANIZATION ( #167, #21, #134 ) ;
#194 = CALENDAR_DATE ( 2021, 13, 12 ) ;
#195 = AXIS2_PLACEMENT_3D ( 'NONE', #225, #63, #273 ) ;
#196 = PERSON_AND_ORGANIZATION ( #107, #292 ) ;
#197 = ADVANCED_FACE ( 'NONE', ( #285, #133 ), #286, .T. ) ;
#198 = VERTEX_POINT ( 'NONE', #145 ) ;
#199 = ORIENTED_EDGE ( 'NONE', *, *, #84, .F. ) ;
#200 = CARTESIAN_POINT ( 'NONE',  ( 2.137183397710479182E-32, 0.6499999999999995781, 6.121136532892404794E-18 ) ) ;
#201 = APPROVAL_ROLE ( '' ) ;
#202 = VERTEX_POINT ( 'NONE', #95 ) ;
#203 = PRODUCT_DEFINITION_SHAPE ( 'NONE', 'NONE',  #90 ) ;
#204 = EDGE_LOOP ( 'NONE', ( #233 ) ) ;
#205 = CC_DESIGN_PERSON_AND_ORGANIZATION_ASSIGNMENT ( #340, #112, ( #152 ) ) ;
#206 = CC_DESIGN_APPROVAL ( #61, ( #163 ) ) ;
#207 = EDGE_LOOP ( 'NONE', ( #9 ) ) ;
#208 = DIRECTION ( 'NONE',  ( 4.332939605903968399E-31, 1.000000000000000000, 1.224646799147353207E-16 ) ) ;
#209 = CARTESIAN_POINT ( 'NONE',  ( 2.859785213319025394E-14, -1.003077624610905556E-15, 8.190750388677676241 ) ) ;
#210 = CIRCLE ( 'NONE', #253, 0.7073459598715513552 ) ;
#211 = EDGE_CURVE ( 'NONE', #11, #11, #60, .T. ) ;
#212 = DIRECTION ( 'NONE',  ( 0.0000000000000000000, -1.000000000000000000, 0.0000000000000000000 ) ) ;
#213 = CYLINDRICAL_SURFACE ( 'NONE', #81, 0.6500000000000000222 ) ;
#214 = ADVANCED_FACE ( 'NONE', ( #77, #333 ), #78, .T. ) ;
#215 = AXIS2_PLACEMENT_3D ( 'NONE', #310, #106, #212 ) ;
#216 = VERTEX_POINT ( 'NONE', #169 ) ;
#217 = CALENDAR_DATE ( 2021, 13, 12 ) ;
#218 = FACE_OUTER_BOUND ( 'NONE', #277, .T. ) ;
#219 =( NAMED_UNIT ( * ) SI_UNIT ( $, .STERADIAN. ) SOLID_ANGLE_UNIT ( ) );
#220 = EDGE_CURVE ( 'NONE', #93, #93, #301, .T. ) ;
#221 = CARTESIAN_POINT ( 'NONE',  ( 1.361677722148822009E-14, 0.6499999999999995781, 3.899999999999999911 ) ) ;
#222 = DIRECTION ( 'NONE',  ( -3.491481338843133355E-15, 1.224646799147353207E-16, -1.000000000000000000 ) ) ;
#223 = SECURITY_CLASSIFICATION_LEVEL ( 'unclassified' ) ;
#224 = CARTESIAN_POINT ( 'NONE',  ( 9.776147748760773395E-15, 0.6499999999999995781, 2.799999999999999822 ) ) ;
#225 = CARTESIAN_POINT ( 'NONE',  ( 9.776147748760773395E-15, 4.874219293651031067E-33, 2.799999999999999822 ) ) ;
#226 = EDGE_CURVE ( 'NONE', #198, #198, #302, .T. ) ;
#227 = EDGE_LOOP ( 'NONE', ( #44 ) ) ;
#228 = COORDINATED_UNIVERSAL_TIME_OFFSET ( 1, 0, .AHEAD. ) ;
#229 = DIRECTION ( 'NONE',  ( 0.0000000000000000000, 1.000000000000000000, 0.0000000000000000000 ) ) ;
#230 = ORIENTED_EDGE ( 'NONE', *, *, #220, .T. ) ;
#231 = AXIS2_PLACEMENT_3D ( 'NONE', #159, #51, #16 ) ;
#232 = APPROVAL_PERSON_ORGANIZATION ( #339, #61, #294 ) ;
#233 = ORIENTED_EDGE ( 'NONE', *, *, #79, .T. ) ;
#234 = FACE_OUTER_BOUND ( 'NONE', #126, .T. ) ;
#235 = DIRECTION ( 'NONE',  ( -3.491481338843133355E-15, 1.224646799147353207E-16, -1.000000000000000000 ) ) ;
#236 = AXIS2_PLACEMENT_3D ( 'NONE', #334, #22, #132 ) ;
#237 = DIRECTION ( 'NONE',  ( 0.0000000000000000000, 1.000000000000000000, 0.0000000000000000000 ) ) ;
#238 = ADVANCED_FACE ( 'NONE', ( #119, #314 ), #82, .T. ) ;
#239 = FACE_OUTER_BOUND ( 'NONE', #296, .T. ) ;
#240 = FACE_OUTER_BOUND ( 'NONE', #260, .T. ) ;
#241 = CIRCLE ( 'NONE', #14, 0.6500000000000000222 ) ;
#242 = DATE_TIME_ROLE ( 'creation_date' ) ;
#243 = PERSON_AND_ORGANIZATION_ROLE ( 'creator' ) ;
#244 = ADVANCED_FACE ( 'NONE', ( #218 ), #87, .F. ) ;
#245 = ADVANCED_BREP_SHAPE_REPRESENTATION ( '388785', ( #307, #76, #157 ), #179 ) ;
#246 = CALENDAR_DATE ( 2021, 13, 12 ) ;
#247 = CIRCLE ( 'NONE', #231, 1.599999999999997646 ) ;
#248 = CC_DESIGN_APPROVAL ( #43, ( #52 ) ) ;
#249 = DIRECTION ( 'NONE',  ( 0.0000000000000000000, 0.0000000000000000000, 1.000000000000000000 ) ) ;
#250 = CC_DESIGN_DATE_AND_TIME_ASSIGNMENT ( #342, #242, ( #90 ) ) ;
#251 = ORIENTED_EDGE ( 'NONE', *, *, #57, .F. ) ;
#252 = VERTEX_POINT ( 'NONE', #200 ) ;
#253 = AXIS2_PLACEMENT_3D ( 'NONE', #38, #150, #326 ) ;
#254 = DIRECTION ( 'NONE',  ( 3.491481338843133355E-15, -1.224646799147353207E-16, 1.000000000000000000 ) ) ;
#255 = CALENDAR_DATE ( 2021, 13, 12 ) ;
#256 = ORIENTED_EDGE ( 'NONE', *, *, #328, .F. ) ;
#257 = FACE_BOUND ( 'NONE', #227, .T. ) ;
#258 = ORIENTED_EDGE ( 'NONE', *, *, #57, .T. ) ;
#259 = PERSON_AND_ORGANIZATION_ROLE ( 'design_supplier' ) ;
#260 = EDGE_LOOP ( 'NONE', ( #199 ) ) ;
#261 = AXIS2_PLACEMENT_3D ( 'NONE', #289, #113, #269 ) ;
#262 = CARTESIAN_POINT ( 'NONE',  ( 1.529268826413292662E-14, -5.363952980265408482E-16, 4.380000000000000782 ) ) ;
#263 = CARTESIAN_POINT ( 'NONE',  ( 0.0000000000000000000, 0.0000000000000000000, 0.0000000000000000000 ) ) ;
#264 = AXIS2_PLACEMENT_3D ( 'NONE', #73, #235, #105 ) ;
#265 = LOCAL_TIME ( 11, 14, 53.00000000000000000, #268 ) ;
#266 = FACE_BOUND ( 'NONE', #65, .T. ) ;
#267 = DIRECTION ( 'NONE',  ( 0.0000000000000000000, 1.000000000000000000, 0.0000000000000000000 ) ) ;
#268 = COORDINATED_UNIVERSAL_TIME_OFFSET ( 1, 0, .AHEAD. ) ;
#269 = DIRECTION ( 'NONE',  ( 4.275831445896958607E-31, 1.000000000000000000, 1.224646799147353207E-16 ) ) ;
#270 = CARTESIAN_POINT ( 'NONE',  ( 0.0000000000000000000, 0.0000000000000000000, 0.0000000000000000000 ) ) ;
#271 = EDGE_CURVE ( 'NONE', #252, #252, #172, .T. ) ;
#272 = AXIS2_PLACEMENT_3D ( 'NONE', #164, #49, #330 ) ;
#273 = DIRECTION ( 'NONE',  ( -4.275831445896958607E-31, -1.000000000000000000, -1.224646799147353207E-16 ) ) ;
#274 = FACE_OUTER_BOUND ( 'NONE', #322, .T. ) ;
#275 = EDGE_LOOP ( 'NONE', ( #230 ) ) ;
#276 = AXIS2_PLACEMENT_3D ( 'NONE', #122, #222, #320 ) ;
#277 = EDGE_LOOP ( 'NONE', ( #156 ) ) ;
#278 = EDGE_LOOP ( 'NONE', ( #153 ) ) ;
#279 = EDGE_LOOP ( 'NONE', ( #71 ) ) ;
#280 = DIRECTION ( 'NONE',  ( -3.491481338843133355E-15, 1.224646799147353207E-16, -1.000000000000000000 ) ) ;
#281 = AXIS2_PLACEMENT_3D ( 'NONE', #67, #295, #155 ) ;
#282 = DIRECTION ( 'NONE',  ( -3.491481338843133355E-15, 1.224646799147353207E-16, -1.000000000000000000 ) ) ;
#283 = CARTESIAN_POINT ( 'NONE',  ( 1.506861679872323384E-14, -5.285359290005227476E-16, 4.315823381635505385 ) ) ;
#284 = ADVANCED_FACE ( 'NONE', ( #27, #274 ), #304, .F. ) ;
#285 = FACE_BOUND ( 'NONE', #279, .T. ) ;
#286 = CONICAL_SURFACE ( 'NONE', #215, 1.959999999999999520, 0.2094395102393125929 ) ;
#287 = CC_DESIGN_APPROVAL ( #21, ( #90 ) ) ;
#288 = DIRECTION ( 'NONE',  ( 3.491481338843133355E-15, -1.224646799147353207E-16, 1.000000000000000000 ) ) ;
#289 = CARTESIAN_POINT ( 'NONE',  ( -2.565572100061973003E-31, 8.998815561087006617E-33, -7.348090541168550067E-17 ) ) ;
#290 = EDGE_CURVE ( 'NONE', #7, #7, #332, .T. ) ;
#291 = APPROVAL_STATUS ( 'not_yet_approved' ) ;
#292 = ORGANIZATION ( 'UNSPECIFIED', 'UNSPECIFIED', '' ) ;
#293 = EDGE_CURVE ( 'NONE', #299, #299, #188, .T. ) ;
#294 = APPROVAL_ROLE ( '' ) ;
#295 = DIRECTION ( 'NONE',  ( -3.491481338843133355E-15, 1.224646799147353207E-16, -1.000000000000000000 ) ) ;
#296 = EDGE_LOOP ( 'NONE', ( #181 ) ) ;
#297 = ORIENTED_EDGE ( 'NONE', *, *, #293, .T. ) ;
#298 = PERSON_AND_ORGANIZATION ( #107, #292 ) ;
#299 = VERTEX_POINT ( 'NONE', #109 ) ;
#300 = EDGE_LOOP ( 'NONE', ( #327 ) ) ;
#301 = CIRCLE ( 'NONE', #45, 1.959999999999999520 ) ;
#302 = CIRCLE ( 'NONE', #74, 1.149999999999999911 ) ;
#303 = EDGE_LOOP ( 'NONE', ( #94 ) ) ;
#304 = PLANE ( 'NONE',  #92 ) ;
#305 = ORIENTED_EDGE ( 'NONE', *, *, #211, .F. ) ;
#306 = CC_DESIGN_PERSON_AND_ORGANIZATION_ASSIGNMENT ( #140, #26, ( #90 ) ) ;
#307 = MANIFOLD_SOLID_BREP ( 'Corps-Déplacer/Copier1[1]', #6 ) ;
#308 = DIRECTION ( 'NONE',  ( -3.491481338843133355E-15, 1.224646799147353207E-16, -1.000000000000000000 ) ) ;
#309 = DIRECTION ( 'NONE',  ( -3.491481338843133355E-15, 1.224646799147353207E-16, -1.000000000000000000 ) ) ;
#310 = CARTESIAN_POINT ( 'NONE',  ( 2.859785213319025394E-14, -1.003077624610905556E-15, 8.190750388677676241 ) ) ;
#311 = DIRECTION ( 'NONE',  ( -3.491481338843133355E-15, 1.224646799147353207E-16, -1.000000000000000000 ) ) ;
#312 = FACE_OUTER_BOUND ( 'NONE', #151, .T. ) ;
#313 = ADVANCED_FACE ( 'NONE', ( #257, #121 ), #37, .T. ) ;
#314 = FACE_OUTER_BOUND ( 'NONE', #303, .T. ) ;
#315 = DIRECTION ( 'NONE',  ( 1.000000000000000000, 0.0000000000000000000, 0.0000000000000000000 ) ) ;
#316 = AXIS2_PLACEMENT_3D ( 'NONE', #160, #288, #331 ) ;
#317 = AXIS2_PLACEMENT_3D ( 'NONE', #59, #170, #89 ) ;
#318 = VERTEX_POINT ( 'NONE', #2 ) ;
#319 = CARTESIAN_POINT ( 'NONE',  ( 3.421651712066271319E-14, 1.959999999999998632, 9.800000000000000711 ) ) ;
#320 = DIRECTION ( 'NONE',  ( 0.0000000000000000000, 1.000000000000000000, 0.0000000000000000000 ) ) ;
#321 = DIRECTION ( 'NONE',  ( 0.0000000000000000000, -1.000000000000000000, 0.0000000000000000000 ) ) ;
#322 = EDGE_LOOP ( 'NONE', ( #39 ) ) ;
#323 = DIRECTION ( 'NONE',  ( 3.491481338843133355E-15, -1.224646799147353207E-16, 1.000000000000000000 ) ) ;
#324 = ORIENTED_EDGE ( 'NONE', *, *, #211, .T. ) ;
#325 = APPROVAL_DATE_TIME ( #178, #43 ) ;
#326 = DIRECTION ( 'NONE',  ( 0.0000000000000000000, 1.000000000000000000, 0.0000000000000000000 ) ) ;
#327 = ORIENTED_EDGE ( 'NONE', *, *, #104, .F. ) ;
#328 = EDGE_CURVE ( 'NONE', #216, #216, #210, .T. ) ;
#329 = ORIENTED_EDGE ( 'NONE', *, *, #84, .T. ) ;
#330 = DIRECTION ( 'NONE',  ( 0.0000000000000000000, 1.000000000000000000, 0.0000000000000000000 ) ) ;
#331 = DIRECTION ( 'NONE',  ( -4.275831445896958607E-31, -1.000000000000000000, -1.224646799147353207E-16 ) ) ;
#332 = CIRCLE ( 'NONE', #111, 0.6499999999999999112 ) ;
#333 = FACE_OUTER_BOUND ( 'NONE', #68, .T. ) ;
#334 = CARTESIAN_POINT ( 'NONE',  ( -1.282786050030986501E-31, 4.499407780543503309E-33, -3.674045270584275034E-17 ) ) ;
#335 = CARTESIAN_POINT ( 'NONE',  ( 3.421651712066271319E-14, -1.200153863164406345E-15, 9.800000000000000711 ) ) ;
#336 = AXIS2_PLACEMENT_3D ( 'NONE', #335, #131, #237 ) ;
#337 =( NAMED_UNIT ( * ) PLANE_ANGLE_UNIT ( ) SI_UNIT ( $, .RADIAN. ) );
#338 = DIRECTION ( 'NONE',  ( 0.0000000000000000000, 1.000000000000000000, 0.0000000000000000000 ) ) ;
#339 = PERSON_AND_ORGANIZATION ( #107, #292 ) ;
#340 = PERSON_AND_ORGANIZATION ( #107, #292 ) ;
#341 = DIRECTION ( 'NONE',  ( 4.275831445896958607E-31, 1.000000000000000000, 1.224646799147353207E-16 ) ) ;
#342 = DATE_AND_TIME ( #246, #118 ) ;
#343 = LOCAL_TIME ( 11, 14, 53.00000000000000000, #83 ) ;
ENDSEC;
END-ISO-10303-21;
