ISO-10303-21;
HEADER;
FILE_DESCRIPTION (( 'STEP AP203' ),
    '1' );
FILE_NAME ('388784.step',
    '2021-12-13T10:14:52',
    ( '' ),
    ( '' ),
    'SwSTEP 2.0',
    'SolidWorks 2019',
    '' );
FILE_SCHEMA (( 'CONFIG_CONTROL_DESIGN' ));
ENDSEC;

DATA;
#1 = DIRECTION ( 'NONE',  ( 3.491481338843133355E-15, -1.224646799147353207E-16, 1.000000000000000000 ) ) ;
#2 = ORIENTED_EDGE ( 'NONE', *, *, #291, .T. ) ;
#3 = VERTEX_POINT ( 'NONE', #33 ) ;
#4 = EDGE_CURVE ( 'NONE', #57, #57, #131, .T. ) ;
#5 = CIRCLE ( 'NONE', #292, 0.7062339690556527216 ) ;
#6 = AXIS2_PLACEMENT_3D ( 'NONE', #49, #231, #149 ) ;
#7 = APPROVAL_PERSON_ORGANIZATION ( #233, #140, #337 ) ;
#8 = DIRECTION ( 'NONE',  ( -3.491481338843133355E-15, 1.224646799147353207E-16, -1.000000000000000000 ) ) ;
#9 =( LENGTH_UNIT ( ) NAMED_UNIT ( * ) SI_UNIT ( .MILLI., .METRE. ) );
#10 = DIRECTION ( 'NONE',  ( -3.491481338843133355E-15, 1.224646799147353207E-16, -1.000000000000000000 ) ) ;
#11 = DIRECTION ( 'NONE',  ( -3.491481338843133355E-15, 1.224646799147353207E-16, -1.000000000000000000 ) ) ;
#12 = CONICAL_SURFACE ( 'NONE', #92, 0.7062339690556527216, 0.2094395102393065422 ) ;
#13 = CC_DESIGN_SECURITY_CLASSIFICATION ( #146, ( #80 ) ) ;
#14 = ADVANCED_FACE ( 'NONE', ( #69, #62 ), #138, .T. ) ;
#15 = VERTEX_POINT ( 'NONE', #275 ) ;
#16 = DIRECTION ( 'NONE',  ( -4.275831445896958607E-31, -1.000000000000000000, -1.224646799147353207E-16 ) ) ;
#17 = PERSON_AND_ORGANIZATION_ROLE ( 'design_owner' ) ;
#18 = CARTESIAN_POINT ( 'NONE',  ( 1.326762908760390423E-13, 1.199807826129477602E-32, 38.00000000000000000 ) ) ;
#19 = PERSON_AND_ORGANIZATION_ROLE ( 'design_supplier' ) ;
#20 = ORIENTED_EDGE ( 'NONE', *, *, #343, .F. ) ;
#21 = FACE_BOUND ( 'NONE', #311, .T. ) ;
#22 = MECHANICAL_CONTEXT ( 'NONE', #48, 'mechanical' ) ;
#23 = DIRECTION ( 'NONE',  ( 4.275831445896958607E-31, 1.000000000000000000, 1.224646799147353207E-16 ) ) ;
#24 = APPROVAL_STATUS ( 'not_yet_approved' ) ;
#25 = EDGE_CURVE ( 'NONE', #85, #85, #79, .T. ) ;
#26 = AXIS2_PLACEMENT_3D ( 'NONE', #77, #185, #182 ) ;
#27 = CARTESIAN_POINT ( 'NONE',  ( 2.835344843947123082E-14, -9.945050970168741268E-16, 8.120750388677675957 ) ) ;
#28 = CARTESIAN_POINT ( 'NONE',  ( 0.0000000000000000000, 0.0000000000000000000, 0.0000000000000000000 ) ) ;
#29 = AXIS2_PLACEMENT_3D ( 'NONE', #294, #75, #203 ) ;
#30 = APPROVAL_PERSON_ORGANIZATION ( #147, #205, #194 ) ;
#31 = PLANE ( 'NONE',  #105 ) ;
#32 = DIRECTION ( 'NONE',  ( 4.275831445896958607E-31, 1.000000000000000000, 1.224646799147353207E-16 ) ) ;
#33 = CARTESIAN_POINT ( 'NONE',  ( 1.256933281983528008E-14, 0.5999999999999995337, 3.600000000000000089 ) ) ;
#34 = AXIS2_PLACEMENT_3D ( 'NONE', #175, #289, #23 ) ;
#35 = CARTESIAN_POINT ( 'NONE',  ( 1.504828457041390665E-14, 1.149999999999999911, 4.310000000000000497 ) ) ;
#36 = ADVANCED_FACE ( 'NONE', ( #276 ), #278, .T. ) ;
#37 = DIRECTION ( 'NONE',  ( 3.491481338843133355E-15, -1.224646799147353207E-16, 1.000000000000000000 ) ) ;
#38 = CARTESIAN_POINT ( 'NONE',  ( 9.077851480992146724E-15, 4.499279347985565981E-33, 2.600000000000000089 ) ) ;
#39 = ORIENTED_EDGE ( 'NONE', *, *, #263, .T. ) ;
#40 = COORDINATED_UNIVERSAL_TIME_OFFSET ( 1, 0, .AHEAD. ) ;
#41 = ADVANCED_FACE ( 'NONE', ( #115 ), #84, .F. ) ;
#42 = EDGE_LOOP ( 'NONE', ( #136 ) ) ;
#43 = DATE_AND_TIME ( #174, #151 ) ;
#44 = FACE_OUTER_BOUND ( 'NONE', #195, .T. ) ;
#45 = AXIS2_PLACEMENT_3D ( 'NONE', #220, #249, #32 ) ;
#46 = SHAPE_DEFINITION_REPRESENTATION ( #183, #237 ) ;
#47 = FACE_OUTER_BOUND ( 'NONE', #326, .T. ) ;
#48 = APPLICATION_CONTEXT ( 'configuration controlled 3d designs of mechanical parts and assemblies' ) ;
#49 = CARTESIAN_POINT ( 'NONE',  ( 0.0000000000000000000, 0.0000000000000000000, 0.0000000000000000000 ) ) ;
#50 = EDGE_CURVE ( 'NONE', #186, #186, #176, .T. ) ;
#51 = CLOSED_SHELL ( 'NONE', ( #328, #216, #133, #172, #160, #124, #73, #154, #99, #14, #41 ) ) ;
#52 = FACE_BOUND ( 'NONE', #86, .T. ) ;
#53 = FACE_OUTER_BOUND ( 'NONE', #198, .T. ) ;
#54 = EDGE_LOOP ( 'NONE', ( #250 ) ) ;
#55 = DIRECTION ( 'NONE',  ( 4.275831445896958607E-31, 1.000000000000000000, 1.224646799147353207E-16 ) ) ;
#56 = AXIS2_PLACEMENT_3D ( 'NONE', #82, #11, #325 ) ;
#57 = VERTEX_POINT ( 'NONE', #137 ) ;
#58 = CARTESIAN_POINT ( 'NONE',  ( 1.256933281983528008E-14, -4.408728476930471151E-16, 3.600000000000000089 ) ) ;
#59 = DIRECTION ( 'NONE',  ( -3.491481338843133355E-15, 1.224646799147353207E-16, -1.000000000000000000 ) ) ;
#60 = CARTESIAN_POINT ( 'NONE',  ( 9.077851480992146724E-15, -3.184081677783118191E-16, 2.600000000000000089 ) ) ;
#61 = CARTESIAN_POINT ( 'NONE',  ( 1.326762908760390423E-13, -4.653657836759941941E-15, 38.00000000000000000 ) ) ;
#62 = FACE_BOUND ( 'NONE', #243, .T. ) ;
#63 = MANIFOLD_SOLID_BREP ( 'Corps-Déplacer/Copier1[2]', #126 ) ;
#64 = COORDINATED_UNIVERSAL_TIME_OFFSET ( 1, 0, .AHEAD. ) ;
#65 = DIRECTION ( 'NONE',  ( -3.491481338843133355E-15, 1.224646799147353207E-16, -1.000000000000000000 ) ) ;
#66 = APPROVAL_DATE_TIME ( #177, #205 ) ;
#67 = EDGE_LOOP ( 'NONE', ( #118 ) ) ;
#68 = CALENDAR_DATE ( 2021, 13, 12 ) ;
#69 = FACE_OUTER_BOUND ( 'NONE', #104, .T. ) ;
#70 = SECURITY_CLASSIFICATION_LEVEL ( 'unclassified' ) ;
#71 = FACE_OUTER_BOUND ( 'NONE', #215, .T. ) ;
#72 = AXIS2_PLACEMENT_3D ( 'NONE', #60, #10, #166 ) ;
#73 = ADVANCED_FACE ( 'NONE', ( #331, #91 ), #310, .T. ) ;
#74 = EDGE_CURVE ( 'NONE', #159, #159, #184, .T. ) ;
#75 = DIRECTION ( 'NONE',  ( -3.491481338843133355E-15, 1.224646799147353207E-16, -1.000000000000000000 ) ) ;
#76 = CARTESIAN_POINT ( 'NONE',  ( -1.175890263883562711E-31, 4.124467834878038907E-33, -3.367883570797436793E-17 ) ) ;
#77 = CARTESIAN_POINT ( 'NONE',  ( -2.351780527767125423E-31, 8.248935669756077813E-33, -6.735767141594873587E-17 ) ) ;
#78 = CARTESIAN_POINT ( 'NONE',  ( 0.0000000000000000000, 0.0000000000000000000, 0.0000000000000000000 ) ) ;
#79 = CIRCLE ( 'NONE', #72, 0.5999999999999998668 ) ;
#80 = PRODUCT_DEFINITION_FORMATION_WITH_SPECIFIED_SOURCE ( 'ANY', '', #268, .NOT_KNOWN. ) ;
#81 = CC_DESIGN_PERSON_AND_ORGANIZATION_ASSIGNMENT ( #144, #225, ( #80 ) ) ;
#82 = CARTESIAN_POINT ( 'NONE',  ( 1.504828457041390665E-14, -5.278227704325093208E-16, 4.310000000000000497 ) ) ;
#83 = FACE_OUTER_BOUND ( 'NONE', #128, .T. ) ;
#84 = PLANE ( 'NONE',  #338 ) ;
#85 = VERTEX_POINT ( 'NONE', #214 ) ;
#86 = EDGE_LOOP ( 'NONE', ( #101 ) ) ;
#87 = CARTESIAN_POINT ( 'NONE',  ( 9.077851480992146724E-15, 0.5999999999999995337, 2.600000000000000089 ) ) ;
#88 = UNCERTAINTY_MEASURE_WITH_UNIT (LENGTH_MEASURE( 1.000000000000000082E-05 ), #9, 'distance_accuracy_value', 'NONE');
#89 = ORIENTED_EDGE ( 'NONE', *, *, #74, .T. ) ;
#90 = APPROVAL_STATUS ( 'not_yet_approved' ) ;
#91 = FACE_OUTER_BOUND ( 'NONE', #158, .T. ) ;
#92 = AXIS2_PLACEMENT_3D ( 'NONE', #341, #206, #316 ) ;
#93 = ORIENTED_EDGE ( 'NONE', *, *, #343, .T. ) ;
#94 = PERSON_AND_ORGANIZATION ( #262, #123 ) ;
#95 = CARTESIAN_POINT ( 'NONE',  ( 1.504828457041390350E-14, 1.391952527000231096E-32, 4.309999999999999609 ) ) ;
#96 = CARTESIAN_POINT ( 'NONE',  ( 1.312796983405018142E-13, -4.604671964794047724E-15, 37.60000000000000142 ) ) ;
#97 = CIRCLE ( 'NONE', #29, 0.6437047985323824939 ) ;
#98 = LOCAL_TIME ( 11, 14, 52.00000000000000000, #40 ) ;
#99 = ADVANCED_FACE ( 'NONE', ( #153, #230 ), #269, .T. ) ;
#100 = CIRCLE ( 'NONE', #314, 1.999999999999996669 ) ;
#101 = ORIENTED_EDGE ( 'NONE', *, *, #248, .F. ) ;
#102 = CARTESIAN_POINT ( 'NONE',  ( 3.386736898677838724E-14, 2.969524369670473466E-32, 9.699999999999999289 ) ) ;
#103 = DIRECTION ( 'NONE',  ( 0.0000000000000000000, 1.000000000000000000, 0.0000000000000000000 ) ) ;
#104 = EDGE_LOOP ( 'NONE', ( #284 ) ) ;
#105 = AXIS2_PLACEMENT_3D ( 'NONE', #95, #207, #317 ) ;
#106 =( GEOMETRIC_REPRESENTATION_CONTEXT ( 3 ) GLOBAL_UNCERTAINTY_ASSIGNED_CONTEXT ( ( #88 ) ) GLOBAL_UNIT_ASSIGNED_CONTEXT ( ( #9, #212, #244 ) ) REPRESENTATION_CONTEXT ( 'NONE', 'WORKASPACE' ) );
#107 = DIRECTION ( 'NONE',  ( -4.275831445896958607E-31, -1.000000000000000000, -1.224646799147353207E-16 ) ) ;
#108 = EDGE_CURVE ( 'NONE', #251, #251, #97, .T. ) ;
#109 = ORIENTED_EDGE ( 'NONE', *, *, #74, .F. ) ;
#110 = VERTEX_POINT ( 'NONE', #113 ) ;
#111 = CIRCLE ( 'NONE', #258, 1.959999999999999964 ) ;
#112 = ORIENTED_EDGE ( 'NONE', *, *, #4, .T. ) ;
#113 = CARTESIAN_POINT ( 'NONE',  ( 3.386736898677838724E-14, 1.999999999999995337, 9.699999999999999289 ) ) ;
#114 = CC_DESIGN_PERSON_AND_ORGANIZATION_ASSIGNMENT ( #285, #19, ( #80 ) ) ;
#115 = FACE_OUTER_BOUND ( 'NONE', #141, .T. ) ;
#116 = PERSON_AND_ORGANIZATION_ROLE ( 'creator' ) ;
#117 = DIRECTION ( 'NONE',  ( 4.275831445896958607E-31, 1.000000000000000000, 1.224646799147353207E-16 ) ) ;
#118 = ORIENTED_EDGE ( 'NONE', *, *, #288, .T. ) ;
#119 = CALENDAR_DATE ( 2021, 13, 12 ) ;
#120 = FACE_OUTER_BOUND ( 'NONE', #247, .T. ) ;
#121 = DIRECTION ( 'NONE',  ( -3.491481338843133355E-15, 1.224646799147353207E-16, -1.000000000000000000 ) ) ;
#122 = APPROVAL_ROLE ( '' ) ;
#123 = ORGANIZATION ( 'UNSPECIFIED', 'UNSPECIFIED', '' ) ;
#124 = ADVANCED_FACE ( 'NONE', ( #179, #53 ), #265, .T. ) ;
#125 = DIRECTION ( 'NONE',  ( 0.0000000000000000000, 1.000000000000000000, 0.0000000000000000000 ) ) ;
#126 = CLOSED_SHELL ( 'NONE', ( #181, #297, #36 ) ) ;
#127 = DIRECTION ( 'NONE',  ( 4.333560346773609638E-31, 1.000000000000000000, 1.224646799147353207E-16 ) ) ;
#128 = EDGE_LOOP ( 'NONE', ( #164 ) ) ;
#129 = PLANE ( 'NONE',  #300 ) ;
#130 = DIRECTION ( 'NONE',  ( 0.0000000000000000000, 1.000000000000000000, 0.0000000000000000000 ) ) ;
#131 = CIRCLE ( 'NONE', #235, 1.959999999999999964 ) ;
#132 = CC_DESIGN_APPROVAL ( #205, ( #146 ) ) ;
#133 = ADVANCED_FACE ( 'NONE', ( #44, #267 ), #204, .F. ) ;
#134 = EDGE_LOOP ( 'NONE', ( #211 ) ) ;
#135 = VERTEX_POINT ( 'NONE', #162 ) ;
#136 = ORIENTED_EDGE ( 'NONE', *, *, #196, .F. ) ;
#137 = CARTESIAN_POINT ( 'NONE',  ( 3.386736898677838724E-14, 1.959999999999998632, 9.699999999999999289 ) ) ;
#138 = CONICAL_SURFACE ( 'NONE', #252, 1.599999999999997646, 0.7853981633974516097 ) ;
#139 = ORIENTED_EDGE ( 'NONE', *, *, #248, .T. ) ;
#140 = APPROVAL ( #290, 'UNSPECIFIED' ) ;
#141 = EDGE_LOOP ( 'NONE', ( #319 ) ) ;
#142 = APPROVAL_DATE_TIME ( #313, #271 ) ;
#143 = ORIENTED_EDGE ( 'NONE', *, *, #196, .T. ) ;
#144 = PERSON_AND_ORGANIZATION ( #262, #123 ) ;
#145 = PLANE ( 'NONE',  #178 ) ;
#146 = SECURITY_CLASSIFICATION ( '', '', #70 ) ;
#147 = PERSON_AND_ORGANIZATION ( #262, #123 ) ;
#148 = DIRECTION ( 'NONE',  ( -3.491481338843133355E-15, 1.224646799147353207E-16, -1.000000000000000000 ) ) ;
#149 = DIRECTION ( 'NONE',  ( 1.000000000000000000, 0.0000000000000000000, 0.0000000000000000000 ) ) ;
#150 = AXIS2_PLACEMENT_3D ( 'NONE', #157, #261, #238 ) ;
#151 = LOCAL_TIME ( 11, 14, 52.00000000000000000, #229 ) ;
#152 = DIRECTION ( 'NONE',  ( -3.491481338843133355E-15, 1.224646799147353207E-16, -1.000000000000000000 ) ) ;
#153 = FACE_OUTER_BOUND ( 'NONE', #302, .T. ) ;
#154 = ADVANCED_FACE ( 'NONE', ( #336, #208 ), #145, .F. ) ;
#155 = AXIS2_PLACEMENT_3D ( 'NONE', #28, #180, #312 ) ;
#156 = APPROVAL_PERSON_ORGANIZATION ( #334, #271, #122 ) ;
#157 = CARTESIAN_POINT ( 'NONE',  ( 2.835344843947123082E-14, -9.945050970168741268E-16, 8.120750388677675957 ) ) ;
#158 = EDGE_LOOP ( 'NONE', ( #112 ) ) ;
#159 = VERTEX_POINT ( 'NONE', #273 ) ;
#160 = ADVANCED_FACE ( 'NONE', ( #52, #47 ), #31, .F. ) ;
#161 = CARTESIAN_POINT ( 'NONE',  ( 9.077851480992146724E-15, 4.499279347985565981E-33, 2.600000000000000089 ) ) ;
#162 = CARTESIAN_POINT ( 'NONE',  ( 2.835344843947123082E-14, 1.959999999999999076, 8.120750388677675957 ) ) ;
#163 = FACE_OUTER_BOUND ( 'NONE', #209, .T. ) ;
#164 = ORIENTED_EDGE ( 'NONE', *, *, #50, .T. ) ;
#165 = DIRECTION ( 'NONE',  ( -3.491481338843133355E-15, 1.224646799147353207E-16, -1.000000000000000000 ) ) ;
#166 = DIRECTION ( 'NONE',  ( 0.0000000000000000000, 1.000000000000000000, 0.0000000000000000000 ) ) ;
#167 = PRODUCT_DEFINITION ( 'UNKNOWN', '', #80, #305 ) ;
#168 = PERSON_AND_ORGANIZATION ( #262, #123 ) ;
#169 = DIRECTION ( 'NONE',  ( 0.0000000000000000000, 1.000000000000000000, 0.0000000000000000000 ) ) ;
#170 = PERSON_AND_ORGANIZATION ( #262, #123 ) ;
#171 = CARTESIAN_POINT ( 'NONE',  ( 1.326762908760390423E-13, -4.653657836759941941E-15, 38.00000000000000000 ) ) ;
#172 = ADVANCED_FACE ( 'NONE', ( #21, #270 ), #12, .T. ) ;
#173 = EDGE_LOOP ( 'NONE', ( #329 ) ) ;
#174 = CALENDAR_DATE ( 2021, 13, 12 ) ;
#175 = CARTESIAN_POINT ( 'NONE',  ( 0.0000000000000000000, 0.0000000000000000000, 0.0000000000000000000 ) ) ;
#176 = CIRCLE ( 'NONE', #320, 0.5999999999999998668 ) ;
#177 = DATE_AND_TIME ( #308, #98 ) ;
#178 = AXIS2_PLACEMENT_3D ( 'NONE', #102, #240, #293 ) ;
#179 = FACE_BOUND ( 'NONE', #193, .T. ) ;
#180 = DIRECTION ( 'NONE',  ( -3.491481338843133355E-15, 1.224646799147353207E-16, -1.000000000000000000 ) ) ;
#181 = ADVANCED_FACE ( 'NONE', ( #71 ), #129, .F. ) ;
#182 = DIRECTION ( 'NONE',  ( 4.275831445896957731E-31, 1.000000000000000000, 1.224646799147353207E-16 ) ) ;
#183 = PRODUCT_DEFINITION_SHAPE ( 'NONE', 'NONE',  #167 ) ;
#184 = CIRCLE ( 'NONE', #26, 0.5999999999999995337 ) ;
#185 = DIRECTION ( 'NONE',  ( -3.491481338843133355E-15, 1.224646799147353207E-16, -1.000000000000000000 ) ) ;
#186 = VERTEX_POINT ( 'NONE', #87 ) ;
#187 = CYLINDRICAL_SURFACE ( 'NONE', #45, 0.5999999999999996447 ) ;
#188 = AXIS2_PLACEMENT_3D ( 'NONE', #96, #148, #318 ) ;
#189 = EDGE_LOOP ( 'NONE', ( #286 ) ) ;
#190 = EDGE_CURVE ( 'NONE', #301, #301, #307, .T. ) ;
#191 = DIRECTION ( 'NONE',  ( -3.491481338843133355E-15, 1.224646799147353207E-16, -1.000000000000000000 ) ) ;
#192 = APPROVAL_DATE_TIME ( #280, #140 ) ;
#193 = EDGE_LOOP ( 'NONE', ( #20 ) ) ;
#194 = APPROVAL_ROLE ( '' ) ;
#195 = EDGE_LOOP ( 'NONE', ( #322 ) ) ;
#196 = EDGE_CURVE ( 'NONE', #135, #135, #111, .T. ) ;
#197 = APPLICATION_CONTEXT ( 'configuration controlled 3d designs of mechanical parts and assemblies' ) ;
#198 = EDGE_LOOP ( 'NONE', ( #143 ) ) ;
#199 = DATE_TIME_ROLE ( 'creation_date' ) ;
#200 = CYLINDRICAL_SURFACE ( 'NONE', #34, 0.5999999999999998668 ) ;
#201 = CIRCLE ( 'NONE', #332, 1.599999999999997646 ) ;
#202 = CC_DESIGN_APPROVAL ( #271, ( #167 ) ) ;
#203 = DIRECTION ( 'NONE',  ( 0.0000000000000000000, 1.000000000000000000, 0.0000000000000000000 ) ) ;
#204 = TOROIDAL_SURFACE ( 'NONE', #309, 2.600000000000000089, 2.000000000000000000 ) ;
#205 = APPROVAL ( #90, 'UNSPECIFIED' ) ;
#206 = DIRECTION ( 'NONE',  ( 3.491481338843133355E-15, -1.224646799147353207E-16, 1.000000000000000000 ) ) ;
#207 = DIRECTION ( 'NONE',  ( 3.491481338843133355E-15, -1.224646799147353207E-16, 1.000000000000000000 ) ) ;
#208 = FACE_OUTER_BOUND ( 'NONE', #306, .T. ) ;
#209 = EDGE_LOOP ( 'NONE', ( #213 ) ) ;
#210 = CARTESIAN_POINT ( 'NONE',  ( 3.386736898677838724E-14, -1.187907395172932396E-15, 9.699999999999999289 ) ) ;
#211 = ORIENTED_EDGE ( 'NONE', *, *, #190, .T. ) ;
#212 =( NAMED_UNIT ( * ) PLANE_ANGLE_UNIT ( ) SI_UNIT ( $, .RADIAN. ) );
#213 = ORIENTED_EDGE ( 'NONE', *, *, #25, .T. ) ;
#214 = CARTESIAN_POINT ( 'NONE',  ( 9.077851480992146724E-15, 0.5999999999999995337, 2.600000000000000089 ) ) ;
#215 = EDGE_LOOP ( 'NONE', ( #89 ) ) ;
#216 = ADVANCED_FACE ( 'NONE', ( #120, #335 ), #200, .T. ) ;
#217 = VERTEX_POINT ( 'NONE', #35 ) ;
#218 = AXIS2_PLACEMENT_3D ( 'NONE', #78, #296, #55 ) ;
#219 = DIRECTION ( 'NONE',  ( 0.0000000000000000000, 1.000000000000000000, 0.0000000000000000000 ) ) ;
#220 = CARTESIAN_POINT ( 'NONE',  ( 0.0000000000000000000, 0.0000000000000000000, 0.0000000000000000000 ) ) ;
#221 = DIRECTION ( 'NONE',  ( -3.491481338843133355E-15, 1.224646799147353207E-16, -1.000000000000000000 ) ) ;
#222 = PERSON_AND_ORGANIZATION_ROLE ( 'classification_officer' ) ;
#223 = CC_DESIGN_PERSON_AND_ORGANIZATION_ASSIGNMENT ( #168, #222, ( #146 ) ) ;
#224 = CARTESIAN_POINT ( 'NONE',  ( 9.077851480992146724E-15, -3.184081677783118191E-16, 2.600000000000000089 ) ) ;
#225 = PERSON_AND_ORGANIZATION_ROLE ( 'creator' ) ;
#226 = CIRCLE ( 'NONE', #274, 0.5999999999999999778 ) ;
#227 = CC_DESIGN_APPROVAL ( #140, ( #80 ) ) ;
#228 = EDGE_LOOP ( 'NONE', ( #139 ) ) ;
#229 = COORDINATED_UNIVERSAL_TIME_OFFSET ( 1, 0, .AHEAD. ) ;
#230 = FACE_OUTER_BOUND ( 'NONE', #134, .T. ) ;
#231 = DIRECTION ( 'NONE',  ( 0.0000000000000000000, 0.0000000000000000000, 1.000000000000000000 ) ) ;
#232 = DIRECTION ( 'NONE',  ( -4.275831445896958607E-31, -1.000000000000000000, -1.224646799147353207E-16 ) ) ;
#233 = PERSON_AND_ORGANIZATION ( #262, #123 ) ;
#234 = CC_DESIGN_PERSON_AND_ORGANIZATION_ASSIGNMENT ( #170, #17, ( #268 ) ) ;
#235 = AXIS2_PLACEMENT_3D ( 'NONE', #324, #191, #219 ) ;
#236 = LOCAL_TIME ( 11, 14, 52.00000000000000000, #64 ) ;
#237 = ADVANCED_BREP_SHAPE_REPRESENTATION ( '388784', ( #295, #63, #6 ), #106 ) ;
#238 = DIRECTION ( 'NONE',  ( 0.0000000000000000000, -1.000000000000000000, 0.0000000000000000000 ) ) ;
#239 = CIRCLE ( 'NONE', #56, 1.150000000000000355 ) ;
#240 = DIRECTION ( 'NONE',  ( 3.491481338843133355E-15, -1.224646799147353207E-16, 1.000000000000000000 ) ) ;
#241 = ORIENTED_EDGE ( 'NONE', *, *, #108, .F. ) ;
#242 = DIRECTION ( 'NONE',  ( -3.491481338843133355E-15, 1.224646799147353207E-16, -1.000000000000000000 ) ) ;
#243 = EDGE_LOOP ( 'NONE', ( #2 ) ) ;
#244 =( NAMED_UNIT ( * ) SI_UNIT ( $, .STERADIAN. ) SOLID_ANGLE_UNIT ( ) );
#245 = PLANE ( 'NONE',  #342 ) ;
#246 = CARTESIAN_POINT ( 'NONE',  ( 1.312796983405018142E-13, 1.999999999999993117, 37.60000000000000142 ) ) ;
#247 = EDGE_LOOP ( 'NONE', ( #282 ) ) ;
#248 = EDGE_CURVE ( 'NONE', #15, #15, #5, .T. ) ;
#249 = DIRECTION ( 'NONE',  ( -3.491481338843133355E-15, 1.224646799147353207E-16, -1.000000000000000000 ) ) ;
#250 = ORIENTED_EDGE ( 'NONE', *, *, #4, .F. ) ;
#251 = VERTEX_POINT ( 'NONE', #327 ) ;
#252 = AXIS2_PLACEMENT_3D ( 'NONE', #171, #255, #333 ) ;
#253 = DIRECTION ( 'NONE',  ( 3.491481338843133355E-15, -1.224646799147353207E-16, 1.000000000000000000 ) ) ;
#254 = CC_DESIGN_PERSON_AND_ORGANIZATION_ASSIGNMENT ( #94, #116, ( #167 ) ) ;
#255 = DIRECTION ( 'NONE',  ( -3.491481338843133355E-15, 1.224646799147353207E-16, -1.000000000000000000 ) ) ;
#256 = CALENDAR_DATE ( 2021, 13, 12 ) ;
#257 = EDGE_LOOP ( 'NONE', ( #109 ) ) ;
#258 = AXIS2_PLACEMENT_3D ( 'NONE', #27, #121, #103 ) ;
#259 = LOCAL_TIME ( 11, 14, 52.00000000000000000, #287 ) ;
#260 = CARTESIAN_POINT ( 'NONE',  ( 1.256933281983527850E-14, -4.336808689942017736E-16, 3.599999999999999645 ) ) ;
#261 = DIRECTION ( 'NONE',  ( 3.491481338843133355E-15, -1.224646799147353207E-16, 1.000000000000000000 ) ) ;
#262 = PERSON ( 'UNSPECIFIED', 'UNSPECIFIED', 'UNSPECIFIED', ('UNSPECIFIED'), ('UNSPECIFIED'), ('UNSPECIFIED') ) ;
#263 = EDGE_CURVE ( 'NONE', #110, #110, #100, .T. ) ;
#264 = APPLICATION_PROTOCOL_DEFINITION ( 'international standard', 'config_control_design', 1994, #197 ) ;
#265 = CONICAL_SURFACE ( 'NONE', #150, 1.959999999999999964, 0.2094395102393125929 ) ;
#266 = CC_DESIGN_DATE_AND_TIME_ASSIGNMENT ( #330, #283, ( #146 ) ) ;
#267 = FACE_OUTER_BOUND ( 'NONE', #173, .T. ) ;
#268 = PRODUCT ( '388784', '388784', '', ( #22 ) ) ;
#269 = CYLINDRICAL_SURFACE ( 'NONE', #155, 1.999999999999997335 ) ;
#270 = FACE_OUTER_BOUND ( 'NONE', #228, .T. ) ;
#271 = APPROVAL ( #24, 'UNSPECIFIED' ) ;
#272 = CARTESIAN_POINT ( 'NONE',  ( 1.326762908760390423E-13, 1.599999999999993205, 38.00000000000000000 ) ) ;
#273 = CARTESIAN_POINT ( 'NONE',  ( 2.137183397710474803E-32, 0.5999999999999995337, 6.121136532892404794E-18 ) ) ;
#274 = AXIS2_PLACEMENT_3D ( 'NONE', #58, #59, #321 ) ;
#275 = CARTESIAN_POINT ( 'NONE',  ( 1.504828457041390350E-14, 0.7062339690556521665, 4.309999999999999609 ) ) ;
#276 = FACE_OUTER_BOUND ( 'NONE', #189, .T. ) ;
#277 = FACE_OUTER_BOUND ( 'NONE', #257, .T. ) ;
#278 = PLANE ( 'NONE',  #281 ) ;
#279 = PRODUCT_RELATED_PRODUCT_CATEGORY ( 'detail', '', ( #268 ) ) ;
#280 = DATE_AND_TIME ( #256, #340 ) ;
#281 = AXIS2_PLACEMENT_3D ( 'NONE', #38, #253, #16 ) ;
#282 = ORIENTED_EDGE ( 'NONE', *, *, #50, .F. ) ;
#283 = DATE_TIME_ROLE ( 'classification_date' ) ;
#284 = ORIENTED_EDGE ( 'NONE', *, *, #190, .F. ) ;
#285 = PERSON_AND_ORGANIZATION ( #262, #123 ) ;
#286 = ORIENTED_EDGE ( 'NONE', *, *, #25, .F. ) ;
#287 = COORDINATED_UNIVERSAL_TIME_OFFSET ( 1, 0, .AHEAD. ) ;
#288 = EDGE_CURVE ( 'NONE', #3, #3, #226, .T. ) ;
#289 = DIRECTION ( 'NONE',  ( -3.491481338843133355E-15, 1.224646799147353207E-16, -1.000000000000000000 ) ) ;
#290 = APPROVAL_STATUS ( 'not_yet_approved' ) ;
#291 = EDGE_CURVE ( 'NONE', #298, #298, #201, .T. ) ;
#292 = AXIS2_PLACEMENT_3D ( 'NONE', #315, #152, #125 ) ;
#293 = DIRECTION ( 'NONE',  ( -4.275831445896958607E-31, -1.000000000000000000, -1.224646799147353207E-16 ) ) ;
#294 = CARTESIAN_POINT ( 'NONE',  ( 1.402117239707024492E-14, -4.917965250261004085E-16, 4.015823381635491351 ) ) ;
#295 = MANIFOLD_SOLID_BREP ( 'Corps-Déplacer/Copier1[1]', #51 ) ;
#296 = DIRECTION ( 'NONE',  ( -3.491481338843133355E-15, 1.224646799147353207E-16, -1.000000000000000000 ) ) ;
#297 = ADVANCED_FACE ( 'NONE', ( #277, #163 ), #187, .T. ) ;
#298 = VERTEX_POINT ( 'NONE', #272 ) ;
#299 = DIRECTION ( 'NONE',  ( 0.0000000000000000000, 1.000000000000000000, 0.0000000000000000000 ) ) ;
#300 = AXIS2_PLACEMENT_3D ( 'NONE', #76, #1, #232 ) ;
#301 = VERTEX_POINT ( 'NONE', #246 ) ;
#302 = EDGE_LOOP ( 'NONE', ( #303 ) ) ;
#303 = ORIENTED_EDGE ( 'NONE', *, *, #263, .F. ) ;
#304 = COORDINATED_UNIVERSAL_TIME_OFFSET ( 1, 0, .AHEAD. ) ;
#305 = DESIGN_CONTEXT ( 'detailed design', #197, 'design' ) ;
#306 = EDGE_LOOP ( 'NONE', ( #39 ) ) ;
#307 = CIRCLE ( 'NONE', #188, 1.999999999999997780 ) ;
#308 = CALENDAR_DATE ( 2021, 13, 12 ) ;
#309 = AXIS2_PLACEMENT_3D ( 'NONE', #260, #242, #127 ) ;
#310 = CYLINDRICAL_SURFACE ( 'NONE', #218, 1.959999999999999964 ) ;
#311 = EDGE_LOOP ( 'NONE', ( #241 ) ) ;
#312 = DIRECTION ( 'NONE',  ( 4.275831445896959482E-31, 1.000000000000000000, 1.224646799147353454E-16 ) ) ;
#313 = DATE_AND_TIME ( #119, #236 ) ;
#314 = AXIS2_PLACEMENT_3D ( 'NONE', #210, #8, #299 ) ;
#315 = CARTESIAN_POINT ( 'NONE',  ( 1.504828457041390350E-14, -5.278227704325092222E-16, 4.309999999999999609 ) ) ;
#316 = DIRECTION ( 'NONE',  ( 0.0000000000000000000, -1.000000000000000000, 0.0000000000000000000 ) ) ;
#317 = DIRECTION ( 'NONE',  ( -4.275831445896958607E-31, -1.000000000000000000, -1.224646799147353207E-16 ) ) ;
#318 = DIRECTION ( 'NONE',  ( 0.0000000000000000000, 1.000000000000000000, 0.0000000000000000000 ) ) ;
#319 = ORIENTED_EDGE ( 'NONE', *, *, #291, .F. ) ;
#320 = AXIS2_PLACEMENT_3D ( 'NONE', #224, #65, #169 ) ;
#321 = DIRECTION ( 'NONE',  ( 0.0000000000000000000, 1.000000000000000000, 0.0000000000000000000 ) ) ;
#322 = ORIENTED_EDGE ( 'NONE', *, *, #108, .T. ) ;
#323 = APPLICATION_PROTOCOL_DEFINITION ( 'international standard', 'config_control_design', 1994, #48 ) ;
#324 = CARTESIAN_POINT ( 'NONE',  ( 3.386736898677838724E-14, -1.187907395172932396E-15, 9.699999999999999289 ) ) ;
#325 = DIRECTION ( 'NONE',  ( 0.0000000000000000000, 1.000000000000000000, 0.0000000000000000000 ) ) ;
#326 = EDGE_LOOP ( 'NONE', ( #93 ) ) ;
#327 = CARTESIAN_POINT ( 'NONE',  ( 1.402117239707024492E-14, 0.6437047985323819388, 4.015823381635491351 ) ) ;
#328 = ADVANCED_FACE ( 'NONE', ( #83 ), #245, .F. ) ;
#329 = ORIENTED_EDGE ( 'NONE', *, *, #288, .F. ) ;
#330 = DATE_AND_TIME ( #68, #259 ) ;
#331 = FACE_OUTER_BOUND ( 'NONE', #42, .T. ) ;
#332 = AXIS2_PLACEMENT_3D ( 'NONE', #61, #165, #130 ) ;
#333 = DIRECTION ( 'NONE',  ( 0.0000000000000000000, 1.000000000000000000, 0.0000000000000000000 ) ) ;
#334 = PERSON_AND_ORGANIZATION ( #262, #123 ) ;
#335 = FACE_OUTER_BOUND ( 'NONE', #67, .T. ) ;
#336 = FACE_BOUND ( 'NONE', #54, .T. ) ;
#337 = APPROVAL_ROLE ( '' ) ;
#338 = AXIS2_PLACEMENT_3D ( 'NONE', #18, #221, #117 ) ;
#339 = CC_DESIGN_DATE_AND_TIME_ASSIGNMENT ( #43, #199, ( #167 ) ) ;
#340 = LOCAL_TIME ( 11, 14, 52.00000000000000000, #304 ) ;
#341 = CARTESIAN_POINT ( 'NONE',  ( 1.504828457041390350E-14, -5.278227704325092222E-16, 4.309999999999999609 ) ) ;
#342 = AXIS2_PLACEMENT_3D ( 'NONE', #161, #37, #107 ) ;
#343 = EDGE_CURVE ( 'NONE', #217, #217, #239, .T. ) ;
ENDSEC;
END-ISO-10303-21;
