ISO-10303-21;
HEADER;
FILE_DESCRIPTION (( 'STEP AP203' ),
    '1' );
FILE_NAME ('388783.step',
    '2021-12-13T10:14:51',
    ( '' ),
    ( '' ),
    'SwSTEP 2.0',
    'SolidWorks 2019',
    '' );
FILE_SCHEMA (( 'CONFIG_CONTROL_DESIGN' ));
ENDSEC;

DATA;
#1 = DIRECTION ( 'NONE',  ( 3.491481338843133355E-15, -1.215841905902890654E-16, 1.000000000000000000 ) ) ;
#2 = CIRCLE ( 'NONE', #37, 1.959999999999999964 ) ;
#3 = CARTESIAN_POINT ( 'NONE',  ( 0.0000000000000000000, 0.0000000000000000000, 0.0000000000000000000 ) ) ;
#4 = PERSON_AND_ORGANIZATION ( #194, #136 ) ;
#5 = CARTESIAN_POINT ( 'NONE',  ( 8.379555213223518475E-15, -2.939152317953647106E-16, 2.399999999999999911 ) ) ;
#6 = CARTESIAN_POINT ( 'NONE',  ( 1.103308103074430172E-14, -4.176646365942710475E-16, 3.160000000000000142 ) ) ;
#7 =( NAMED_UNIT ( * ) SI_UNIT ( $, .STERADIAN. ) SOLID_ANGLE_UNIT ( ) );
#8 = CALENDAR_DATE ( 2021, 13, 12 ) ;
#9 = CARTESIAN_POINT ( 'NONE',  ( 8.379555213223518475E-15, -3.252606517456513302E-16, 2.399999999999999911 ) ) ;
#10 = APPROVAL_DATE_TIME ( #160, #94 ) ;
#11 = VERTEX_POINT ( 'NONE', #153 ) ;
#12 = CARTESIAN_POINT ( 'NONE',  ( 1.312796983405018142E-13, 1.999999999999993117, 37.60000000000000142 ) ) ;
#13 = APPLICATION_PROTOCOL_DEFINITION ( 'international standard', 'config_control_design', 1994, #260 ) ;
#14 = VERTEX_POINT ( 'NONE', #40 ) ;
#15 = CALENDAR_DATE ( 2021, 13, 12 ) ;
#16 = EDGE_CURVE ( 'NONE', #224, #224, #150, .T. ) ;
#17 = ORIENTED_EDGE ( 'NONE', *, *, #167, .T. ) ;
#18 = EDGE_LOOP ( 'NONE', ( #68 ) ) ;
#19 = CC_DESIGN_APPROVAL ( #94, ( #43 ) ) ;
#20 = ORIENTED_EDGE ( 'NONE', *, *, #72, .T. ) ;
#21 = ORIENTED_EDGE ( 'NONE', *, *, #120, .F. ) ;
#22 = EDGE_LOOP ( 'NONE', ( #114 ) ) ;
#23 = AXIS2_PLACEMENT_3D ( 'NONE', #190, #210, #212 ) ;
#24 = DIRECTION ( 'NONE',  ( 4.245089325443411538E-31, 1.000000000000000000, 1.215841905902890654E-16 ) ) ;
#25 = PERSON_AND_ORGANIZATION ( #194, #136 ) ;
#26 = APPROVAL ( #283, 'UNSPECIFIED' ) ;
#27 = DIRECTION ( 'NONE',  ( -4.275831445896958607E-31, -1.000000000000000000, -1.224646799147353207E-16 ) ) ;
#28 = FACE_OUTER_BOUND ( 'NONE', #273, .T. ) ;
#29 = COORDINATED_UNIVERSAL_TIME_OFFSET ( 1, 0, .AHEAD. ) ;
#30 =( GEOMETRIC_REPRESENTATION_CONTEXT ( 3 ) GLOBAL_UNCERTAINTY_ASSIGNED_CONTEXT ( ( #181 ) ) GLOBAL_UNIT_ASSIGNED_CONTEXT ( ( #149, #176, #7 ) ) REPRESENTATION_CONTEXT ( 'NONE', 'WORKASPACE' ) );
#31 = PLANE ( 'NONE',  #232 ) ;
#32 = APPROVAL ( #292, 'UNSPECIFIED' ) ;
#33 = CARTESIAN_POINT ( 'NONE',  ( 8.379555213223518475E-15, 4.124339402320103632E-33, 2.399999999999999911 ) ) ;
#34 = FACE_BOUND ( 'NONE', #140, .T. ) ;
#35 = VERTEX_POINT ( 'NONE', #183 ) ;
#36 = DIRECTION ( 'NONE',  ( 1.000000000000000000, 0.0000000000000000000, 0.0000000000000000000 ) ) ;
#37 = AXIS2_PLACEMENT_3D ( 'NONE', #267, #154, #132 ) ;
#38 = CARTESIAN_POINT ( 'NONE',  ( -1.068994477736138921E-31, 3.749527889212575189E-33, -3.061721871010599170E-17 ) ) ;
#39 = PERSON_AND_ORGANIZATION_ROLE ( 'design_owner' ) ;
#40 = CARTESIAN_POINT ( 'NONE',  ( 2.845553184111004326E-14, 1.959999999999999076, 8.149988236952310672 ) ) ;
#41 = COORDINATED_UNIVERSAL_TIME_OFFSET ( 1, 0, .AHEAD. ) ;
#42 = APPROVAL_PERSON_ORGANIZATION ( #218, #94, #203 ) ;
#43 = PRODUCT_DEFINITION ( 'UNKNOWN', '', #122, #264 ) ;
#44 = ADVANCED_FACE ( 'NONE', ( #141 ), #230, .T. ) ;
#45 = APPROVAL_ROLE ( '' ) ;
#46 = ORIENTED_EDGE ( 'NONE', *, *, #196, .T. ) ;
#47 = EDGE_LOOP ( 'NONE', ( #49 ) ) ;
#48 = DIRECTION ( 'NONE',  ( 0.0000000000000000000, 1.000000000000000000, 0.0000000000000000000 ) ) ;
#49 = ORIENTED_EDGE ( 'NONE', *, *, #167, .F. ) ;
#50 = ADVANCED_FACE ( 'NONE', ( #79, #235 ), #237, .T. ) ;
#51 = AXIS2_PLACEMENT_3D ( 'NONE', #128, #217, #178 ) ;
#52 = DIRECTION ( 'NONE',  ( 3.491481338843133355E-15, -1.224646799147353207E-16, 1.000000000000000000 ) ) ;
#53 = FACE_OUTER_BOUND ( 'NONE', #139, .T. ) ;
#54 = FACE_OUTER_BOUND ( 'NONE', #186, .T. ) ;
#55 = PRODUCT_RELATED_PRODUCT_CATEGORY ( 'detail', '', ( #113 ) ) ;
#56 = MANIFOLD_SOLID_BREP ( 'Corps-Déplacer/Copier3[1]', #288 ) ;
#57 = DIRECTION ( 'NONE',  ( -3.491481338843133355E-15, 1.215841905902890654E-16, -1.000000000000000000 ) ) ;
#58 = CYLINDRICAL_SURFACE ( 'NONE', #177, 0.5500000000000001554 ) ;
#59 = DIRECTION ( 'NONE',  ( -3.491481338843133355E-15, 1.215841905902890654E-16, -1.000000000000000000 ) ) ;
#60 = DIRECTION ( 'NONE',  ( -3.491481338843133355E-15, 1.215841905902890654E-16, -1.000000000000000000 ) ) ;
#61 = AXIS2_PLACEMENT_3D ( 'NONE', #170, #254, #36 ) ;
#62 = CC_DESIGN_SECURITY_CLASSIFICATION ( #66, ( #122 ) ) ;
#63 = CALENDAR_DATE ( 2021, 13, 12 ) ;
#64 = ADVANCED_FACE ( 'NONE', ( #75 ), #31, .T. ) ;
#65 = CIRCLE ( 'NONE', #51, 0.5500000000000001554 ) ;
#66 = SECURITY_CLASSIFICATION ( '', '', #76 ) ;
#67 = ORIENTED_EDGE ( 'NONE', *, *, #276, .F. ) ;
#68 = ORIENTED_EDGE ( 'NONE', *, *, #152, .T. ) ;
#69 = EDGE_LOOP ( 'NONE', ( #142 ) ) ;
#70 = AXIS2_PLACEMENT_3D ( 'NONE', #77, #151, #239 ) ;
#71 = EDGE_LOOP ( 'NONE', ( #277 ) ) ;
#72 = EDGE_CURVE ( 'NONE', #14, #14, #187, .T. ) ;
#73 = CARTESIAN_POINT ( 'NONE',  ( 1.312796983405018142E-13, -4.605024160523826591E-15, 37.60000000000000142 ) ) ;
#74 = AXIS2_PLACEMENT_3D ( 'NONE', #9, #156, #133 ) ;
#75 = FACE_OUTER_BOUND ( 'NONE', #22, .T. ) ;
#76 = SECURITY_CLASSIFICATION_LEVEL ( 'unclassified' ) ;
#77 = CARTESIAN_POINT ( 'NONE',  ( 1.326762908760390423E-13, -4.653657836759941941E-15, 38.00000000000000000 ) ) ;
#78 = CALENDAR_DATE ( 2021, 13, 12 ) ;
#79 = FACE_OUTER_BOUND ( 'NONE', #138, .T. ) ;
#80 = APPROVAL_DATE_TIME ( #172, #26 ) ;
#81 = AXIS2_PLACEMENT_3D ( 'NONE', #207, #92, #48 ) ;
#82 = CYLINDRICAL_SURFACE ( 'NONE', #143, 0.5499999999999999334 ) ;
#83 = PLANE ( 'NONE',  #253 ) ;
#84 = CC_DESIGN_DATE_AND_TIME_ASSIGNMENT ( #112, #297, ( #43 ) ) ;
#85 = CARTESIAN_POINT ( 'NONE',  ( 1.103308103074430172E-14, -4.176646365942710475E-16, 3.160000000000000142 ) ) ;
#86 = FACE_OUTER_BOUND ( 'NONE', #248, .T. ) ;
#87 = ADVANCED_FACE ( 'NONE', ( #146, #284 ), #95, .T. ) ;
#88 = CARTESIAN_POINT ( 'NONE',  ( 1.326762908760390423E-13, 1.599999999999993205, 38.00000000000000000 ) ) ;
#89 = FACE_OUTER_BOUND ( 'NONE', #69, .T. ) ;
#90 = PERSON_AND_ORGANIZATION ( #194, #136 ) ;
#91 = ORIENTED_EDGE ( 'NONE', *, *, #110, .F. ) ;
#92 = DIRECTION ( 'NONE',  ( -3.491481338843133355E-15, 1.215841905902890654E-16, -1.000000000000000000 ) ) ;
#93 = CIRCLE ( 'NONE', #103, 0.5500000000000000444 ) ;
#94 = APPROVAL ( #134, 'UNSPECIFIED' ) ;
#95 = PLANE ( 'NONE',  #271 ) ;
#96 = DATE_AND_TIME ( #200, #184 ) ;
#97 = PERSON_AND_ORGANIZATION_ROLE ( 'design_supplier' ) ;
#98 = CIRCLE ( 'NONE', #171, 0.8349999999999999645 ) ;
#99 = LOCAL_TIME ( 11, 14, 51.00000000000000000, #41 ) ;
#100 = DIRECTION ( 'NONE',  ( -3.491481338843133355E-15, 1.224646799147353207E-16, -1.000000000000000000 ) ) ;
#101 = FACE_OUTER_BOUND ( 'NONE', #298, .T. ) ;
#102 = CARTESIAN_POINT ( 'NONE',  ( 8.379555213223518475E-15, 0.5499999999999997113, 2.399999999999999911 ) ) ;
#103 = AXIS2_PLACEMENT_3D ( 'NONE', #5, #124, #175 ) ;
#104 = LOCAL_TIME ( 11, 14, 51.00000000000000000, #127 ) ;
#105 = PLANE ( 'NONE',  #206 ) ;
#106 = ADVANCED_FACE ( 'NONE', ( #28, #54 ), #234, .T. ) ;
#107 = PERSON_AND_ORGANIZATION ( #194, #136 ) ;
#108 = DIRECTION ( 'NONE',  ( -4.245089325443411538E-31, -1.000000000000000000, -1.215841905902890654E-16 ) ) ;
#109 = PLANE ( 'NONE',  #168 ) ;
#110 = EDGE_CURVE ( 'NONE', #11, #11, #226, .T. ) ;
#111 = CARTESIAN_POINT ( 'NONE',  ( -2.137988955472277843E-31, 7.499055778425150378E-33, -6.123443742021198339E-17 ) ) ;
#112 = DATE_AND_TIME ( #15, #99 ) ;
#113 = PRODUCT ( '388783', '388783', '', ( #158 ) ) ;
#114 = ORIENTED_EDGE ( 'NONE', *, *, #110, .T. ) ;
#115 = CIRCLE ( 'NONE', #275, 0.5499999999999997113 ) ;
#116 = LOCAL_TIME ( 11, 14, 51.00000000000000000, #29 ) ;
#117 = ORIENTED_EDGE ( 'NONE', *, *, #266, .F. ) ;
#118 = APPLICATION_CONTEXT ( 'configuration controlled 3d designs of mechanical parts and assemblies' ) ;
#119 = EDGE_LOOP ( 'NONE', ( #169 ) ) ;
#120 = EDGE_CURVE ( 'NONE', #243, #243, #93, .T. ) ;
#121 = CLOSED_SHELL ( 'NONE', ( #289, #163, #44 ) ) ;
#122 = PRODUCT_DEFINITION_FORMATION_WITH_SPECIFIED_SOURCE ( 'ANY', '', #113, .NOT_KNOWN. ) ;
#123 = FACE_OUTER_BOUND ( 'NONE', #251, .T. ) ;
#124 = DIRECTION ( 'NONE',  ( -3.491481338843133355E-15, 1.224646799147353207E-16, -1.000000000000000000 ) ) ;
#125 = CARTESIAN_POINT ( 'NONE',  ( 8.379555213223518475E-15, -3.252606517456513302E-16, 2.399999999999999911 ) ) ;
#126 = CARTESIAN_POINT ( 'NONE',  ( 1.103308103074430172E-14, 0.8349999999999995204, 3.160000000000000142 ) ) ;
#127 = COORDINATED_UNIVERSAL_TIME_OFFSET ( 1, 0, .AHEAD. ) ;
#128 = CARTESIAN_POINT ( 'NONE',  ( 1.103308103074430172E-14, -4.176646365942710475E-16, 3.160000000000000142 ) ) ;
#129 = PERSON_AND_ORGANIZATION_ROLE ( 'creator' ) ;
#130 = ADVANCED_FACE ( 'NONE', ( #281, #101 ), #58, .T. ) ;
#131 = FACE_OUTER_BOUND ( 'NONE', #18, .T. ) ;
#132 = DIRECTION ( 'NONE',  ( 0.0000000000000000000, 1.000000000000000000, 0.0000000000000000000 ) ) ;
#133 = DIRECTION ( 'NONE',  ( 7.703719777548953922E-31, 1.000000000000000000, 2.168404344971011826E-16 ) ) ;
#134 = APPROVAL_STATUS ( 'not_yet_approved' ) ;
#135 = DIRECTION ( 'NONE',  ( 0.0000000000000000000, 1.000000000000000000, 0.0000000000000000000 ) ) ;
#136 = ORGANIZATION ( 'UNSPECIFIED', 'UNSPECIFIED', '' ) ;
#137 = CC_DESIGN_PERSON_AND_ORGANIZATION_ASSIGNMENT ( #147, #145, ( #66 ) ) ;
#138 = EDGE_LOOP ( 'NONE', ( #20 ) ) ;
#139 = EDGE_LOOP ( 'NONE', ( #67 ) ) ;
#140 = EDGE_LOOP ( 'NONE', ( #117 ) ) ;
#141 = FACE_OUTER_BOUND ( 'NONE', #228, .T. ) ;
#142 = ORIENTED_EDGE ( 'NONE', *, *, #276, .T. ) ;
#143 = AXIS2_PLACEMENT_3D ( 'NONE', #3, #100, #282 ) ;
#144 = DIRECTION ( 'NONE',  ( -3.491481338843133355E-15, 1.215841905902890654E-16, -1.000000000000000000 ) ) ;
#145 = PERSON_AND_ORGANIZATION_ROLE ( 'classification_officer' ) ;
#146 = FACE_OUTER_BOUND ( 'NONE', #188, .T. ) ;
#147 = PERSON_AND_ORGANIZATION ( #194, #136 ) ;
#148 = DIRECTION ( 'NONE',  ( -3.491481338843133355E-15, 1.215841905902890654E-16, -1.000000000000000000 ) ) ;
#149 =( LENGTH_UNIT ( ) NAMED_UNIT ( * ) SI_UNIT ( .MILLI., .METRE. ) );
#150 = CIRCLE ( 'NONE', #81, 1.999999999999997780 ) ;
#151 = DIRECTION ( 'NONE',  ( -3.491481338843133355E-15, 1.215841905902890654E-16, -1.000000000000000000 ) ) ;
#152 = EDGE_CURVE ( 'NONE', #291, #291, #265, .T. ) ;
#153 = CARTESIAN_POINT ( 'NONE',  ( 8.379555213223518475E-15, 0.5499999999999997113, 2.399999999999999911 ) ) ;
#154 = DIRECTION ( 'NONE',  ( -3.491481338843133355E-15, 1.215841905902890654E-16, -1.000000000000000000 ) ) ;
#155 = CONICAL_SURFACE ( 'NONE', #299, 1.999999999999997780, 0.7853981633974516097 ) ;
#156 = DIRECTION ( 'NONE',  ( -3.491481338843133355E-15, 1.215841905902890654E-16, -1.000000000000000000 ) ) ;
#157 = FACE_OUTER_BOUND ( 'NONE', #71, .T. ) ;
#158 = MECHANICAL_CONTEXT ( 'NONE', #118, 'mechanical' ) ;
#159 = DIRECTION ( 'NONE',  ( 0.0000000000000000000, 1.000000000000000000, 0.0000000000000000000 ) ) ;
#160 = DATE_AND_TIME ( #63, #214 ) ;
#161 = AXIS2_PLACEMENT_3D ( 'NONE', #33, #52, #27 ) ;
#162 = CC_DESIGN_APPROVAL ( #26, ( #66 ) ) ;
#163 = ADVANCED_FACE ( 'NONE', ( #53, #279 ), #82, .T. ) ;
#164 = PRODUCT_DEFINITION_SHAPE ( 'NONE', 'NONE',  #43 ) ;
#165 = EDGE_LOOP ( 'NONE', ( #303 ) ) ;
#166 = ORIENTED_EDGE ( 'NONE', *, *, #72, .F. ) ;
#167 = EDGE_CURVE ( 'NONE', #263, #263, #201, .T. ) ;
#168 = AXIS2_PLACEMENT_3D ( 'NONE', #270, #296, #268 ) ;
#169 = ORIENTED_EDGE ( 'NONE', *, *, #196, .F. ) ;
#170 = CARTESIAN_POINT ( 'NONE',  ( 0.0000000000000000000, 0.0000000000000000000, 0.0000000000000000000 ) ) ;
#171 = AXIS2_PLACEMENT_3D ( 'NONE', #85, #60, #159 ) ;
#172 = DATE_AND_TIME ( #78, #116 ) ;
#173 = DIRECTION ( 'NONE',  ( 0.0000000000000000000, 1.000000000000000000, 0.0000000000000000000 ) ) ;
#174 = DIRECTION ( 'NONE',  ( 0.0000000000000000000, 1.000000000000000000, 0.0000000000000000000 ) ) ;
#175 = DIRECTION ( 'NONE',  ( 0.0000000000000000000, 1.000000000000000000, 0.0000000000000000000 ) ) ;
#176 =( NAMED_UNIT ( * ) PLANE_ANGLE_UNIT ( ) SI_UNIT ( $, .RADIAN. ) );
#177 = AXIS2_PLACEMENT_3D ( 'NONE', #199, #57, #173 ) ;
#178 = DIRECTION ( 'NONE',  ( 0.0000000000000000000, 1.000000000000000000, 0.0000000000000000000 ) ) ;
#179 = CARTESIAN_POINT ( 'NONE',  ( 3.386736898677838724E-14, 1.999999999999995337, 9.699999999999999289 ) ) ;
#180 = AXIS2_PLACEMENT_3D ( 'NONE', #255, #144, #174 ) ;
#181 = UNCERTAINTY_MEASURE_WITH_UNIT (LENGTH_MEASURE( 1.000000000000000082E-05 ), #149, 'distance_accuracy_value', 'NONE');
#182 = APPROVAL_PERSON_ORGANIZATION ( #90, #32, #45 ) ;
#183 = CARTESIAN_POINT ( 'NONE',  ( 1.103308103074430172E-14, 0.5499999999999997113, 3.160000000000000142 ) ) ;
#184 = LOCAL_TIME ( 11, 14, 51.00000000000000000, #285 ) ;
#185 = CARTESIAN_POINT ( 'NONE',  ( 1.103308103074430172E-14, 0.8349999999999995204, 3.160000000000000142 ) ) ;
#186 = EDGE_LOOP ( 'NONE', ( #166 ) ) ;
#187 = CIRCLE ( 'NONE', #180, 1.959999999999999964 ) ;
#188 = EDGE_LOOP ( 'NONE', ( #302 ) ) ;
#189 = APPROVAL_PERSON_ORGANIZATION ( #4, #26, #252 ) ;
#190 = CARTESIAN_POINT ( 'NONE',  ( 3.386736898677838724E-14, -1.212825243054761399E-15, 9.699999999999999289 ) ) ;
#191 = CC_DESIGN_PERSON_AND_ORGANIZATION_ASSIGNMENT ( #25, #129, ( #122 ) ) ;
#192 = DIRECTION ( 'NONE',  ( 0.0000000000000000000, -1.000000000000000000, 0.0000000000000000000 ) ) ;
#193 = DIRECTION ( 'NONE',  ( 4.245089325443411538E-31, 1.000000000000000000, 1.215841905902890654E-16 ) ) ;
#194 = PERSON ( 'UNSPECIFIED', 'UNSPECIFIED', 'UNSPECIFIED', ('UNSPECIFIED'), ('UNSPECIFIED'), ('UNSPECIFIED') ) ;
#195 = APPROVAL_DATE_TIME ( #198, #32 ) ;
#196 = EDGE_CURVE ( 'NONE', #35, #35, #65, .T. ) ;
#197 = DIRECTION ( 'NONE',  ( -3.491481338843133355E-15, 1.215841905902890654E-16, -1.000000000000000000 ) ) ;
#198 = DATE_AND_TIME ( #8, #104 ) ;
#199 = CARTESIAN_POINT ( 'NONE',  ( 8.379555213223518475E-15, -3.252606517456513302E-16, 2.399999999999999911 ) ) ;
#200 = CALENDAR_DATE ( 2021, 13, 12 ) ;
#201 = CIRCLE ( 'NONE', #70, 1.599999999999997646 ) ;
#202 = DIRECTION ( 'NONE',  ( 3.491481338843133355E-15, -1.224646799147353207E-16, 1.000000000000000000 ) ) ;
#203 = APPROVAL_ROLE ( '' ) ;
#204 = CARTESIAN_POINT ( 'NONE',  ( 8.379555213223518475E-15, 0.5499999999999997113, 2.399999999999999911 ) ) ;
#205 = EDGE_LOOP ( 'NONE', ( #46 ) ) ;
#206 = AXIS2_PLACEMENT_3D ( 'NONE', #38, #202, #221 ) ;
#207 = CARTESIAN_POINT ( 'NONE',  ( 1.312796983405018142E-13, -4.605024160523826591E-15, 37.60000000000000142 ) ) ;
#208 = ORIENTED_EDGE ( 'NONE', *, *, #16, .F. ) ;
#209 = VERTEX_POINT ( 'NONE', #238 ) ;
#210 = DIRECTION ( 'NONE',  ( -3.491481338843133355E-15, 1.215841905902890654E-16, -1.000000000000000000 ) ) ;
#211 = DATE_TIME_ROLE ( 'classification_date' ) ;
#212 = DIRECTION ( 'NONE',  ( 0.0000000000000000000, 1.000000000000000000, 0.0000000000000000000 ) ) ;
#213 = AXIS2_PLACEMENT_3D ( 'NONE', #125, #216, #286 ) ;
#214 = LOCAL_TIME ( 11, 14, 51.00000000000000000, #269 ) ;
#215 = ADVANCED_FACE ( 'NONE', ( #261, #123 ), #155, .T. ) ;
#216 = DIRECTION ( 'NONE',  ( -3.491481338843133355E-15, 1.215841905902890654E-16, -1.000000000000000000 ) ) ;
#217 = DIRECTION ( 'NONE',  ( -3.491481338843133355E-15, 1.215841905902890654E-16, -1.000000000000000000 ) ) ;
#218 = PERSON_AND_ORGANIZATION ( #194, #136 ) ;
#219 = DIRECTION ( 'NONE',  ( 3.491481338843133355E-15, -1.215841905902890654E-16, 1.000000000000000000 ) ) ;
#220 = CC_DESIGN_DATE_AND_TIME_ASSIGNMENT ( #96, #211, ( #66 ) ) ;
#221 = DIRECTION ( 'NONE',  ( -4.275831445896958607E-31, -1.000000000000000000, -1.224646799147353207E-16 ) ) ;
#222 = CC_DESIGN_PERSON_AND_ORGANIZATION_ASSIGNMENT ( #245, #39, ( #113 ) ) ;
#223 = AXIS2_PLACEMENT_3D ( 'NONE', #6, #1, #192 ) ;
#224 = VERTEX_POINT ( 'NONE', #12 ) ;
#225 = ORIENTED_EDGE ( 'NONE', *, *, #262, .F. ) ;
#226 = CIRCLE ( 'NONE', #213, 0.5500000000000000444 ) ;
#227 = ORIENTED_EDGE ( 'NONE', *, *, #266, .T. ) ;
#228 = EDGE_LOOP ( 'NONE', ( #21 ) ) ;
#229 = CARTESIAN_POINT ( 'NONE',  ( 3.386736898677838724E-14, 1.959999999999998632, 9.699999999999999289 ) ) ;
#230 = PLANE ( 'NONE',  #161 ) ;
#231 = ADVANCED_FACE ( 'NONE', ( #131, #34 ), #109, .T. ) ;
#232 = AXIS2_PLACEMENT_3D ( 'NONE', #102, #197, #24 ) ;
#233 = DIRECTION ( 'NONE',  ( 7.860938548519330173E-31, 1.000000000000000000, 2.212657494868376441E-16 ) ) ;
#234 = CYLINDRICAL_SURFACE ( 'NONE', #295, 1.959999999999999964 ) ;
#235 = FACE_BOUND ( 'NONE', #274, .T. ) ;
#236 = PERSON_AND_ORGANIZATION ( #194, #136 ) ;
#237 = CONICAL_SURFACE ( 'NONE', #223, 0.8349999999999999645, 0.2217440814658726000 ) ;
#238 = CARTESIAN_POINT ( 'NONE',  ( 2.137183397710479182E-32, 0.5499999999999997113, 6.121136532892404794E-18 ) ) ;
#239 = DIRECTION ( 'NONE',  ( 0.0000000000000000000, 1.000000000000000000, 0.0000000000000000000 ) ) ;
#240 = DIRECTION ( 'NONE',  ( -3.491481338843133355E-15, 1.224646799147353207E-16, -1.000000000000000000 ) ) ;
#241 = ADVANCED_FACE ( 'NONE', ( #293 ), #83, .T. ) ;
#242 = CARTESIAN_POINT ( 'NONE',  ( 1.326762908760390423E-13, -4.653657836759941941E-15, 38.00000000000000000 ) ) ;
#243 = VERTEX_POINT ( 'NONE', #204 ) ;
#244 = CYLINDRICAL_SURFACE ( 'NONE', #74, 1.999999999999997335 ) ;
#245 = PERSON_AND_ORGANIZATION ( #194, #136 ) ;
#246 = PERSON_AND_ORGANIZATION_ROLE ( 'creator' ) ;
#247 = MANIFOLD_SOLID_BREP ( 'Corps-Déplacer/Copier3[2]', #121 ) ;
#248 = EDGE_LOOP ( 'NONE', ( #278 ) ) ;
#249 = EDGE_LOOP ( 'NONE', ( #17 ) ) ;
#250 = CC_DESIGN_PERSON_AND_ORGANIZATION_ASSIGNMENT ( #236, #97, ( #122 ) ) ;
#251 = EDGE_LOOP ( 'NONE', ( #208 ) ) ;
#252 = APPROVAL_ROLE ( '' ) ;
#253 = AXIS2_PLACEMENT_3D ( 'NONE', #242, #219, #108 ) ;
#254 = DIRECTION ( 'NONE',  ( 0.0000000000000000000, 0.0000000000000000000, 1.000000000000000000 ) ) ;
#255 = CARTESIAN_POINT ( 'NONE',  ( 2.845553184111004326E-14, -1.024368317439181216E-15, 8.149988236952310672 ) ) ;
#256 = APPLICATION_PROTOCOL_DEFINITION ( 'international standard', 'config_control_design', 1994, #118 ) ;
#257 = CARTESIAN_POINT ( 'NONE',  ( 8.379555213223518475E-15, -3.252606517456513302E-16, 2.399999999999999911 ) ) ;
#258 = DIRECTION ( 'NONE',  ( -3.491481338843133355E-15, 1.215841905902890654E-16, -1.000000000000000000 ) ) ;
#259 = SHAPE_DEFINITION_REPRESENTATION ( #164, #280 ) ;
#260 = APPLICATION_CONTEXT ( 'configuration controlled 3d designs of mechanical parts and assemblies' ) ;
#261 = FACE_BOUND ( 'NONE', #249, .T. ) ;
#262 = EDGE_CURVE ( 'NONE', #300, #300, #98, .T. ) ;
#263 = VERTEX_POINT ( 'NONE', #88 ) ;
#264 = DESIGN_CONTEXT ( 'detailed design', #260, 'design' ) ;
#265 = CIRCLE ( 'NONE', #23, 1.999999999999996669 ) ;
#266 = EDGE_CURVE ( 'NONE', #301, #301, #2, .T. ) ;
#267 = CARTESIAN_POINT ( 'NONE',  ( 3.386736898677838724E-14, -1.212825243054761399E-15, 9.699999999999999289 ) ) ;
#268 = DIRECTION ( 'NONE',  ( 4.245089325443411538E-31, 1.000000000000000000, 1.215841905902890654E-16 ) ) ;
#269 = COORDINATED_UNIVERSAL_TIME_OFFSET ( 1, 0, .AHEAD. ) ;
#270 = CARTESIAN_POINT ( 'NONE',  ( 3.386736898677838724E-14, 1.999999999999995337, 9.699999999999999289 ) ) ;
#271 = AXIS2_PLACEMENT_3D ( 'NONE', #126, #258, #193 ) ;
#272 = CC_DESIGN_PERSON_AND_ORGANIZATION_ASSIGNMENT ( #107, #246, ( #43 ) ) ;
#273 = EDGE_LOOP ( 'NONE', ( #227 ) ) ;
#274 = EDGE_LOOP ( 'NONE', ( #225 ) ) ;
#275 = AXIS2_PLACEMENT_3D ( 'NONE', #111, #240, #294 ) ;
#276 = EDGE_CURVE ( 'NONE', #209, #209, #115, .T. ) ;
#277 = ORIENTED_EDGE ( 'NONE', *, *, #16, .T. ) ;
#278 = ORIENTED_EDGE ( 'NONE', *, *, #152, .F. ) ;
#279 = FACE_OUTER_BOUND ( 'NONE', #165, .T. ) ;
#280 = ADVANCED_BREP_SHAPE_REPRESENTATION ( '388783', ( #56, #247, #61 ), #30 ) ;
#281 = FACE_OUTER_BOUND ( 'NONE', #205, .T. ) ;
#282 = DIRECTION ( 'NONE',  ( 4.275831445896958607E-31, 1.000000000000000000, 1.224646799147353207E-16 ) ) ;
#283 = APPROVAL_STATUS ( 'not_yet_approved' ) ;
#284 = FACE_BOUND ( 'NONE', #119, .T. ) ;
#285 = COORDINATED_UNIVERSAL_TIME_OFFSET ( 1, 0, .AHEAD. ) ;
#286 = DIRECTION ( 'NONE',  ( 0.0000000000000000000, 1.000000000000000000, 0.0000000000000000000 ) ) ;
#287 = ADVANCED_FACE ( 'NONE', ( #157, #86 ), #244, .T. ) ;
#288 = CLOSED_SHELL ( 'NONE', ( #87, #50, #106, #231, #287, #215, #241, #64, #130 ) ) ;
#289 = ADVANCED_FACE ( 'NONE', ( #89 ), #105, .F. ) ;
#290 = CC_DESIGN_APPROVAL ( #32, ( #122 ) ) ;
#291 = VERTEX_POINT ( 'NONE', #179 ) ;
#292 = APPROVAL_STATUS ( 'not_yet_approved' ) ;
#293 = FACE_OUTER_BOUND ( 'NONE', #47, .T. ) ;
#294 = DIRECTION ( 'NONE',  ( 4.275831445896958607E-31, 1.000000000000000000, 1.224646799147353207E-16 ) ) ;
#295 = AXIS2_PLACEMENT_3D ( 'NONE', #257, #148, #233 ) ;
#296 = DIRECTION ( 'NONE',  ( -3.491481338843133355E-15, 1.215841905902890654E-16, -1.000000000000000000 ) ) ;
#297 = DATE_TIME_ROLE ( 'creation_date' ) ;
#298 = EDGE_LOOP ( 'NONE', ( #91 ) ) ;
#299 = AXIS2_PLACEMENT_3D ( 'NONE', #73, #59, #135 ) ;
#300 = VERTEX_POINT ( 'NONE', #185 ) ;
#301 = VERTEX_POINT ( 'NONE', #229 ) ;
#302 = ORIENTED_EDGE ( 'NONE', *, *, #262, .T. ) ;
#303 = ORIENTED_EDGE ( 'NONE', *, *, #120, .T. ) ;
ENDSEC;
END-ISO-10303-21;
