ISO-10303-21;
HEADER;
FILE_DESCRIPTION (( 'STEP AP203' ),
    '1' );
FILE_NAME ('388782.step',
    '2021-12-13T10:14:51',
    ( '' ),
    ( '' ),
    'SwSTEP 2.0',
    'SolidWorks 2019',
    '' );
FILE_SCHEMA (( 'CONFIG_CONTROL_DESIGN' ));
ENDSEC;

DATA;
#1 = PERSON_AND_ORGANIZATION ( #147, #141 ) ;
#2 = FACE_OUTER_BOUND ( 'NONE', #159, .T. ) ;
#3 = APPROVAL_PERSON_ORGANIZATION ( #158, #49, #130 ) ;
#4 = PERSON_AND_ORGANIZATION ( #147, #141 ) ;
#5 = DIRECTION ( 'NONE',  ( 3.491481338843133355E-15, -1.224191981463286756E-16, 1.000000000000000000 ) ) ;
#6 = PERSON_AND_ORGANIZATION_ROLE ( 'creator' ) ;
#7 = EDGE_LOOP ( 'NONE', ( #203 ) ) ;
#8 = COORDINATED_UNIVERSAL_TIME_OFFSET ( 1, 0, .AHEAD. ) ;
#9 = EDGE_LOOP ( 'NONE', ( #229 ) ) ;
#10 = EDGE_LOOP ( 'NONE', ( #185 ) ) ;
#11 = CARTESIAN_POINT ( 'NONE',  ( 1.082359215041370867E-14, -3.812278214530708738E-16, 3.099999999999998757 ) ) ;
#12 = ADVANCED_FACE ( 'NONE', ( #2, #127 ), #29, .T. ) ;
#13 = CARTESIAN_POINT ( 'NONE',  ( -1.924197383177430044E-31, 6.749175887094222942E-33, -5.511120342447521859E-17 ) ) ;
#14 = APPROVAL_PERSON_ORGANIZATION ( #251, #135, #110 ) ;
#15 = FACE_OUTER_BOUND ( 'NONE', #293, .T. ) ;
#16 = DIRECTION ( 'NONE',  ( 3.491481338843133355E-15, -1.224646799147353207E-16, 1.000000000000000000 ) ) ;
#17 =( NAMED_UNIT ( * ) SI_UNIT ( $, .STERADIAN. ) SOLID_ANGLE_UNIT ( ) );
#18 = PRODUCT_DEFINITION ( 'UNKNOWN', '', #157, #87 ) ;
#19 = DIRECTION ( 'NONE',  ( -4.275831445896958607E-31, -1.000000000000000000, -1.224646799147353207E-16 ) ) ;
#20 = APPROVAL_PERSON_ORGANIZATION ( #1, #92, #75 ) ;
#21 = EDGE_CURVE ( 'NONE', #45, #45, #198, .T. ) ;
#22 = DIRECTION ( 'NONE',  ( 0.0000000000000000000, -1.000000000000000000, 0.0000000000000000000 ) ) ;
#23 = FACE_BOUND ( 'NONE', #100, .T. ) ;
#24 = EDGE_CURVE ( 'NONE', #117, #117, #95, .T. ) ;
#25 = APPROVAL_STATUS ( 'not_yet_approved' ) ;
#26 = ORIENTED_EDGE ( 'NONE', *, *, #253, .T. ) ;
#27 = APPLICATION_CONTEXT ( 'configuration controlled 3d designs of mechanical parts and assemblies' ) ;
#28 = CALENDAR_DATE ( 2021, 13, 12 ) ;
#29 = CYLINDRICAL_SURFACE ( 'NONE', #143, 1.959999999999999964 ) ;
#30 = CIRCLE ( 'NONE', #210, 0.8349999999999996314 ) ;
#31 = PERSON_AND_ORGANIZATION_ROLE ( 'creator' ) ;
#32 = CARTESIAN_POINT ( 'NONE',  ( 1.326762908760390423E-13, -4.653657836759941941E-15, 38.00000000000000000 ) ) ;
#33 = CLOSED_SHELL ( 'NONE', ( #101, #236, #120, #271, #12, #160, #290, #299, #146, #230 ) ) ;
#34 = APPLICATION_PROTOCOL_DEFINITION ( 'international standard', 'config_control_design', 1994, #27 ) ;
#35 = PLANE ( 'NONE',  #107 ) ;
#36 = ORIENTED_EDGE ( 'NONE', *, *, #311, .T. ) ;
#37 = CONICAL_SURFACE ( 'NONE', #272, 1.999999999999997780, 0.7853981633974516097 ) ;
#38 = DIRECTION ( 'NONE',  ( -4.274243458440464303E-31, -1.000000000000000000, -1.224191981463286756E-16 ) ) ;
#39 = CARTESIAN_POINT ( 'NONE',  ( 1.047444401652940007E-14, -4.336808689942017736E-16, 3.000000000000000000 ) ) ;
#40 = CARTESIAN_POINT ( 'NONE',  ( 1.082359215041370867E-14, -3.812278214530708738E-16, 3.099999999999998757 ) ) ;
#41 = PLANE ( 'NONE',  #201 ) ;
#42 = CLOSED_SHELL ( 'NONE', ( #219, #153, #321 ) ) ;
#43 = CC_DESIGN_PERSON_AND_ORGANIZATION_ASSIGNMENT ( #4, #256, ( #196 ) ) ;
#44 = DIRECTION ( 'NONE',  ( -4.274243458440464303E-31, -1.000000000000000000, -1.224191981463286756E-16 ) ) ;
#45 = VERTEX_POINT ( 'NONE', #70 ) ;
#46 = AXIS2_PLACEMENT_3D ( 'NONE', #66, #64, #38 ) ;
#47 = CARTESIAN_POINT ( 'NONE',  ( 1.312796983405018142E-13, -2.000000000000002665, 37.60000000000000142 ) ) ;
#48 = VERTEX_POINT ( 'NONE', #197 ) ;
#49 = APPROVAL ( #300, 'UNSPECIFIED' ) ;
#50 = DATE_TIME_ROLE ( 'creation_date' ) ;
#51 = DIRECTION ( 'NONE',  ( 0.0000000000000000000, -1.000000000000000000, 0.0000000000000000000 ) ) ;
#52 = APPROVAL_DATE_TIME ( #233, #49 ) ;
#53 = CARTESIAN_POINT ( 'NONE',  ( 1.312796983405018142E-13, -4.604690157501411131E-15, 37.60000000000000142 ) ) ;
#54 = CALENDAR_DATE ( 2021, 13, 12 ) ;
#55 = FACE_OUTER_BOUND ( 'NONE', #195, .T. ) ;
#56 = CIRCLE ( 'NONE', #175, 0.5000000000000000000 ) ;
#57 = PERSON_AND_ORGANIZATION ( #147, #141 ) ;
#58 = ORIENTED_EDGE ( 'NONE', *, *, #174, .T. ) ;
#59 = PERSON_AND_ORGANIZATION_ROLE ( 'design_owner' ) ;
#60 = ORIENTED_EDGE ( 'NONE', *, *, #267, .T. ) ;
#61 = CARTESIAN_POINT ( 'NONE',  ( 7.681258945454894959E-15, -2.694222958124177006E-16, 2.200000000000000178 ) ) ;
#62 = CIRCLE ( 'NONE', #294, 0.4999999999999998890 ) ;
#63 = CARTESIAN_POINT ( 'NONE',  ( 7.681258945454896537E-15, -2.710505431213753196E-16, 2.200000000000000622 ) ) ;
#64 = DIRECTION ( 'NONE',  ( 3.491481338843133355E-15, -1.224191981463286756E-16, 1.000000000000000000 ) ) ;
#65 = CC_DESIGN_APPROVAL ( #49, ( #18 ) ) ;
#66 = CARTESIAN_POINT ( 'NONE',  ( 7.681258945454894959E-15, 0.4999999999999996669, 2.200000000000000178 ) ) ;
#67 = FACE_OUTER_BOUND ( 'NONE', #73, .T. ) ;
#68 =( LENGTH_UNIT ( ) NAMED_UNIT ( * ) SI_UNIT ( .MILLI., .METRE. ) );
#69 = EDGE_CURVE ( 'NONE', #296, #296, #274, .T. ) ;
#70 = CARTESIAN_POINT ( 'NONE',  ( 3.351822085289406759E-14, -1.960000000000001297, 9.599999999999997868 ) ) ;
#71 = LOCAL_TIME ( 11, 14, 51.00000000000000000, #102 ) ;
#72 = AXIS2_PLACEMENT_3D ( 'NONE', #139, #284, #315 ) ;
#73 = EDGE_LOOP ( 'NONE', ( #232 ) ) ;
#74 = EDGE_CURVE ( 'NONE', #173, #173, #302, .T. ) ;
#75 = APPROVAL_ROLE ( '' ) ;
#76 = DIRECTION ( 'NONE',  ( 3.491481338843133355E-15, -1.224191981463286756E-16, 1.000000000000000000 ) ) ;
#77 = MECHANICAL_CONTEXT ( 'NONE', #181, 'mechanical' ) ;
#78 = EDGE_LOOP ( 'NONE', ( #99 ) ) ;
#79 = AXIS2_PLACEMENT_3D ( 'NONE', #273, #76, #51 ) ;
#80 = APPROVAL_STATUS ( 'not_yet_approved' ) ;
#81 = DIRECTION ( 'NONE',  ( 0.0000000000000000000, -1.000000000000000000, 0.0000000000000000000 ) ) ;
#82 = PERSON_AND_ORGANIZATION ( #147, #141 ) ;
#83 = EDGE_LOOP ( 'NONE', ( #36 ) ) ;
#84 = CARTESIAN_POINT ( 'NONE',  ( 0.0000000000000000000, 0.0000000000000000000, 0.0000000000000000000 ) ) ;
#85 = ORIENTED_EDGE ( 'NONE', *, *, #21, .F. ) ;
#86 = FACE_BOUND ( 'NONE', #7, .T. ) ;
#87 = DESIGN_CONTEXT ( 'detailed design', #27, 'design' ) ;
#88 = DIRECTION ( 'NONE',  ( 0.0000000000000000000, -1.000000000000000000, 0.0000000000000000000 ) ) ;
#89 =( GEOMETRIC_REPRESENTATION_CONTEXT ( 3 ) GLOBAL_UNCERTAINTY_ASSIGNED_CONTEXT ( ( #189 ) ) GLOBAL_UNIT_ASSIGNED_CONTEXT ( ( #68, #140, #17 ) ) REPRESENTATION_CONTEXT ( 'NONE', 'WORKASPACE' ) );
#90 = FACE_OUTER_BOUND ( 'NONE', #200, .T. ) ;
#91 = CYLINDRICAL_SURFACE ( 'NONE', #183, 1.999999999999997335 ) ;
#92 = APPROVAL ( #80, 'UNSPECIFIED' ) ;
#93 = CARTESIAN_POINT ( 'NONE',  ( 3.351822085289407390E-14, 1.999999999999995337, 9.599999999999999645 ) ) ;
#94 = EDGE_CURVE ( 'NONE', #245, #245, #266, .T. ) ;
#95 = CIRCLE ( 'NONE', #191, 1.999999999999997780 ) ;
#96 = DIRECTION ( 'NONE',  ( 3.491481338843133355E-15, -1.224646799147353207E-16, 1.000000000000000000 ) ) ;
#97 = CARTESIAN_POINT ( 'NONE',  ( 2.137183397710476993E-32, 0.4999999999999996669, 6.121136532892404794E-18 ) ) ;
#98 = CIRCLE ( 'NONE', #171, 1.959999999999999964 ) ;
#99 = ORIENTED_EDGE ( 'NONE', *, *, #74, .T. ) ;
#100 = EDGE_LOOP ( 'NONE', ( #295 ) ) ;
#101 = ADVANCED_FACE ( 'NONE', ( #278, #55 ), #255, .T. ) ;
#102 = COORDINATED_UNIVERSAL_TIME_OFFSET ( 1, 0, .AHEAD. ) ;
#103 = EDGE_LOOP ( 'NONE', ( #26 ) ) ;
#104 = DIRECTION ( 'NONE',  ( 3.491481338843133355E-15, -1.224191981463286756E-16, 1.000000000000000000 ) ) ;
#105 = CONICAL_SURFACE ( 'NONE', #202, 0.8349999999999996314, 0.2217440814658725445 ) ;
#106 = CALENDAR_DATE ( 2021, 13, 12 ) ;
#107 = AXIS2_PLACEMENT_3D ( 'NONE', #115, #111, #44 ) ;
#108 = SHAPE_DEFINITION_REPRESENTATION ( #322, #207 ) ;
#109 = EDGE_LOOP ( 'NONE', ( #125 ) ) ;
#110 = APPROVAL_ROLE ( '' ) ;
#111 = DIRECTION ( 'NONE',  ( 3.491481338843133355E-15, -1.224191981463286756E-16, 1.000000000000000000 ) ) ;
#112 = PLANE ( 'NONE',  #46 ) ;
#113 = DIRECTION ( 'NONE',  ( 4.275831445896957731E-31, 1.000000000000000000, 1.224646799147353207E-16 ) ) ;
#114 = DIRECTION ( 'NONE',  ( 0.0000000000000000000, -1.000000000000000000, 0.0000000000000000000 ) ) ;
#115 = CARTESIAN_POINT ( 'NONE',  ( 1.082359215041371182E-14, 0.5025015644561816597, 3.099999999999999645 ) ) ;
#116 = CC_DESIGN_PERSON_AND_ORGANIZATION_ASSIGNMENT ( #57, #59, ( #287 ) ) ;
#117 = VERTEX_POINT ( 'NONE', #47 ) ;
#118 = DIRECTION ( 'NONE',  ( 3.491481338843133355E-15, -1.224191981463286756E-16, 1.000000000000000000 ) ) ;
#119 = VERTEX_POINT ( 'NONE', #142 ) ;
#120 = ADVANCED_FACE ( 'NONE', ( #280, #257 ), #35, .F. ) ;
#121 = AXIS2_PLACEMENT_3D ( 'NONE', #93, #240, #261 ) ;
#122 = EDGE_LOOP ( 'NONE', ( #276 ) ) ;
#123 = SECURITY_CLASSIFICATION_LEVEL ( 'unclassified' ) ;
#124 = COORDINATED_UNIVERSAL_TIME_OFFSET ( 1, 0, .AHEAD. ) ;
#125 = ORIENTED_EDGE ( 'NONE', *, *, #74, .F. ) ;
#126 = PERSON_AND_ORGANIZATION ( #147, #141 ) ;
#127 = FACE_OUTER_BOUND ( 'NONE', #220, .T. ) ;
#128 = CIRCLE ( 'NONE', #188, 0.4999999999999996669 ) ;
#129 = CARTESIAN_POINT ( 'NONE',  ( 1.326762908760390423E-13, -4.653657836759941941E-15, 38.00000000000000000 ) ) ;
#130 = APPROVAL_ROLE ( '' ) ;
#131 = EDGE_LOOP ( 'NONE', ( #301 ) ) ;
#132 = AXIS2_PLACEMENT_3D ( 'NONE', #319, #96, #19 ) ;
#133 = FACE_BOUND ( 'NONE', #10, .T. ) ;
#134 = DIRECTION ( 'NONE',  ( 0.0000000000000000000, -1.000000000000000000, 0.0000000000000000000 ) ) ;
#135 = APPROVAL ( #25, 'UNSPECIFIED' ) ;
#136 = DIRECTION ( 'NONE',  ( 0.0000000000000000000, -1.000000000000000000, 0.0000000000000000000 ) ) ;
#137 = AXIS2_PLACEMENT_3D ( 'NONE', #39, #187, #193 ) ;
#138 = DIRECTION ( 'NONE',  ( 3.491481338843133355E-15, -1.224191981463286756E-16, 1.000000000000000000 ) ) ;
#139 = CARTESIAN_POINT ( 'NONE',  ( 1.326762908760390423E-13, -4.653657836759941941E-15, 38.00000000000000000 ) ) ;
#140 =( NAMED_UNIT ( * ) PLANE_ANGLE_UNIT ( ) SI_UNIT ( $, .RADIAN. ) );
#141 = ORGANIZATION ( 'UNSPECIFIED', 'UNSPECIFIED', '' ) ;
#142 = CARTESIAN_POINT ( 'NONE',  ( 2.824604296077945336E-14, -1.960000000000000853, 8.089988236952311951 ) ) ;
#143 = AXIS2_PLACEMENT_3D ( 'NONE', #259, #5, #205 ) ;
#144 = AXIS2_PLACEMENT_3D ( 'NONE', #129, #206, #182 ) ;
#145 = CARTESIAN_POINT ( 'NONE',  ( 1.312796983405018142E-13, -4.604690157501411131E-15, 37.60000000000000142 ) ) ;
#146 = ADVANCED_FACE ( 'NONE', ( #166 ), #217, .F. ) ;
#147 = PERSON ( 'UNSPECIFIED', 'UNSPECIFIED', 'UNSPECIFIED', ('UNSPECIFIED'), ('UNSPECIFIED'), ('UNSPECIFIED') ) ;
#148 = CARTESIAN_POINT ( 'NONE',  ( 1.047444401652940953E-14, -3.689859016384390588E-16, 3.000000000000002665 ) ) ;
#149 = DIRECTION ( 'NONE',  ( 0.0000000000000000000, 1.000000000000000000, 0.0000000000000000000 ) ) ;
#150 = DIRECTION ( 'NONE',  ( 1.000000000000000000, 0.0000000000000000000, 0.0000000000000000000 ) ) ;
#151 = MANIFOLD_SOLID_BREP ( 'Corps-Déplacer/Copier4[2]', #42 ) ;
#152 = DIRECTION ( 'NONE',  ( 0.0000000000000000000, -1.000000000000000000, 0.0000000000000000000 ) ) ;
#153 = ADVANCED_FACE ( 'NONE', ( #90, #242 ), #260, .T. ) ;
#154 = CARTESIAN_POINT ( 'NONE',  ( 3.351822085289406759E-14, -1.176952609404206932E-15, 9.599999999999997868 ) ) ;
#155 = DATE_AND_TIME ( #54, #279 ) ;
#156 = DIRECTION ( 'NONE',  ( 3.491481338843133355E-15, -1.224191981463286756E-16, 1.000000000000000000 ) ) ;
#157 = PRODUCT_DEFINITION_FORMATION_WITH_SPECIFIED_SOURCE ( 'ANY', '', #287, .NOT_KNOWN. ) ;
#158 = PERSON_AND_ORGANIZATION ( #147, #141 ) ;
#159 = EDGE_LOOP ( 'NONE', ( #85 ) ) ;
#160 = ADVANCED_FACE ( 'NONE', ( #162, #86 ), #186, .F. ) ;
#161 = ORIENTED_EDGE ( 'NONE', *, *, #69, .F. ) ;
#162 = FACE_OUTER_BOUND ( 'NONE', #109, .T. ) ;
#163 = DIRECTION ( 'NONE',  ( -3.491481338843133355E-15, 1.224646799147353207E-16, -1.000000000000000000 ) ) ;
#164 = PRODUCT_RELATED_PRODUCT_CATEGORY ( 'detail', '', ( #287 ) ) ;
#165 = AXIS2_PLACEMENT_3D ( 'NONE', #32, #234, #152 ) ;
#166 = FACE_OUTER_BOUND ( 'NONE', #9, .T. ) ;
#167 = CC_DESIGN_APPROVAL ( #135, ( #157 ) ) ;
#168 = DIRECTION ( 'NONE',  ( -3.491481338843133355E-15, 1.224646799147353207E-16, -1.000000000000000000 ) ) ;
#169 = VERTEX_POINT ( 'NONE', #244 ) ;
#170 = DIRECTION ( 'NONE',  ( -3.491481338843133355E-15, 1.224191981463286756E-16, -1.000000000000000000 ) ) ;
#171 = AXIS2_PLACEMENT_3D ( 'NONE', #264, #213, #134 ) ;
#172 = CC_DESIGN_PERSON_AND_ORGANIZATION_ASSIGNMENT ( #82, #31, ( #18 ) ) ;
#173 = VERTEX_POINT ( 'NONE', #246 ) ;
#174 = EDGE_CURVE ( 'NONE', #268, #268, #56, .T. ) ;
#175 = AXIS2_PLACEMENT_3D ( 'NONE', #63, #216, #88 ) ;
#176 = ORIENTED_EDGE ( 'NONE', *, *, #267, .F. ) ;
#177 = DIRECTION ( 'NONE',  ( 0.0000000000000000000, 0.0000000000000000000, 1.000000000000000000 ) ) ;
#178 = EDGE_LOOP ( 'NONE', ( #199 ) ) ;
#179 = COORDINATED_UNIVERSAL_TIME_OFFSET ( 1, 0, .AHEAD. ) ;
#180 = ORIENTED_EDGE ( 'NONE', *, *, #286, .F. ) ;
#181 = APPLICATION_CONTEXT ( 'configuration controlled 3d designs of mechanical parts and assemblies' ) ;
#182 = DIRECTION ( 'NONE',  ( 0.0000000000000000000, -1.000000000000000000, 0.0000000000000000000 ) ) ;
#183 = AXIS2_PLACEMENT_3D ( 'NONE', #285, #192, #136 ) ;
#184 = PERSON_AND_ORGANIZATION ( #147, #141 ) ;
#185 = ORIENTED_EDGE ( 'NONE', *, *, #286, .T. ) ;
#186 = PLANE ( 'NONE',  #121 ) ;
#187 = DIRECTION ( 'NONE',  ( 3.491481338843133355E-15, -1.224191981463286756E-16, 1.000000000000000000 ) ) ;
#188 = AXIS2_PLACEMENT_3D ( 'NONE', #13, #168, #113 ) ;
#189 = UNCERTAINTY_MEASURE_WITH_UNIT (LENGTH_MEASURE( 1.000000000000000082E-05 ), #68, 'distance_accuracy_value', 'NONE');
#190 = FACE_OUTER_BOUND ( 'NONE', #78, .T. ) ;
#191 = AXIS2_PLACEMENT_3D ( 'NONE', #53, #235, #298 ) ;
#192 = DIRECTION ( 'NONE',  ( 3.491481338843133355E-15, -1.224191981463286756E-16, 1.000000000000000000 ) ) ;
#193 = DIRECTION ( 'NONE',  ( -4.333255223781041089E-31, -1.000000000000000000, -1.224191981463286756E-16 ) ) ;
#194 = CARTESIAN_POINT ( 'NONE',  ( 1.326762908760390423E-13, -1.600000000000002309, 38.00000000000000000 ) ) ;
#195 = EDGE_LOOP ( 'NONE', ( #58 ) ) ;
#196 = SECURITY_CLASSIFICATION ( '', '', #123 ) ;
#197 = CARTESIAN_POINT ( 'NONE',  ( 1.047444401652940953E-14, -0.5000000000000002220, 3.000000000000002665 ) ) ;
#198 = CIRCLE ( 'NONE', #238, 1.959999999999999964 ) ;
#199 = ORIENTED_EDGE ( 'NONE', *, *, #263, .F. ) ;
#200 = EDGE_LOOP ( 'NONE', ( #176 ) ) ;
#201 = AXIS2_PLACEMENT_3D ( 'NONE', #282, #16, #214 ) ;
#202 = AXIS2_PLACEMENT_3D ( 'NONE', #40, #237, #265 ) ;
#203 = ORIENTED_EDGE ( 'NONE', *, *, #21, .T. ) ;
#204 = DATE_AND_TIME ( #106, #269 ) ;
#205 = DIRECTION ( 'NONE',  ( 0.0000000000000000000, -1.000000000000000000, 0.0000000000000000000 ) ) ;
#206 = DIRECTION ( 'NONE',  ( 3.491481338843133355E-15, -1.224191981463286756E-16, 1.000000000000000000 ) ) ;
#207 = ADVANCED_BREP_SHAPE_REPRESENTATION ( '388782', ( #258, #151, #215 ), #89 ) ;
#208 = DATE_AND_TIME ( #28, #228 ) ;
#209 = EDGE_LOOP ( 'NONE', ( #250 ) ) ;
#210 = AXIS2_PLACEMENT_3D ( 'NONE', #11, #138, #114 ) ;
#211 = CARTESIAN_POINT ( 'NONE',  ( 0.0000000000000000000, 0.0000000000000000000, 0.0000000000000000000 ) ) ;
#212 = CC_DESIGN_PERSON_AND_ORGANIZATION_ASSIGNMENT ( #184, #247, ( #157 ) ) ;
#213 = DIRECTION ( 'NONE',  ( 3.491481338843133355E-15, -1.224191981463286756E-16, 1.000000000000000000 ) ) ;
#214 = DIRECTION ( 'NONE',  ( -4.275831445896958607E-31, -1.000000000000000000, -1.224646799147353207E-16 ) ) ;
#215 = AXIS2_PLACEMENT_3D ( 'NONE', #84, #177, #150 ) ;
#216 = DIRECTION ( 'NONE',  ( 3.491481338843133355E-15, -1.224191981463286756E-16, 1.000000000000000000 ) ) ;
#217 = PLANE ( 'NONE',  #72 ) ;
#218 = CC_DESIGN_APPROVAL ( #92, ( #196 ) ) ;
#219 = ADVANCED_FACE ( 'NONE', ( #314 ), #41, .F. ) ;
#220 = EDGE_LOOP ( 'NONE', ( #304 ) ) ;
#221 = PLANE ( 'NONE',  #132 ) ;
#222 = AXIS2_PLACEMENT_3D ( 'NONE', #61, #163, #288 ) ;
#223 = ORIENTED_EDGE ( 'NONE', *, *, #24, .F. ) ;
#224 = COORDINATED_UNIVERSAL_TIME_OFFSET ( 1, 0, .AHEAD. ) ;
#225 = EDGE_LOOP ( 'NONE', ( #60 ) ) ;
#226 = CARTESIAN_POINT ( 'NONE',  ( 3.351822085289406759E-14, -1.176952609404206932E-15, 9.599999999999997868 ) ) ;
#227 = APPLICATION_PROTOCOL_DEFINITION ( 'international standard', 'config_control_design', 1994, #181 ) ;
#228 = LOCAL_TIME ( 11, 14, 51.00000000000000000, #124 ) ;
#229 = ORIENTED_EDGE ( 'NONE', *, *, #94, .T. ) ;
#230 = ADVANCED_FACE ( 'NONE', ( #310 ), #112, .F. ) ;
#231 = APPROVAL_DATE_TIME ( #155, #92 ) ;
#232 = ORIENTED_EDGE ( 'NONE', *, *, #24, .T. ) ;
#233 = DATE_AND_TIME ( #275, #71 ) ;
#234 = DIRECTION ( 'NONE',  ( 3.491481338843133355E-15, -1.224191981463286756E-16, 1.000000000000000000 ) ) ;
#235 = DIRECTION ( 'NONE',  ( 3.491481338843133355E-15, -1.224191981463286756E-16, 1.000000000000000000 ) ) ;
#236 = ADVANCED_FACE ( 'NONE', ( #15, #239 ), #283, .F. ) ;
#237 = DIRECTION ( 'NONE',  ( 3.491481338843133355E-15, -1.224191981463286756E-16, 1.000000000000000000 ) ) ;
#238 = AXIS2_PLACEMENT_3D ( 'NONE', #226, #104, #81 ) ;
#239 = FACE_OUTER_BOUND ( 'NONE', #83, .T. ) ;
#240 = DIRECTION ( 'NONE',  ( 3.491481338843133355E-15, -1.224191981463286756E-16, 1.000000000000000000 ) ) ;
#241 = DIRECTION ( 'NONE',  ( 4.275831445896958607E-31, 1.000000000000000000, 1.224646799147353207E-16 ) ) ;
#242 = FACE_OUTER_BOUND ( 'NONE', #103, .T. ) ;
#243 = CC_DESIGN_PERSON_AND_ORGANIZATION_ASSIGNMENT ( #126, #6, ( #157 ) ) ;
#244 = CARTESIAN_POINT ( 'NONE',  ( 1.082359215041370867E-14, -0.8350000000000000755, 3.099999999999998757 ) ) ;
#245 = VERTEX_POINT ( 'NONE', #194 ) ;
#246 = CARTESIAN_POINT ( 'NONE',  ( 3.351822085289406759E-14, -1.999999999999997780, 9.599999999999997868 ) ) ;
#247 = PERSON_AND_ORGANIZATION_ROLE ( 'design_supplier' ) ;
#248 = CC_DESIGN_DATE_AND_TIME_ASSIGNMENT ( #249, #50, ( #18 ) ) ;
#249 = DATE_AND_TIME ( #297, #254 ) ;
#250 = ORIENTED_EDGE ( 'NONE', *, *, #311, .F. ) ;
#251 = PERSON_AND_ORGANIZATION ( #147, #141 ) ;
#252 = DIRECTION ( 'NONE',  ( 0.0000000000000000000, -1.000000000000000000, 0.0000000000000000000 ) ) ;
#253 = EDGE_CURVE ( 'NONE', #316, #316, #317, .T. ) ;
#254 = LOCAL_TIME ( 11, 14, 51.00000000000000000, #8 ) ;
#255 = CYLINDRICAL_SURFACE ( 'NONE', #144, 0.4999999999999998890 ) ;
#256 = PERSON_AND_ORGANIZATION_ROLE ( 'classification_officer' ) ;
#257 = FACE_BOUND ( 'NONE', #305, .T. ) ;
#258 = MANIFOLD_SOLID_BREP ( 'Corps-Déplacer/Copier4[1]', #33 ) ;
#259 = CARTESIAN_POINT ( 'NONE',  ( 1.326762908760390423E-13, -4.653657836759941941E-15, 38.00000000000000000 ) ) ;
#260 = CYLINDRICAL_SURFACE ( 'NONE', #289, 0.4999999999999997780 ) ;
#261 = DIRECTION ( 'NONE',  ( -4.274243458440464303E-31, -1.000000000000000000, -1.224191981463286756E-16 ) ) ;
#262 = FACE_OUTER_BOUND ( 'NONE', #178, .T. ) ;
#263 = EDGE_CURVE ( 'NONE', #119, #119, #98, .T. ) ;
#264 = CARTESIAN_POINT ( 'NONE',  ( 2.824604296077945336E-14, -9.920981801803856884E-16, 8.089988236952311951 ) ) ;
#265 = DIRECTION ( 'NONE',  ( 0.0000000000000000000, -1.000000000000000000, 0.0000000000000000000 ) ) ;
#266 = CIRCLE ( 'NONE', #165, 1.599999999999997646 ) ;
#267 = EDGE_CURVE ( 'NONE', #320, #320, #128, .T. ) ;
#268 = VERTEX_POINT ( 'NONE', #318 ) ;
#269 = LOCAL_TIME ( 11, 14, 51.00000000000000000, #224 ) ;
#270 = CARTESIAN_POINT ( 'NONE',  ( 1.082359215041370867E-14, -0.5025015644561825479, 3.099999999999998757 ) ) ;
#271 = ADVANCED_FACE ( 'NONE', ( #262, #133 ), #105, .T. ) ;
#272 = AXIS2_PLACEMENT_3D ( 'NONE', #145, #170, #149 ) ;
#273 = CARTESIAN_POINT ( 'NONE',  ( 1.082359215041370867E-14, -3.812278214530708738E-16, 3.099999999999998757 ) ) ;
#274 = CIRCLE ( 'NONE', #79, 0.5025015644561821038 ) ;
#275 = CALENDAR_DATE ( 2021, 13, 12 ) ;
#276 = ORIENTED_EDGE ( 'NONE', *, *, #253, .F. ) ;
#277 = CC_DESIGN_DATE_AND_TIME_ASSIGNMENT ( #204, #303, ( #196 ) ) ;
#278 = FACE_OUTER_BOUND ( 'NONE', #209, .T. ) ;
#279 = LOCAL_TIME ( 11, 14, 51.00000000000000000, #179 ) ;
#280 = FACE_OUTER_BOUND ( 'NONE', #307, .T. ) ;
#281 = ORIENTED_EDGE ( 'NONE', *, *, #69, .T. ) ;
#282 = CARTESIAN_POINT ( 'NONE',  ( -9.620986915887150220E-32, 3.374587943547111471E-33, -2.755560171223760929E-17 ) ) ;
#283 = TOROIDAL_SURFACE ( 'NONE', #137, 2.500000000000000000, 2.000000000000000000 ) ;
#284 = DIRECTION ( 'NONE',  ( -3.491481338843133355E-15, 1.224191981463286756E-16, -1.000000000000000000 ) ) ;
#285 = CARTESIAN_POINT ( 'NONE',  ( 1.326762908760390423E-13, -4.653657836759941941E-15, 38.00000000000000000 ) ) ;
#286 = EDGE_CURVE ( 'NONE', #169, #169, #30, .T. ) ;
#287 = PRODUCT ( '388782', '388782', '', ( #77 ) ) ;
#288 = DIRECTION ( 'NONE',  ( 0.0000000000000000000, 1.000000000000000000, 0.0000000000000000000 ) ) ;
#289 = AXIS2_PLACEMENT_3D ( 'NONE', #211, #309, #241 ) ;
#290 = ADVANCED_FACE ( 'NONE', ( #313, #190 ), #91, .T. ) ;
#291 = CARTESIAN_POINT ( 'NONE',  ( 7.681258945454894959E-15, 0.4999999999999996669, 2.200000000000000178 ) ) ;
#292 = FACE_OUTER_BOUND ( 'NONE', #122, .T. ) ;
#293 = EDGE_LOOP ( 'NONE', ( #161 ) ) ;
#294 = AXIS2_PLACEMENT_3D ( 'NONE', #148, #118, #22 ) ;
#295 = ORIENTED_EDGE ( 'NONE', *, *, #94, .F. ) ;
#296 = VERTEX_POINT ( 'NONE', #270 ) ;
#297 = CALENDAR_DATE ( 2021, 13, 12 ) ;
#298 = DIRECTION ( 'NONE',  ( 0.0000000000000000000, -1.000000000000000000, 0.0000000000000000000 ) ) ;
#299 = ADVANCED_FACE ( 'NONE', ( #23, #67 ), #37, .T. ) ;
#300 = APPROVAL_STATUS ( 'not_yet_approved' ) ;
#301 = ORIENTED_EDGE ( 'NONE', *, *, #174, .F. ) ;
#302 = CIRCLE ( 'NONE', #308, 1.999999999999996669 ) ;
#303 = DATE_TIME_ROLE ( 'classification_date' ) ;
#304 = ORIENTED_EDGE ( 'NONE', *, *, #263, .T. ) ;
#305 = EDGE_LOOP ( 'NONE', ( #281 ) ) ;
#306 = APPROVAL_DATE_TIME ( #208, #135 ) ;
#307 = EDGE_LOOP ( 'NONE', ( #180 ) ) ;
#308 = AXIS2_PLACEMENT_3D ( 'NONE', #154, #156, #252 ) ;
#309 = DIRECTION ( 'NONE',  ( -3.491481338843133355E-15, 1.224646799147353207E-16, -1.000000000000000000 ) ) ;
#310 = FACE_OUTER_BOUND ( 'NONE', #131, .T. ) ;
#311 = EDGE_CURVE ( 'NONE', #48, #48, #62, .T. ) ;
#312 = CC_DESIGN_SECURITY_CLASSIFICATION ( #196, ( #157 ) ) ;
#313 = FACE_OUTER_BOUND ( 'NONE', #323, .T. ) ;
#314 = FACE_OUTER_BOUND ( 'NONE', #225, .T. ) ;
#315 = DIRECTION ( 'NONE',  ( 4.274243458440464303E-31, 1.000000000000000000, 1.224191981463286756E-16 ) ) ;
#316 = VERTEX_POINT ( 'NONE', #291 ) ;
#317 = CIRCLE ( 'NONE', #222, 0.4999999999999998890 ) ;
#318 = CARTESIAN_POINT ( 'NONE',  ( 7.681258945454896537E-15, -0.5000000000000002220, 2.200000000000000622 ) ) ;
#319 = CARTESIAN_POINT ( 'NONE',  ( 7.681258945454894959E-15, 3.749399456654639914E-33, 2.200000000000000178 ) ) ;
#320 = VERTEX_POINT ( 'NONE', #97 ) ;
#321 = ADVANCED_FACE ( 'NONE', ( #292 ), #221, .T. ) ;
#322 = PRODUCT_DEFINITION_SHAPE ( 'NONE', 'NONE',  #18 ) ;
#323 = EDGE_LOOP ( 'NONE', ( #223 ) ) ;
ENDSEC;
END-ISO-10303-21;
