ISO-10303-21;
HEADER;
FILE_DESCRIPTION (( 'STEP AP203' ),
    '1' );
FILE_NAME ('388781.step',
    '2021-12-13T10:14:50',
    ( '' ),
    ( '' ),
    'SwSTEP 2.0',
    'SolidWorks 2019',
    '' );
FILE_SCHEMA (( 'CONFIG_CONTROL_DESIGN' ));
ENDSEC;

DATA;
#1 = PRODUCT ( '388781', '388781', '', ( #3 ) ) ;
#2 = CARTESIAN_POINT ( 'NONE',  ( -1.710405810882582464E-31, 5.999295995763294823E-33, -4.898796942873845995E-17 ) ) ;
#3 = MECHANICAL_CONTEXT ( 'NONE', #56, 'mechanical' ) ;
#4 = PLANE ( 'NONE',  #178 ) ;
#5 = AXIS2_PLACEMENT_3D ( 'NONE', #72, #275, #172 ) ;
#6 = AXIS2_PLACEMENT_3D ( 'NONE', #46, #100, #19 ) ;
#7 = EDGE_LOOP ( 'NONE', ( #154 ) ) ;
#8 = CC_DESIGN_PERSON_AND_ORGANIZATION_ASSIGNMENT ( #13, #296, ( #306 ) ) ;
#9 = CARTESIAN_POINT ( 'NONE',  ( 1.312796983405018142E-13, -4.604962200163957823E-15, 37.60000000000000142 ) ) ;
#10 = ORIENTED_EDGE ( 'NONE', *, *, #274, .T. ) ;
#11 = LOCAL_TIME ( 11, 14, 50.00000000000000000, #68 ) ;
#12 = ADVANCED_FACE ( 'NONE', ( #32, #183 ), #189, .T. ) ;
#13 = PERSON_AND_ORGANIZATION ( #232, #212 ) ;
#14 = APPROVAL_STATUS ( 'not_yet_approved' ) ;
#15 = ORIENTED_EDGE ( 'NONE', *, *, #106, .T. ) ;
#16 = DIRECTION ( 'NONE',  ( -4.275831445896958607E-31, -1.000000000000000000, -1.224646799147353207E-16 ) ) ;
#17 = ADVANCED_FACE ( 'NONE', ( #141, #293 ), #91, .T. ) ;
#18 = EDGE_LOOP ( 'NONE', ( #10 ) ) ;
#19 = DIRECTION ( 'NONE',  ( 0.0000000000000000000, -1.000000000000000000, 0.0000000000000000000 ) ) ;
#20 = CIRCLE ( 'NONE', #194, 0.4500000000000002331 ) ;
#21 = FACE_OUTER_BOUND ( 'NONE', #260, .T. ) ;
#22 = AXIS2_PLACEMENT_3D ( 'NONE', #227, #199, #123 ) ;
#23 = DIRECTION ( 'NONE',  ( 4.275831445896958607E-31, 1.000000000000000000, 1.224646799147353207E-16 ) ) ;
#24 = PLANE ( 'NONE',  #150 ) ;
#25 = CARTESIAN_POINT ( 'NONE',  ( 0.0000000000000000000, 0.0000000000000000000, 0.0000000000000000000 ) ) ;
#26 = CC_DESIGN_DATE_AND_TIME_ASSIGNMENT ( #188, #193, ( #69 ) ) ;
#27 = TOROIDAL_SURFACE ( 'NONE', #135, 2.450000000000000178, 2.000000000000000000 ) ;
#28 = FACE_BOUND ( 'NONE', #213, .T. ) ;
#29 = EDGE_LOOP ( 'NONE', ( #70 ) ) ;
#30 = VERTEX_POINT ( 'NONE', #284 ) ;
#31 = CARTESIAN_POINT ( 'NONE',  ( 1.326762908760390423E-13, -4.653657836759941941E-15, 38.00000000000000000 ) ) ;
#32 = FACE_OUTER_BOUND ( 'NONE', #112, .T. ) ;
#33 = ORIENTED_EDGE ( 'NONE', *, *, #204, .F. ) ;
#34 =( NAMED_UNIT ( * ) PLANE_ANGLE_UNIT ( ) SI_UNIT ( $, .RADIAN. ) );
#35 = EDGE_LOOP ( 'NONE', ( #273 ) ) ;
#36 = COORDINATED_UNIVERSAL_TIME_OFFSET ( 1, 0, .AHEAD. ) ;
#37 = AXIS2_PLACEMENT_3D ( 'NONE', #9, #185, #233 ) ;
#38 = CIRCLE ( 'NONE', #272, 1.999999999999997780 ) ;
#39 = APPROVAL_ROLE ( '' ) ;
#40 = ADVANCED_BREP_SHAPE_REPRESENTATION ( '388781', ( #152, #263, #281 ), #264 ) ;
#41 = FACE_OUTER_BOUND ( 'NONE', #242, .T. ) ;
#42 = CC_DESIGN_SECURITY_CLASSIFICATION ( #71, ( #306 ) ) ;
#43 = AXIS2_PLACEMENT_3D ( 'NONE', #230, #134, #295 ) ;
#44 = ORIENTED_EDGE ( 'NONE', *, *, #274, .F. ) ;
#45 = CARTESIAN_POINT ( 'NONE',  ( 1.057918845669468712E-14, -3.964418073560346191E-16, 3.029999999999998028 ) ) ;
#46 = CARTESIAN_POINT ( 'NONE',  ( 3.316907271900976688E-14, -1.184093729296077521E-15, 9.500000000000001776 ) ) ;
#47 = ADVANCED_FACE ( 'NONE', ( #289 ), #164, .F. ) ;
#48 = LOCAL_TIME ( 11, 14, 50.00000000000000000, #311 ) ;
#49 = DIRECTION ( 'NONE',  ( 3.491481338843133355E-15, -1.217390914899601456E-16, 1.000000000000000000 ) ) ;
#50 = FACE_BOUND ( 'NONE', #87, .T. ) ;
#51 = DIRECTION ( 'NONE',  ( -3.491481338843133355E-15, 1.224646799147353207E-16, -1.000000000000000000 ) ) ;
#52 = AXIS2_PLACEMENT_3D ( 'NONE', #175, #75, #119 ) ;
#53 = DIRECTION ( 'NONE',  ( 1.000000000000000000, 0.0000000000000000000, 0.0000000000000000000 ) ) ;
#54 = CLOSED_SHELL ( 'NONE', ( #12, #228, #244, #222, #17, #151, #130, #297, #249, #47 ) ) ;
#55 = EDGE_LOOP ( 'NONE', ( #256 ) ) ;
#56 = APPLICATION_CONTEXT ( 'configuration controlled 3d designs of mechanical parts and assemblies' ) ;
#57 = FACE_OUTER_BOUND ( 'NONE', #35, .T. ) ;
#58 = CARTESIAN_POINT ( 'NONE',  ( 6.982962677686273021E-15, -0.4500000000000002331, 2.000000000000001776 ) ) ;
#59 = EDGE_LOOP ( 'NONE', ( #300 ) ) ;
#60 = CARTESIAN_POINT ( 'NONE',  ( 1.326762908760390423E-13, -1.600000000000002309, 38.00000000000000000 ) ) ;
#61 = PERSON_AND_ORGANIZATION_ROLE ( 'creator' ) ;
#62 = CARTESIAN_POINT ( 'NONE',  ( 1.326762908760390423E-13, -4.653657836759941941E-15, 38.00000000000000000 ) ) ;
#63 = DIRECTION ( 'NONE',  ( 3.491481338843133355E-15, -1.217390914899601702E-16, 1.000000000000000000 ) ) ;
#64 = AXIS2_PLACEMENT_3D ( 'NONE', #276, #221, #279 ) ;
#65 = AXIS2_PLACEMENT_3D ( 'NONE', #268, #315, #269 ) ;
#66 = APPROVAL_DATE_TIME ( #93, #236 ) ;
#67 = DIRECTION ( 'NONE',  ( 3.491481338843133355E-15, -1.217390914899601702E-16, 1.000000000000000000 ) ) ;
#68 = COORDINATED_UNIVERSAL_TIME_OFFSET ( 1, 0, .AHEAD. ) ;
#69 = PRODUCT_DEFINITION ( 'UNKNOWN', '', #306, #214 ) ;
#70 = ORIENTED_EDGE ( 'NONE', *, *, #147, .F. ) ;
#71 = SECURITY_CLASSIFICATION ( '', '', #157 ) ;
#72 = CARTESIAN_POINT ( 'NONE',  ( 1.057918845669468712E-14, -3.964418073560346191E-16, 3.029999999999998028 ) ) ;
#73 = ADVANCED_FACE ( 'NONE', ( #41 ), #139, .F. ) ;
#74 = DIRECTION ( 'NONE',  ( 3.491481338843133355E-15, -1.217390914899601702E-16, 1.000000000000000000 ) ) ;
#75 = DIRECTION ( 'NONE',  ( 3.491481338843133355E-15, -1.217390914899601702E-16, 1.000000000000000000 ) ) ;
#76 = CC_DESIGN_APPROVAL ( #294, ( #71 ) ) ;
#77 = DIRECTION ( 'NONE',  ( -3.491481338843133355E-15, 1.224646799147353207E-16, -1.000000000000000000 ) ) ;
#78 = DIRECTION ( 'NONE',  ( -4.250497661449128079E-31, -1.000000000000000000, -1.217390914899601456E-16 ) ) ;
#79 = APPLICATION_PROTOCOL_DEFINITION ( 'international standard', 'config_control_design', 1994, #56 ) ;
#80 = CC_DESIGN_APPROVAL ( #259, ( #69 ) ) ;
#81 = VERTEX_POINT ( 'NONE', #285 ) ;
#82 = CONICAL_SURFACE ( 'NONE', #37, 1.999999999999997780, 0.7853981633974516097 ) ;
#83 = EDGE_CURVE ( 'NONE', #129, #129, #177, .T. ) ;
#84 = ORIENTED_EDGE ( 'NONE', *, *, #217, .T. ) ;
#85 = DIRECTION ( 'NONE',  ( 3.491481338843133355E-15, -1.217390914899601702E-16, 1.000000000000000000 ) ) ;
#86 = FACE_OUTER_BOUND ( 'NONE', #18, .T. ) ;
#87 = EDGE_LOOP ( 'NONE', ( #15 ) ) ;
#88 = CONICAL_SURFACE ( 'NONE', #5, 0.8350000000000000755, 0.2217440814658725723 ) ;
#89 = CALENDAR_DATE ( 2021, 13, 12 ) ;
#90 = PERSON_AND_ORGANIZATION_ROLE ( 'design_owner' ) ;
#91 = CYLINDRICAL_SURFACE ( 'NONE', #124, 1.959999999999999964 ) ;
#92 = APPROVAL_DATE_TIME ( #237, #294 ) ;
#93 = DATE_AND_TIME ( #288, #290 ) ;
#94 = EDGE_CURVE ( 'NONE', #258, #258, #20, .T. ) ;
#95 = APPLICATION_PROTOCOL_DEFINITION ( 'international standard', 'config_control_design', 1994, #137 ) ;
#96 = CARTESIAN_POINT ( 'NONE',  ( 1.057918845669468712E-14, -3.964418073560346191E-16, 3.029999999999998028 ) ) ;
#97 = EDGE_CURVE ( 'NONE', #81, #81, #310, .T. ) ;
#98 = CIRCLE ( 'NONE', #168, 0.4774128663098302083 ) ;
#99 = ORIENTED_EDGE ( 'NONE', *, *, #83, .F. ) ;
#100 = DIRECTION ( 'NONE',  ( 3.491481338843133355E-15, -1.217390914899601702E-16, 1.000000000000000000 ) ) ;
#101 = CARTESIAN_POINT ( 'NONE',  ( 1.057918845669469344E-14, 0.4774128663098298198, 3.029999999999999805 ) ) ;
#102 = CARTESIAN_POINT ( 'NONE',  ( 3.316907271900976688E-14, -1.184093729296077521E-15, 9.500000000000001776 ) ) ;
#103 = CARTESIAN_POINT ( 'NONE',  ( 6.982962677686266711E-15, -2.449293598294706414E-16, 2.000000000000000000 ) ) ;
#104 = FACE_BOUND ( 'NONE', #131, .T. ) ;
#105 = CARTESIAN_POINT ( 'NONE',  ( 1.312796983405018142E-13, -2.000000000000002665, 37.60000000000000142 ) ) ;
#106 = EDGE_CURVE ( 'NONE', #30, #30, #197, .T. ) ;
#107 = CARTESIAN_POINT ( 'NONE',  ( 1.326762908760390423E-13, -4.653657836759941941E-15, 38.00000000000000000 ) ) ;
#108 = EDGE_LOOP ( 'NONE', ( #309 ) ) ;
#109 = AXIS2_PLACEMENT_3D ( 'NONE', #102, #201, #125 ) ;
#110 =( LENGTH_UNIT ( ) NAMED_UNIT ( * ) SI_UNIT ( .MILLI., .METRE. ) );
#111 = APPROVAL_ROLE ( '' ) ;
#112 = EDGE_LOOP ( 'NONE', ( #210 ) ) ;
#113 = APPROVAL_PERSON_ORGANIZATION ( #241, #294, #39 ) ;
#114 = DATE_TIME_ROLE ( 'classification_date' ) ;
#115 = DATE_AND_TIME ( #314, #48 ) ;
#116 = ORIENTED_EDGE ( 'NONE', *, *, #97, .T. ) ;
#117 = CC_DESIGN_PERSON_AND_ORGANIZATION_ASSIGNMENT ( #138, #312, ( #69 ) ) ;
#118 = ORIENTED_EDGE ( 'NONE', *, *, #83, .T. ) ;
#119 = DIRECTION ( 'NONE',  ( 0.0000000000000000000, -1.000000000000000000, 0.0000000000000000000 ) ) ;
#120 = LOCAL_TIME ( 11, 14, 50.00000000000000000, #216 ) ;
#121 = AXIS2_PLACEMENT_3D ( 'NONE', #96, #63, #196 ) ;
#122 = PLANE ( 'NONE',  #64 ) ;
#123 = DIRECTION ( 'NONE',  ( 0.0000000000000000000, -1.000000000000000000, 0.0000000000000000000 ) ) ;
#124 = AXIS2_PLACEMENT_3D ( 'NONE', #62, #67, #191 ) ;
#125 = DIRECTION ( 'NONE',  ( 0.0000000000000000000, -1.000000000000000000, 0.0000000000000000000 ) ) ;
#126 = VERTEX_POINT ( 'NONE', #58 ) ;
#127 = VERTEX_POINT ( 'NONE', #156 ) ;
#128 = EDGE_LOOP ( 'NONE', ( #44 ) ) ;
#129 = VERTEX_POINT ( 'NONE', #253 ) ;
#130 = ADVANCED_FACE ( 'NONE', ( #298, #277 ), #203, .T. ) ;
#131 = EDGE_LOOP ( 'NONE', ( #118 ) ) ;
#132 = DATE_AND_TIME ( #313, #251 ) ;
#133 = CIRCLE ( 'NONE', #22, 1.959999999999999964 ) ;
#134 = DIRECTION ( 'NONE',  ( 3.491481338843133355E-15, -1.217390914899601702E-16, 1.000000000000000000 ) ) ;
#135 = AXIS2_PLACEMENT_3D ( 'NONE', #323, #173, #223 ) ;
#136 = PERSON_AND_ORGANIZATION ( #232, #212 ) ;
#137 = APPLICATION_CONTEXT ( 'configuration controlled 3d designs of mechanical parts and assemblies' ) ;
#138 = PERSON_AND_ORGANIZATION ( #232, #212 ) ;
#139 = PLANE ( 'NONE',  #226 ) ;
#140 = EDGE_CURVE ( 'NONE', #286, #286, #208, .T. ) ;
#141 = FACE_OUTER_BOUND ( 'NONE', #7, .T. ) ;
#142 = EDGE_LOOP ( 'NONE', ( #219 ) ) ;
#143 = CYLINDRICAL_SURFACE ( 'NONE', #162, 0.4499999999999999001 ) ;
#144 = CARTESIAN_POINT ( 'NONE',  ( 6.982962677686273021E-15, -2.710505431213761085E-16, 2.000000000000001776 ) ) ;
#145 = CC_DESIGN_APPROVAL ( #236, ( #306 ) ) ;
#146 = FACE_OUTER_BOUND ( 'NONE', #142, .T. ) ;
#147 = EDGE_CURVE ( 'NONE', #127, #127, #98, .T. ) ;
#148 = DIRECTION ( 'NONE',  ( 4.275831445896958607E-31, 1.000000000000000000, 1.224646799147353207E-16 ) ) ;
#149 = FACE_OUTER_BOUND ( 'NONE', #59, .T. ) ;
#150 = AXIS2_PLACEMENT_3D ( 'NONE', #171, #304, #78 ) ;
#151 = ADVANCED_FACE ( 'NONE', ( #146, #50 ), #24, .F. ) ;
#152 = MANIFOLD_SOLID_BREP ( 'Corps-Déplacer/Copier4[1]', #54 ) ;
#153 = CARTESIAN_POINT ( 'NONE',  ( 0.0000000000000000000, 0.0000000000000000000, 0.0000000000000000000 ) ) ;
#154 = ORIENTED_EDGE ( 'NONE', *, *, #106, .F. ) ;
#155 = PRODUCT_DEFINITION_SHAPE ( 'NONE', 'NONE',  #69 ) ;
#156 = CARTESIAN_POINT ( 'NONE',  ( 1.057918845669468712E-14, -0.4774128663098305969, 3.029999999999998028 ) ) ;
#157 = SECURITY_CLASSIFICATION_LEVEL ( 'unclassified' ) ;
#158 = CARTESIAN_POINT ( 'NONE',  ( 9.426999614876463215E-15, -3.562679071643484125E-16, 2.700000000000001066 ) ) ;
#159 = PERSON_AND_ORGANIZATION ( #232, #212 ) ;
#160 = APPROVAL_PERSON_ORGANIZATION ( #265, #236, #111 ) ;
#161 = CC_DESIGN_DATE_AND_TIME_ASSIGNMENT ( #132, #114, ( #71 ) ) ;
#162 = AXIS2_PLACEMENT_3D ( 'NONE', #25, #77, #148 ) ;
#163 = APPROVAL_STATUS ( 'not_yet_approved' ) ;
#164 = PLANE ( 'NONE',  #65 ) ;
#165 = APPROVAL_DATE_TIME ( #115, #259 ) ;
#166 = EDGE_LOOP ( 'NONE', ( #307 ) ) ;
#167 = DIRECTION ( 'NONE',  ( 3.491481338843133355E-15, -1.224646799147353207E-16, 1.000000000000000000 ) ) ;
#168 = AXIS2_PLACEMENT_3D ( 'NONE', #45, #174, #225 ) ;
#169 = ADVANCED_FACE ( 'NONE', ( #149, #248 ), #143, .T. ) ;
#170 = EDGE_LOOP ( 'NONE', ( #33 ) ) ;
#171 = CARTESIAN_POINT ( 'NONE',  ( 3.316907271900976056E-14, 1.999999999999995337, 9.500000000000000000 ) ) ;
#172 = DIRECTION ( 'NONE',  ( 0.0000000000000000000, -1.000000000000000000, 0.0000000000000000000 ) ) ;
#173 = DIRECTION ( 'NONE',  ( 3.491481338843133355E-15, -1.217390914899601702E-16, 1.000000000000000000 ) ) ;
#174 = DIRECTION ( 'NONE',  ( 3.491481338843133355E-15, -1.217390914899601702E-16, 1.000000000000000000 ) ) ;
#175 = CARTESIAN_POINT ( 'NONE',  ( 1.326762908760390423E-13, -4.653657836759941941E-15, 38.00000000000000000 ) ) ;
#176 = DIRECTION ( 'NONE',  ( 0.0000000000000000000, 0.0000000000000000000, 1.000000000000000000 ) ) ;
#177 = CIRCLE ( 'NONE', #121, 0.8350000000000000755 ) ;
#178 = AXIS2_PLACEMENT_3D ( 'NONE', #107, #181, #308 ) ;
#179 = DIRECTION ( 'NONE',  ( 0.0000000000000000000, -1.000000000000000000, 0.0000000000000000000 ) ) ;
#180 = ORIENTED_EDGE ( 'NONE', *, *, #97, .F. ) ;
#181 = DIRECTION ( 'NONE',  ( -3.491481338843133355E-15, 1.217390914899601456E-16, -1.000000000000000000 ) ) ;
#182 = CARTESIAN_POINT ( 'NONE',  ( 1.312796983405018142E-13, -4.604962200163957823E-15, 37.60000000000000142 ) ) ;
#183 = FACE_OUTER_BOUND ( 'NONE', #108, .T. ) ;
#184 = EDGE_CURVE ( 'NONE', #252, #252, #299, .T. ) ;
#185 = DIRECTION ( 'NONE',  ( -3.491481338843133355E-15, 1.217390914899601702E-16, -1.000000000000000000 ) ) ;
#186 = AXIS2_PLACEMENT_3D ( 'NONE', #103, #51, #278 ) ;
#187 = ORIENTED_EDGE ( 'NONE', *, *, #147, .T. ) ;
#188 = DATE_AND_TIME ( #89, #120 ) ;
#189 = CYLINDRICAL_SURFACE ( 'NONE', #43, 0.4500000000000001221 ) ;
#190 = PERSON_AND_ORGANIZATION ( #232, #212 ) ;
#191 = DIRECTION ( 'NONE',  ( 0.0000000000000000000, -1.000000000000000000, 0.0000000000000000000 ) ) ;
#192 = UNCERTAINTY_MEASURE_WITH_UNIT (LENGTH_MEASURE( 1.000000000000000082E-05 ), #110, 'distance_accuracy_value', 'NONE');
#193 = DATE_TIME_ROLE ( 'creation_date' ) ;
#194 = AXIS2_PLACEMENT_3D ( 'NONE', #158, #74, #250 ) ;
#195 = ADVANCED_FACE ( 'NONE', ( #243 ), #122, .T. ) ;
#196 = DIRECTION ( 'NONE',  ( 0.0000000000000000000, -1.000000000000000000, 0.0000000000000000000 ) ) ;
#197 = CIRCLE ( 'NONE', #6, 1.959999999999999964 ) ;
#198 = EDGE_LOOP ( 'NONE', ( #180 ) ) ;
#199 = DIRECTION ( 'NONE',  ( 3.491481338843133355E-15, -1.217390914899601702E-16, 1.000000000000000000 ) ) ;
#200 = DIRECTION ( 'NONE',  ( 0.0000000000000000000, -1.000000000000000000, 0.0000000000000000000 ) ) ;
#201 = DIRECTION ( 'NONE',  ( 3.491481338843133355E-15, -1.217390914899601702E-16, 1.000000000000000000 ) ) ;
#202 = CLOSED_SHELL ( 'NONE', ( #73, #169, #195 ) ) ;
#203 = CYLINDRICAL_SURFACE ( 'NONE', #52, 1.999999999999997335 ) ;
#204 = EDGE_CURVE ( 'NONE', #126, #126, #282, .T. ) ;
#205 = CARTESIAN_POINT ( 'NONE',  ( 3.316907271900976688E-14, -1.999999999999997780, 9.500000000000001776 ) ) ;
#206 = DIRECTION ( 'NONE',  ( 0.0000000000000000000, -1.000000000000000000, 0.0000000000000000000 ) ) ;
#207 = AXIS2_PLACEMENT_3D ( 'NONE', #2, #224, #23 ) ;
#208 = CIRCLE ( 'NONE', #207, 0.4499999999999997335 ) ;
#209 = CARTESIAN_POINT ( 'NONE',  ( 9.426999614876463215E-15, -0.4500000000000006217, 2.700000000000001066 ) ) ;
#210 = ORIENTED_EDGE ( 'NONE', *, *, #94, .F. ) ;
#211 = PERSON_AND_ORGANIZATION ( #232, #212 ) ;
#212 = ORGANIZATION ( 'UNSPECIFIED', 'UNSPECIFIED', '' ) ;
#213 = EDGE_LOOP ( 'NONE', ( #267 ) ) ;
#214 = DESIGN_CONTEXT ( 'detailed design', #137, 'design' ) ;
#215 = CC_DESIGN_PERSON_AND_ORGANIZATION_ASSIGNMENT ( #211, #90, ( #1 ) ) ;
#216 = COORDINATED_UNIVERSAL_TIME_OFFSET ( 1, 0, .AHEAD. ) ;
#217 = EDGE_CURVE ( 'NONE', #257, #257, #133, .T. ) ;
#218 = EDGE_LOOP ( 'NONE', ( #116 ) ) ;
#219 = ORIENTED_EDGE ( 'NONE', *, *, #184, .F. ) ;
#220 = APPROVAL_PERSON_ORGANIZATION ( #159, #259, #291 ) ;
#221 = DIRECTION ( 'NONE',  ( 3.491481338843133355E-15, -1.224646799147353207E-16, 1.000000000000000000 ) ) ;
#222 = ADVANCED_FACE ( 'NONE', ( #301, #104 ), #88, .T. ) ;
#223 = DIRECTION ( 'NONE',  ( -4.310172480332858299E-31, -1.000000000000000000, -1.217390914899601702E-16 ) ) ;
#224 = DIRECTION ( 'NONE',  ( -3.491481338843133355E-15, 1.224646799147353207E-16, -1.000000000000000000 ) ) ;
#225 = DIRECTION ( 'NONE',  ( 0.0000000000000000000, -1.000000000000000000, 0.0000000000000000000 ) ) ;
#226 = AXIS2_PLACEMENT_3D ( 'NONE', #240, #167, #16 ) ;
#227 = CARTESIAN_POINT ( 'NONE',  ( 2.800163926706042077E-14, -1.003918441868196603E-15, 8.019988236952306337 ) ) ;
#228 = ADVANCED_FACE ( 'NONE', ( #319, #247 ), #27, .F. ) ;
#229 =( NAMED_UNIT ( * ) SI_UNIT ( $, .STERADIAN. ) SOLID_ANGLE_UNIT ( ) );
#230 = CARTESIAN_POINT ( 'NONE',  ( 1.326762908760390423E-13, -4.653657836759941941E-15, 38.00000000000000000 ) ) ;
#231 = VERTEX_POINT ( 'NONE', #105 ) ;
#232 = PERSON ( 'UNSPECIFIED', 'UNSPECIFIED', 'UNSPECIFIED', ('UNSPECIFIED'), ('UNSPECIFIED'), ('UNSPECIFIED') ) ;
#233 = DIRECTION ( 'NONE',  ( 0.0000000000000000000, 1.000000000000000000, 0.0000000000000000000 ) ) ;
#234 = EDGE_LOOP ( 'NONE', ( #316 ) ) ;
#235 = VERTEX_POINT ( 'NONE', #60 ) ;
#236 = APPROVAL ( #261, 'UNSPECIFIED' ) ;
#237 = DATE_AND_TIME ( #266, #11 ) ;
#238 = COORDINATED_UNIVERSAL_TIME_OFFSET ( 1, 0, .AHEAD. ) ;
#239 = PERSON_AND_ORGANIZATION_ROLE ( 'classification_officer' ) ;
#240 = CARTESIAN_POINT ( 'NONE',  ( -8.552029054412912320E-32, 2.999647997881647411E-33, -2.449398471436922997E-17 ) ) ;
#241 = PERSON_AND_ORGANIZATION ( #232, #212 ) ;
#242 = EDGE_LOOP ( 'NONE', ( #262 ) ) ;
#243 = FACE_OUTER_BOUND ( 'NONE', #198, .T. ) ;
#244 = ADVANCED_FACE ( 'NONE', ( #21, #302 ), #321, .F. ) ;
#245 = DIRECTION ( 'NONE',  ( 3.491481338843133355E-15, -1.217390914899601702E-16, 1.000000000000000000 ) ) ;
#246 = CIRCLE ( 'NONE', #292, 1.599999999999997646 ) ;
#247 = FACE_OUTER_BOUND ( 'NONE', #166, .T. ) ;
#248 = FACE_OUTER_BOUND ( 'NONE', #218, .T. ) ;
#249 = ADVANCED_FACE ( 'NONE', ( #57 ), #4, .F. ) ;
#250 = DIRECTION ( 'NONE',  ( 0.0000000000000000000, -1.000000000000000000, 0.0000000000000000000 ) ) ;
#251 = LOCAL_TIME ( 11, 14, 50.00000000000000000, #36 ) ;
#252 = VERTEX_POINT ( 'NONE', #205 ) ;
#253 = CARTESIAN_POINT ( 'NONE',  ( 1.057918845669468712E-14, -0.8350000000000005196, 3.029999999999998028 ) ) ;
#254 = CC_DESIGN_PERSON_AND_ORGANIZATION_ASSIGNMENT ( #136, #239, ( #71 ) ) ;
#255 = DIRECTION ( 'NONE',  ( 3.491481338843133355E-15, -1.217390914899601702E-16, 1.000000000000000000 ) ) ;
#256 = ORIENTED_EDGE ( 'NONE', *, *, #217, .F. ) ;
#257 = VERTEX_POINT ( 'NONE', #305 ) ;
#258 = VERTEX_POINT ( 'NONE', #209 ) ;
#259 = APPROVAL ( #14, 'UNSPECIFIED' ) ;
#260 = EDGE_LOOP ( 'NONE', ( #99 ) ) ;
#261 = APPROVAL_STATUS ( 'not_yet_approved' ) ;
#262 = ORIENTED_EDGE ( 'NONE', *, *, #140, .T. ) ;
#263 = MANIFOLD_SOLID_BREP ( 'Corps-Déplacer/Copier4[2]', #202 ) ;
#264 =( GEOMETRIC_REPRESENTATION_CONTEXT ( 3 ) GLOBAL_UNCERTAINTY_ASSIGNED_CONTEXT ( ( #192 ) ) GLOBAL_UNIT_ASSIGNED_CONTEXT ( ( #110, #34, #229 ) ) REPRESENTATION_CONTEXT ( 'NONE', 'WORKASPACE' ) );
#265 = PERSON_AND_ORGANIZATION ( #232, #212 ) ;
#266 = CALENDAR_DATE ( 2021, 13, 12 ) ;
#267 = ORIENTED_EDGE ( 'NONE', *, *, #287, .F. ) ;
#268 = CARTESIAN_POINT ( 'NONE',  ( 6.982962677686266711E-15, 0.4499999999999997335, 2.000000000000000000 ) ) ;
#269 = DIRECTION ( 'NONE',  ( -4.250497661449128079E-31, -1.000000000000000000, -1.217390914899601456E-16 ) ) ;
#270 = SHAPE_DEFINITION_REPRESENTATION ( #155, #40 ) ;
#271 = EDGE_LOOP ( 'NONE', ( #187 ) ) ;
#272 = AXIS2_PLACEMENT_3D ( 'NONE', #182, #255, #179 ) ;
#273 = ORIENTED_EDGE ( 'NONE', *, *, #287, .T. ) ;
#274 = EDGE_CURVE ( 'NONE', #231, #231, #38, .T. ) ;
#275 = DIRECTION ( 'NONE',  ( 3.491481338843133355E-15, -1.217390914899601702E-16, 1.000000000000000000 ) ) ;
#276 = CARTESIAN_POINT ( 'NONE',  ( 6.982962677686266711E-15, 3.374459510989176196E-33, 2.000000000000000000 ) ) ;
#277 = FACE_OUTER_BOUND ( 'NONE', #234, .T. ) ;
#278 = DIRECTION ( 'NONE',  ( 0.0000000000000000000, 1.000000000000000000, 0.0000000000000000000 ) ) ;
#279 = DIRECTION ( 'NONE',  ( -4.275831445896958607E-31, -1.000000000000000000, -1.224646799147353207E-16 ) ) ;
#280 = CARTESIAN_POINT ( 'NONE',  ( 2.137183397710476993E-32, 0.4499999999999997335, 6.121136532892404794E-18 ) ) ;
#281 = AXIS2_PLACEMENT_3D ( 'NONE', #153, #176, #53 ) ;
#282 = CIRCLE ( 'NONE', #317, 0.4500000000000000111 ) ;
#283 = CC_DESIGN_PERSON_AND_ORGANIZATION_ASSIGNMENT ( #190, #61, ( #306 ) ) ;
#284 = CARTESIAN_POINT ( 'NONE',  ( 3.316907271900976688E-14, -1.960000000000001297, 9.500000000000001776 ) ) ;
#285 = CARTESIAN_POINT ( 'NONE',  ( 6.982962677686266711E-15, 0.4499999999999997335, 2.000000000000000000 ) ) ;
#286 = VERTEX_POINT ( 'NONE', #280 ) ;
#287 = EDGE_CURVE ( 'NONE', #235, #235, #246, .T. ) ;
#288 = CALENDAR_DATE ( 2021, 13, 12 ) ;
#289 = FACE_OUTER_BOUND ( 'NONE', #170, .T. ) ;
#290 = LOCAL_TIME ( 11, 14, 50.00000000000000000, #238 ) ;
#291 = APPROVAL_ROLE ( '' ) ;
#292 = AXIS2_PLACEMENT_3D ( 'NONE', #31, #85, #206 ) ;
#293 = FACE_OUTER_BOUND ( 'NONE', #318, .T. ) ;
#294 = APPROVAL ( #163, 'UNSPECIFIED' ) ;
#295 = DIRECTION ( 'NONE',  ( 0.0000000000000000000, -1.000000000000000000, 0.0000000000000000000 ) ) ;
#296 = PERSON_AND_ORGANIZATION_ROLE ( 'design_supplier' ) ;
#297 = ADVANCED_FACE ( 'NONE', ( #28, #86 ), #82, .T. ) ;
#298 = FACE_OUTER_BOUND ( 'NONE', #128, .T. ) ;
#299 = CIRCLE ( 'NONE', #109, 1.999999999999996669 ) ;
#300 = ORIENTED_EDGE ( 'NONE', *, *, #140, .F. ) ;
#301 = FACE_OUTER_BOUND ( 'NONE', #55, .T. ) ;
#302 = FACE_BOUND ( 'NONE', #271, .T. ) ;
#303 = PRODUCT_RELATED_PRODUCT_CATEGORY ( 'detail', '', ( #1 ) ) ;
#304 = DIRECTION ( 'NONE',  ( 3.491481338843133355E-15, -1.217390914899601456E-16, 1.000000000000000000 ) ) ;
#305 = CARTESIAN_POINT ( 'NONE',  ( 2.800163926706042077E-14, -1.960000000000000853, 8.019988236952306337 ) ) ;
#306 = PRODUCT_DEFINITION_FORMATION_WITH_SPECIFIED_SOURCE ( 'ANY', '', #1, .NOT_KNOWN. ) ;
#307 = ORIENTED_EDGE ( 'NONE', *, *, #94, .T. ) ;
#308 = DIRECTION ( 'NONE',  ( 4.250497661449128079E-31, 1.000000000000000000, 1.217390914899601456E-16 ) ) ;
#309 = ORIENTED_EDGE ( 'NONE', *, *, #204, .T. ) ;
#310 = CIRCLE ( 'NONE', #186, 0.4500000000000000111 ) ;
#311 = COORDINATED_UNIVERSAL_TIME_OFFSET ( 1, 0, .AHEAD. ) ;
#312 = PERSON_AND_ORGANIZATION_ROLE ( 'creator' ) ;
#313 = CALENDAR_DATE ( 2021, 13, 12 ) ;
#314 = CALENDAR_DATE ( 2021, 13, 12 ) ;
#315 = DIRECTION ( 'NONE',  ( 3.491481338843133355E-15, -1.217390914899601456E-16, 1.000000000000000000 ) ) ;
#316 = ORIENTED_EDGE ( 'NONE', *, *, #184, .T. ) ;
#317 = AXIS2_PLACEMENT_3D ( 'NONE', #144, #245, #200 ) ;
#318 = EDGE_LOOP ( 'NONE', ( #84 ) ) ;
#319 = FACE_OUTER_BOUND ( 'NONE', #29, .T. ) ;
#320 = AXIS2_PLACEMENT_3D ( 'NONE', #101, #49, #322 ) ;
#321 = PLANE ( 'NONE',  #320 ) ;
#322 = DIRECTION ( 'NONE',  ( -4.250497661449128079E-31, -1.000000000000000000, -1.217390914899601456E-16 ) ) ;
#323 = CARTESIAN_POINT ( 'NONE',  ( 9.426999614876461637E-15, -4.336808689942017736E-16, 2.700000000000000178 ) ) ;
ENDSEC;
END-ISO-10303-21;
