ISO-10303-21;
HEADER;
FILE_DESCRIPTION (( 'STEP AP203' ),
    '1' );
FILE_NAME ('388780.step',
    '2021-12-13T10:14:49',
    ( '' ),
    ( '' ),
    'SwSTEP 2.0',
    'SolidWorks 2019',
    '' );
FILE_SCHEMA (( 'CONFIG_CONTROL_DESIGN' ));
ENDSEC;

DATA;
#1 = ORIENTED_EDGE ( 'NONE', *, *, #203, .F. ) ;
#2 = EDGE_LOOP ( 'NONE', ( #34 ) ) ;
#3 = DIRECTION ( 'NONE',  ( -4.275831445896958607E-31, -1.000000000000000000, -1.224646799147353207E-16 ) ) ;
#4 = ORIENTED_EDGE ( 'NONE', *, *, #47, .F. ) ;
#5 = DIRECTION ( 'NONE',  ( 0.0000000000000000000, 1.000000000000000000, 0.0000000000000000000 ) ) ;
#6 = CC_DESIGN_APPROVAL ( #267, ( #300 ) ) ;
#7 = EDGE_LOOP ( 'NONE', ( #1 ) ) ;
#8 = CIRCLE ( 'NONE', #198, 1.959999999999999964 ) ;
#9 = CARTESIAN_POINT ( 'NONE',  ( 0.0000000000000000000, 0.0000000000000000000, 0.0000000000000000000 ) ) ;
#10 = DIRECTION ( 'NONE',  ( 4.275831445896958607E-31, 1.000000000000000000, 1.224646799147353207E-16 ) ) ;
#11 = DIRECTION ( 'NONE',  ( -3.491481338843133355E-15, 1.224646799147353207E-16, -1.000000000000000000 ) ) ;
#12 = FACE_OUTER_BOUND ( 'NONE', #119, .T. ) ;
#13 = CIRCLE ( 'NONE', #93, 0.4000000000000000222 ) ;
#14 =( LENGTH_UNIT ( ) NAMED_UNIT ( * ) SI_UNIT ( .MILLI., .METRE. ) );
#15 = FACE_OUTER_BOUND ( 'NONE', #113, .T. ) ;
#16 = DIRECTION ( 'NONE',  ( -3.491481338843133355E-15, 1.224646799147353207E-16, -1.000000000000000000 ) ) ;
#17 = CARTESIAN_POINT ( 'NONE',  ( 6.284666409917640040E-15, 0.3999999999999997446, 1.800000000000000044 ) ) ;
#18 = DIRECTION ( 'NONE',  ( 0.0000000000000000000, 1.000000000000000000, 0.0000000000000000000 ) ) ;
#19 = DIRECTION ( 'NONE',  ( 0.0000000000000000000, 1.000000000000000000, 0.0000000000000000000 ) ) ;
#20 = APPROVAL_PERSON_ORGANIZATION ( #290, #267, #159 ) ;
#21 = EDGE_CURVE ( 'NONE', #329, #329, #8, .T. ) ;
#22 = MECHANICAL_CONTEXT ( 'NONE', #283, 'mechanical' ) ;
#23 = ADVANCED_FACE ( 'NONE', ( #333, #287 ), #233, .F. ) ;
#24 = AXIS2_PLACEMENT_3D ( 'NONE', #9, #308, #10 ) ;
#25 = LOCAL_TIME ( 11, 14, 49.00000000000000000, #63 ) ;
#26 = APPROVAL_STATUS ( 'not_yet_approved' ) ;
#27 = APPROVAL ( #26, 'UNSPECIFIED' ) ;
#28 = CARTESIAN_POINT ( 'NONE',  ( 3.316907271900976056E-14, -1.163414459189985485E-15, 9.500000000000000000 ) ) ;
#29 = PERSON_AND_ORGANIZATION_ROLE ( 'design_supplier' ) ;
#30 = ORIENTED_EDGE ( 'NONE', *, *, #275, .F. ) ;
#31 = DIRECTION ( 'NONE',  ( 0.0000000000000000000, 1.000000000000000000, 0.0000000000000000000 ) ) ;
#32 = CIRCLE ( 'NONE', #343, 0.8349999999999999645 ) ;
#33 = ORIENTED_EDGE ( 'NONE', *, *, #203, .T. ) ;
#34 = ORIENTED_EDGE ( 'NONE', *, *, #192, .F. ) ;
#35 = DIRECTION ( 'NONE',  ( 0.0000000000000000000, 1.000000000000000000, 0.0000000000000000000 ) ) ;
#36 =( GEOMETRIC_REPRESENTATION_CONTEXT ( 3 ) GLOBAL_UNCERTAINTY_ASSIGNED_CONTEXT ( ( #337 ) ) GLOBAL_UNIT_ASSIGNED_CONTEXT ( ( #14, #109, #80 ) ) REPRESENTATION_CONTEXT ( 'NONE', 'WORKASPACE' ) );
#37 = DIRECTION ( 'NONE',  ( 4.336184387722548362E-31, 1.000000000000000000, 1.224646799147353207E-16 ) ) ;
#38 = CARTESIAN_POINT ( 'NONE',  ( 8.379555213223518475E-15, 0.3999999999999997446, 2.399999999999999911 ) ) ;
#39 = FACE_OUTER_BOUND ( 'NONE', #196, .T. ) ;
#40 = CARTESIAN_POINT ( 'NONE',  ( 3.316907271900976056E-14, 1.999999999999995337, 9.500000000000000000 ) ) ;
#41 = ADVANCED_FACE ( 'NONE', ( #39 ), #253, .F. ) ;
#42 = DIRECTION ( 'NONE',  ( -4.275831445896958607E-31, -1.000000000000000000, -1.224646799147353207E-16 ) ) ;
#43 = FACE_OUTER_BOUND ( 'NONE', #272, .T. ) ;
#44 = FACE_BOUND ( 'NONE', #60, .T. ) ;
#45 = DIRECTION ( 'NONE',  ( 3.491481338843133355E-15, -1.224646799147353207E-16, 1.000000000000000000 ) ) ;
#46 = DIRECTION ( 'NONE',  ( 3.491481338843133355E-15, -1.224646799147353207E-16, 1.000000000000000000 ) ) ;
#47 = EDGE_CURVE ( 'NONE', #261, #261, #263, .T. ) ;
#48 = PERSON_AND_ORGANIZATION ( #227, #173 ) ;
#49 = AXIS2_PLACEMENT_3D ( 'NONE', #153, #128, #35 ) ;
#50 = PERSON_AND_ORGANIZATION_ROLE ( 'creator' ) ;
#51 = ADVANCED_FACE ( 'NONE', ( #43, #207 ), #92, .T. ) ;
#52 = PERSON_AND_ORGANIZATION ( #227, #173 ) ;
#53 = SECURITY_CLASSIFICATION ( '', '', #243 ) ;
#54 = EDGE_LOOP ( 'NONE', ( #108 ) ) ;
#55 = DIRECTION ( 'NONE',  ( -3.491481338843133355E-15, 1.224646799147353207E-16, -1.000000000000000000 ) ) ;
#56 = EDGE_LOOP ( 'NONE', ( #249 ) ) ;
#57 = AXIS2_PLACEMENT_3D ( 'NONE', #97, #157, #102 ) ;
#58 = EDGE_LOOP ( 'NONE', ( #168 ) ) ;
#59 = EDGE_CURVE ( 'NONE', #334, #334, #230, .T. ) ;
#60 = EDGE_LOOP ( 'NONE', ( #193 ) ) ;
#61 = COORDINATED_UNIVERSAL_TIME_OFFSET ( 1, 0, .AHEAD. ) ;
#62 = FACE_OUTER_BOUND ( 'NONE', #339, .T. ) ;
#63 = COORDINATED_UNIVERSAL_TIME_OFFSET ( 1, 0, .AHEAD. ) ;
#64 = CARTESIAN_POINT ( 'NONE',  ( 2.779215038672983719E-14, -9.748174115634227252E-16, 7.959988236952307616 ) ) ;
#65 = CLOSED_SHELL ( 'NONE', ( #211, #51, #270 ) ) ;
#66 = DIRECTION ( 'NONE',  ( -3.491481338843133355E-15, 1.224646799147353207E-16, -1.000000000000000000 ) ) ;
#67 = PLANE ( 'NONE',  #57 ) ;
#68 = VERTEX_POINT ( 'NONE', #280 ) ;
#69 = ADVANCED_FACE ( 'NONE', ( #206, #62 ), #252, .T. ) ;
#70 = DIRECTION ( 'NONE',  ( -3.491481338843133355E-15, 1.224646799147353207E-16, -1.000000000000000000 ) ) ;
#71 = CARTESIAN_POINT ( 'NONE',  ( 3.316907271900976056E-14, -1.163414459189985485E-15, 9.500000000000000000 ) ) ;
#72 = DIRECTION ( 'NONE',  ( 4.275831445896958607E-31, 1.000000000000000000, 1.224646799147353207E-16 ) ) ;
#73 = AXIS2_PLACEMENT_3D ( 'NONE', #186, #305, #229 ) ;
#74 = DIRECTION ( 'NONE',  ( -3.491481338843133355E-15, 1.224646799147353207E-16, -1.000000000000000000 ) ) ;
#75 = CC_DESIGN_DATE_AND_TIME_ASSIGNMENT ( #250, #91, ( #53 ) ) ;
#76 = PERSON_AND_ORGANIZATION ( #227, #173 ) ;
#77 = APPLICATION_PROTOCOL_DEFINITION ( 'international standard', 'config_control_design', 1994, #293 ) ;
#78 = AXIS2_PLACEMENT_3D ( 'NONE', #232, #122, #228 ) ;
#79 = DESIGN_CONTEXT ( 'detailed design', #293, 'design' ) ;
#80 =( NAMED_UNIT ( * ) SI_UNIT ( $, .STERADIAN. ) SOLID_ANGLE_UNIT ( ) );
#81 = CALENDAR_DATE ( 2021, 13, 12 ) ;
#82 = CLOSED_SHELL ( 'NONE', ( #41, #134, #188, #319, #292, #313, #69, #23, #190, #162, #116 ) ) ;
#83 = EDGE_LOOP ( 'NONE', ( #322 ) ) ;
#84 = CALENDAR_DATE ( 2021, 13, 12 ) ;
#85 = DIRECTION ( 'NONE',  ( 4.275831445896958607E-31, 1.000000000000000000, 1.224646799147353207E-16 ) ) ;
#86 = EDGE_LOOP ( 'NONE', ( #139 ) ) ;
#87 = PLANE ( 'NONE',  #189 ) ;
#88 = ORIENTED_EDGE ( 'NONE', *, *, #262, .F. ) ;
#89 = AXIS2_PLACEMENT_3D ( 'NONE', #341, #55, #85 ) ;
#90 = EDGE_LOOP ( 'NONE', ( #141 ) ) ;
#91 = DATE_TIME_ROLE ( 'classification_date' ) ;
#92 = CYLINDRICAL_SURFACE ( 'NONE', #204, 0.3999999999999998557 ) ;
#93 = AXIS2_PLACEMENT_3D ( 'NONE', #260, #311, #18 ) ;
#94 = DIRECTION ( 'NONE',  ( -3.491481338843133355E-15, 1.224646799147353207E-16, -1.000000000000000000 ) ) ;
#95 = CARTESIAN_POINT ( 'NONE',  ( 2.137183397710481372E-32, 0.3999999999999997446, 6.121136532892404794E-18 ) ) ;
#96 = CARTESIAN_POINT ( 'NONE',  ( 0.0000000000000000000, 0.0000000000000000000, 0.0000000000000000000 ) ) ;
#97 = CARTESIAN_POINT ( 'NONE',  ( 1.036969957636410670E-14, 3.611058185684042079E-15, 2.970000000000000639 ) ) ;
#98 = CARTESIAN_POINT ( 'NONE',  ( 3.316907271900976056E-14, 2.969524369670473466E-32, 9.500000000000000000 ) ) ;
#99 = DIRECTION ( 'NONE',  ( 0.0000000000000000000, -1.000000000000000000, 0.0000000000000000000 ) ) ;
#100 = DIRECTION ( 'NONE',  ( -4.275831445896958607E-31, -1.000000000000000000, -1.224646799147353207E-16 ) ) ;
#101 = AXIS2_PLACEMENT_3D ( 'NONE', #98, #226, #325 ) ;
#102 = DIRECTION ( 'NONE',  ( -4.275831445896958607E-31, -1.000000000000000000, -1.224646799147353207E-16 ) ) ;
#103 = VERTEX_POINT ( 'NONE', #175 ) ;
#104 = AXIS2_PLACEMENT_3D ( 'NONE', #235, #336, #205 ) ;
#105 = CC_DESIGN_DATE_AND_TIME_ASSIGNMENT ( #240, #338, ( #300 ) ) ;
#106 = CARTESIAN_POINT ( 'NONE',  ( 0.0000000000000000000, 0.0000000000000000000, 0.0000000000000000000 ) ) ;
#107 = EDGE_CURVE ( 'NONE', #103, #103, #32, .T. ) ;
#108 = ORIENTED_EDGE ( 'NONE', *, *, #47, .T. ) ;
#109 =( NAMED_UNIT ( * ) PLANE_ANGLE_UNIT ( ) SI_UNIT ( $, .RADIAN. ) );
#110 = CIRCLE ( 'NONE', #133, 1.959999999999999520 ) ;
#111 = PRODUCT_RELATED_PRODUCT_CATEGORY ( 'detail', '', ( #181 ) ) ;
#112 = ORIENTED_EDGE ( 'NONE', *, *, #275, .T. ) ;
#113 = EDGE_LOOP ( 'NONE', ( #88 ) ) ;
#114 = ORIENTED_EDGE ( 'NONE', *, *, #236, .T. ) ;
#115 = DIRECTION ( 'NONE',  ( -3.491481338843133355E-15, 1.224646799147353207E-16, -1.000000000000000000 ) ) ;
#116 = ADVANCED_FACE ( 'NONE', ( #15 ), #150, .F. ) ;
#117 = AXIS2_PLACEMENT_3D ( 'NONE', #142, #115, #5 ) ;
#118 = LOCAL_TIME ( 11, 14, 49.00000000000000000, #160 ) ;
#119 = EDGE_LOOP ( 'NONE', ( #195 ) ) ;
#120 = FACE_OUTER_BOUND ( 'NONE', #7, .T. ) ;
#121 = CARTESIAN_POINT ( 'NONE',  ( 1.036969957636410670E-14, -3.637200993467639600E-16, 2.970000000000000639 ) ) ;
#122 = DIRECTION ( 'NONE',  ( -3.491481338843133355E-15, 1.224646799147353207E-16, -1.000000000000000000 ) ) ;
#123 = CARTESIAN_POINT ( 'NONE',  ( 9.915327516933672997E-15, 0.4489692899384950531, 2.839862669928808980 ) ) ;
#124 = FACE_OUTER_BOUND ( 'NONE', #271, .T. ) ;
#125 = FACE_OUTER_BOUND ( 'NONE', #2, .T. ) ;
#126 = PRODUCT_DEFINITION_SHAPE ( 'NONE', 'NONE',  #300 ) ;
#127 = CARTESIAN_POINT ( 'NONE',  ( 3.316907271900976056E-14, 1.959999999999998632, 9.500000000000000000 ) ) ;
#128 = DIRECTION ( 'NONE',  ( -3.491481338843133355E-15, 1.224646799147353207E-16, -1.000000000000000000 ) ) ;
#129 = FACE_OUTER_BOUND ( 'NONE', #220, .T. ) ;
#130 = APPROVAL ( #169, 'UNSPECIFIED' ) ;
#131 = CARTESIAN_POINT ( 'NONE',  ( 6.284666409917640040E-15, -2.204364238465235576E-16, 1.800000000000000044 ) ) ;
#132 = DATE_AND_TIME ( #241, #118 ) ;
#133 = AXIS2_PLACEMENT_3D ( 'NONE', #64, #94, #177 ) ;
#134 = ADVANCED_FACE ( 'NONE', ( #254, #201 ), #327, .T. ) ;
#135 = APPROVAL_DATE_TIME ( #294, #27 ) ;
#136 = CC_DESIGN_PERSON_AND_ORGANIZATION_ASSIGNMENT ( #52, #163, ( #225 ) ) ;
#137 = EDGE_LOOP ( 'NONE', ( #33 ) ) ;
#138 = AXIS2_PLACEMENT_3D ( 'NONE', #289, #45, #100 ) ;
#139 = ORIENTED_EDGE ( 'NONE', *, *, #192, .T. ) ;
#140 = PERSON_AND_ORGANIZATION ( #227, #173 ) ;
#141 = ORIENTED_EDGE ( 'NONE', *, *, #303, .T. ) ;
#142 = CARTESIAN_POINT ( 'NONE',  ( 1.312796983405018142E-13, -4.604671964794047724E-15, 37.60000000000000142 ) ) ;
#143 = DIRECTION ( 'NONE',  ( 0.0000000000000000000, 1.000000000000000000, 0.0000000000000000000 ) ) ;
#144 = CARTESIAN_POINT ( 'NONE',  ( 0.0000000000000000000, 0.0000000000000000000, 0.0000000000000000000 ) ) ;
#145 = CALENDAR_DATE ( 2021, 13, 12 ) ;
#146 = EDGE_CURVE ( 'NONE', #68, #68, #110, .T. ) ;
#147 = DIRECTION ( 'NONE',  ( 0.0000000000000000000, 1.000000000000000000, 0.0000000000000000000 ) ) ;
#148 = MANIFOLD_SOLID_BREP ( 'Corps-Déplacer/Copier1[1]', #82 ) ;
#149 = CC_DESIGN_PERSON_AND_ORGANIZATION_ASSIGNMENT ( #340, #187, ( #53 ) ) ;
#150 = PLANE ( 'NONE',  #78 ) ;
#151 = VERTEX_POINT ( 'NONE', #17 ) ;
#152 = AXIS2_PLACEMENT_3D ( 'NONE', #121, #16, #257 ) ;
#153 = CARTESIAN_POINT ( 'NONE',  ( 9.915327516933672997E-15, -3.477828728746372211E-16, 2.839862669928808980 ) ) ;
#154 = CC_DESIGN_PERSON_AND_ORGANIZATION_ASSIGNMENT ( #76, #29, ( #225 ) ) ;
#155 = CARTESIAN_POINT ( 'NONE',  ( 1.326762908760390423E-13, 1.599999999999993205, 38.00000000000000000 ) ) ;
#156 = DIRECTION ( 'NONE',  ( 4.275831445896959482E-31, 1.000000000000000000, 1.224646799147353454E-16 ) ) ;
#157 = DIRECTION ( 'NONE',  ( 3.491481338843133355E-15, -1.224646799147353207E-16, 1.000000000000000000 ) ) ;
#158 = AXIS2_PLACEMENT_3D ( 'NONE', #131, #74, #335 ) ;
#159 = APPROVAL_ROLE ( '' ) ;
#160 = COORDINATED_UNIVERSAL_TIME_OFFSET ( 1, 0, .AHEAD. ) ;
#161 = CC_DESIGN_APPROVAL ( #27, ( #225 ) ) ;
#162 = ADVANCED_FACE ( 'NONE', ( #279, #281 ), #291, .T. ) ;
#163 = PERSON_AND_ORGANIZATION_ROLE ( 'creator' ) ;
#164 = LOCAL_TIME ( 11, 14, 49.00000000000000000, #61 ) ;
#165 = ORIENTED_EDGE ( 'NONE', *, *, #21, .T. ) ;
#166 = CALENDAR_DATE ( 2021, 13, 12 ) ;
#167 = ADVANCED_BREP_SHAPE_REPRESENTATION ( '388780', ( #148, #265, #318 ), #36 ) ;
#168 = ORIENTED_EDGE ( 'NONE', *, *, #59, .T. ) ;
#169 = APPROVAL_STATUS ( 'not_yet_approved' ) ;
#170 = CIRCLE ( 'NONE', #328, 1.599999999999997646 ) ;
#171 = CARTESIAN_POINT ( 'NONE',  ( 6.284666409917640040E-15, 2.999519565323711795E-33, 1.800000000000000044 ) ) ;
#172 = CARTESIAN_POINT ( 'NONE',  ( 0.0000000000000000000, 0.0000000000000000000, 0.0000000000000000000 ) ) ;
#173 = ORGANIZATION ( 'UNSPECIFIED', 'UNSPECIFIED', '' ) ;
#174 = DIRECTION ( 'NONE',  ( 3.491481338843133355E-15, -1.224646799147353207E-16, 1.000000000000000000 ) ) ;
#175 = CARTESIAN_POINT ( 'NONE',  ( 1.036969957636410670E-14, 0.8349999999999996314, 2.970000000000000195 ) ) ;
#176 = CC_DESIGN_PERSON_AND_ORGANIZATION_ASSIGNMENT ( #296, #316, ( #181 ) ) ;
#177 = DIRECTION ( 'NONE',  ( 0.0000000000000000000, 1.000000000000000000, 0.0000000000000000000 ) ) ;
#178 = CARTESIAN_POINT ( 'NONE',  ( 1.312796983405018142E-13, 1.999999999999993117, 37.60000000000000142 ) ) ;
#179 = DIRECTION ( 'NONE',  ( 4.275831445896958607E-31, 1.000000000000000000, 1.224646799147353207E-16 ) ) ;
#180 = FACE_BOUND ( 'NONE', #222, .T. ) ;
#181 = PRODUCT ( '388780', '388780', '', ( #22 ) ) ;
#182 = CIRCLE ( 'NONE', #224, 1.999999999999996669 ) ;
#183 = DIRECTION ( 'NONE',  ( -3.491481338843133355E-15, 1.224646799147353207E-16, -1.000000000000000000 ) ) ;
#184 = VERTEX_POINT ( 'NONE', #155 ) ;
#185 = PLANE ( 'NONE',  #138 ) ;
#186 = CARTESIAN_POINT ( 'NONE',  ( 2.779215038672983719E-14, -9.748174115634227252E-16, 7.959988236952307616 ) ) ;
#187 = PERSON_AND_ORGANIZATION_ROLE ( 'classification_officer' ) ;
#188 = ADVANCED_FACE ( 'NONE', ( #276, #125 ), #273, .F. ) ;
#189 = AXIS2_PLACEMENT_3D ( 'NONE', #171, #317, #3 ) ;
#190 = ADVANCED_FACE ( 'NONE', ( #12, #124 ), #331, .T. ) ;
#191 = DIRECTION ( 'NONE',  ( 1.000000000000000000, 0.0000000000000000000, 0.0000000000000000000 ) ) ;
#192 = EDGE_CURVE ( 'NONE', #285, #285, #13, .T. ) ;
#193 = ORIENTED_EDGE ( 'NONE', *, *, #59, .F. ) ;
#194 = EDGE_LOOP ( 'NONE', ( #219 ) ) ;
#195 = ORIENTED_EDGE ( 'NONE', *, *, #303, .F. ) ;
#196 = EDGE_LOOP ( 'NONE', ( #297 ) ) ;
#197 = CC_DESIGN_SECURITY_CLASSIFICATION ( #53, ( #225 ) ) ;
#198 = AXIS2_PLACEMENT_3D ( 'NONE', #28, #274, #143 ) ;
#199 = ORIENTED_EDGE ( 'NONE', *, *, #21, .F. ) ;
#200 = DATE_AND_TIME ( #84, #25 ) ;
#201 = FACE_OUTER_BOUND ( 'NONE', #86, .T. ) ;
#202 = CARTESIAN_POINT ( 'NONE',  ( 1.036969957636410670E-14, -3.637200993467638614E-16, 2.970000000000000195 ) ) ;
#203 = EDGE_CURVE ( 'NONE', #312, #312, #238, .T. ) ;
#204 = AXIS2_PLACEMENT_3D ( 'NONE', #144, #66, #179 ) ;
#205 = DIRECTION ( 'NONE',  ( 0.0000000000000000000, 1.000000000000000000, 0.0000000000000000000 ) ) ;
#206 = FACE_OUTER_BOUND ( 'NONE', #83, .T. ) ;
#207 = FACE_OUTER_BOUND ( 'NONE', #137, .T. ) ;
#208 = CONICAL_SURFACE ( 'NONE', #73, 1.959999999999999520, 0.2217440814658727943 ) ;
#209 = FACE_OUTER_BOUND ( 'NONE', #244, .T. ) ;
#210 = CARTESIAN_POINT ( 'NONE',  ( 1.036969957636410670E-14, -3.637200993467639600E-16, 2.970000000000000639 ) ) ;
#211 = ADVANCED_FACE ( 'NONE', ( #209 ), #185, .F. ) ;
#212 = APPROVAL_ROLE ( '' ) ;
#213 = CIRCLE ( 'NONE', #117, 1.999999999999997780 ) ;
#214 = APPROVAL_PERSON_ORGANIZATION ( #48, #27, #212 ) ;
#215 = APPROVAL_STATUS ( 'not_yet_approved' ) ;
#216 = CC_DESIGN_PERSON_AND_ORGANIZATION_ASSIGNMENT ( #266, #50, ( #300 ) ) ;
#217 = ORIENTED_EDGE ( 'NONE', *, *, #236, .F. ) ;
#218 = APPROVAL_DATE_TIME ( #132, #267 ) ;
#219 = ORIENTED_EDGE ( 'NONE', *, *, #262, .T. ) ;
#220 = EDGE_LOOP ( 'NONE', ( #295 ) ) ;
#221 = APPROVAL_DATE_TIME ( #200, #130 ) ;
#222 = EDGE_LOOP ( 'NONE', ( #268 ) ) ;
#223 = APPROVAL_PERSON_ORGANIZATION ( #140, #130, #320 ) ;
#224 = AXIS2_PLACEMENT_3D ( 'NONE', #71, #11, #19 ) ;
#225 = PRODUCT_DEFINITION_FORMATION_WITH_SPECIFIED_SOURCE ( 'ANY', '', #181, .NOT_KNOWN. ) ;
#226 = DIRECTION ( 'NONE',  ( 3.491481338843133355E-15, -1.224646799147353207E-16, 1.000000000000000000 ) ) ;
#227 = PERSON ( 'UNSPECIFIED', 'UNSPECIFIED', 'UNSPECIFIED', ('UNSPECIFIED'), ('UNSPECIFIED'), ('UNSPECIFIED') ) ;
#228 = DIRECTION ( 'NONE',  ( 4.275831445896958607E-31, 1.000000000000000000, 1.224646799147353207E-16 ) ) ;
#229 = DIRECTION ( 'NONE',  ( 0.0000000000000000000, -1.000000000000000000, 0.0000000000000000000 ) ) ;
#230 = CIRCLE ( 'NONE', #49, 0.4489692899384953861 ) ;
#231 = DIRECTION ( 'NONE',  ( -3.491481338843133355E-15, 1.224646799147353207E-16, -1.000000000000000000 ) ) ;
#232 = CARTESIAN_POINT ( 'NONE',  ( 1.326762908760390423E-13, 1.199807826129477602E-32, 38.00000000000000000 ) ) ;
#233 = PLANE ( 'NONE',  #101 ) ;
#234 = AXIS2_PLACEMENT_3D ( 'NONE', #307, #183, #37 ) ;
#235 = CARTESIAN_POINT ( 'NONE',  ( 6.284666409917640040E-15, -2.204364238465235576E-16, 1.800000000000000044 ) ) ;
#236 = EDGE_CURVE ( 'NONE', #309, #309, #342, .T. ) ;
#237 = COORDINATED_UNIVERSAL_TIME_OFFSET ( 1, 0, .AHEAD. ) ;
#238 = CIRCLE ( 'NONE', #158, 0.3999999999999999667 ) ;
#239 = LOCAL_TIME ( 11, 14, 49.00000000000000000, #237 ) ;
#240 = DATE_AND_TIME ( #166, #239 ) ;
#241 = CALENDAR_DATE ( 2021, 13, 12 ) ;
#242 = EDGE_LOOP ( 'NONE', ( #4 ) ) ;
#243 = SECURITY_CLASSIFICATION_LEVEL ( 'unclassified' ) ;
#244 = EDGE_LOOP ( 'NONE', ( #114 ) ) ;
#245 = AXIS2_PLACEMENT_3D ( 'NONE', #96, #70, #156 ) ;
#246 = CC_DESIGN_APPROVAL ( #130, ( #53 ) ) ;
#247 = DIRECTION ( 'NONE',  ( -3.491481338843133355E-15, 1.224646799147353207E-16, -1.000000000000000000 ) ) ;
#248 = CARTESIAN_POINT ( 'NONE',  ( 1.326762908760390423E-13, -4.653657836759941941E-15, 38.00000000000000000 ) ) ;
#249 = ORIENTED_EDGE ( 'NONE', *, *, #306, .F. ) ;
#250 = DATE_AND_TIME ( #145, #164 ) ;
#251 = AXIS2_PLACEMENT_3D ( 'NONE', #210, #46, #99 ) ;
#252 = CYLINDRICAL_SURFACE ( 'NONE', #24, 1.959999999999999964 ) ;
#253 = PLANE ( 'NONE',  #286 ) ;
#254 = FACE_OUTER_BOUND ( 'NONE', #56, .T. ) ;
#255 = CIRCLE ( 'NONE', #104, 0.3999999999999999667 ) ;
#256 = DIRECTION ( 'NONE',  ( -3.491481338843133355E-15, 1.224646799147353207E-16, -1.000000000000000000 ) ) ;
#257 = DIRECTION ( 'NONE',  ( 0.0000000000000000000, 1.000000000000000000, 0.0000000000000000000 ) ) ;
#258 = FACE_BOUND ( 'NONE', #242, .T. ) ;
#259 = VERTEX_POINT ( 'NONE', #178 ) ;
#260 = CARTESIAN_POINT ( 'NONE',  ( 8.379555213223518475E-15, -2.939152317953647106E-16, 2.399999999999999911 ) ) ;
#261 = VERTEX_POINT ( 'NONE', #332 ) ;
#262 = EDGE_CURVE ( 'NONE', #184, #184, #170, .T. ) ;
#263 = CIRCLE ( 'NONE', #152, 0.4783089375244203301 ) ;
#264 = APPLICATION_PROTOCOL_DEFINITION ( 'international standard', 'config_control_design', 1994, #283 ) ;
#265 = MANIFOLD_SOLID_BREP ( 'Corps-Déplacer/Copier1[2]', #65 ) ;
#266 = PERSON_AND_ORGANIZATION ( #227, #173 ) ;
#267 = APPROVAL ( #215, 'UNSPECIFIED' ) ;
#268 = ORIENTED_EDGE ( 'NONE', *, *, #107, .F. ) ;
#269 = COORDINATED_UNIVERSAL_TIME_OFFSET ( 1, 0, .AHEAD. ) ;
#270 = ADVANCED_FACE ( 'NONE', ( #120 ), #87, .T. ) ;
#271 = EDGE_LOOP ( 'NONE', ( #112 ) ) ;
#272 = EDGE_LOOP ( 'NONE', ( #217 ) ) ;
#273 = TOROIDAL_SURFACE ( 'NONE', #234, 2.400000000000000355, 2.000000000000000000 ) ;
#274 = DIRECTION ( 'NONE',  ( -3.491481338843133355E-15, 1.224646799147353207E-16, -1.000000000000000000 ) ) ;
#275 = EDGE_CURVE ( 'NONE', #259, #259, #213, .T. ) ;
#276 = FACE_OUTER_BOUND ( 'NONE', #58, .T. ) ;
#277 = SHAPE_DEFINITION_REPRESENTATION ( #126, #167 ) ;
#278 = AXIS2_PLACEMENT_3D ( 'NONE', #172, #302, #72 ) ;
#279 = FACE_OUTER_BOUND ( 'NONE', #299, .T. ) ;
#280 = CARTESIAN_POINT ( 'NONE',  ( 2.779215038672983719E-14, 1.959999999999998632, 7.959988236952307616 ) ) ;
#281 = FACE_BOUND ( 'NONE', #194, .T. ) ;
#282 = VERTEX_POINT ( 'NONE', #40 ) ;
#283 = APPLICATION_CONTEXT ( 'configuration controlled 3d designs of mechanical parts and assemblies' ) ;
#284 = CARTESIAN_POINT ( 'NONE',  ( 1.326762908760390423E-13, -4.653657836759941941E-15, 38.00000000000000000 ) ) ;
#285 = VERTEX_POINT ( 'NONE', #38 ) ;
#286 = AXIS2_PLACEMENT_3D ( 'NONE', #304, #174, #42 ) ;
#287 = FACE_OUTER_BOUND ( 'NONE', #90, .T. ) ;
#288 = CARTESIAN_POINT ( 'NONE',  ( 6.284666409917640040E-15, 0.3999999999999997446, 1.800000000000000044 ) ) ;
#289 = CARTESIAN_POINT ( 'NONE',  ( -7.483071192938671135E-32, 2.624708052216182667E-33, -2.143236771650084449E-17 ) ) ;
#290 = PERSON_AND_ORGANIZATION ( #227, #173 ) ;
#291 = CONICAL_SURFACE ( 'NONE', #324, 1.599999999999997646, 0.7853981633974516097 ) ;
#292 = ADVANCED_FACE ( 'NONE', ( #258, #326 ), #67, .F. ) ;
#293 = APPLICATION_CONTEXT ( 'configuration controlled 3d designs of mechanical parts and assemblies' ) ;
#294 = DATE_AND_TIME ( #81, #330 ) ;
#295 = ORIENTED_EDGE ( 'NONE', *, *, #146, .T. ) ;
#296 = PERSON_AND_ORGANIZATION ( #227, #173 ) ;
#297 = ORIENTED_EDGE ( 'NONE', *, *, #306, .T. ) ;
#298 = ORIENTED_EDGE ( 'NONE', *, *, #107, .T. ) ;
#299 = EDGE_LOOP ( 'NONE', ( #30 ) ) ;
#300 = PRODUCT_DEFINITION ( 'UNKNOWN', '', #225, #79 ) ;
#301 = DIRECTION ( 'NONE',  ( 0.0000000000000000000, 1.000000000000000000, 0.0000000000000000000 ) ) ;
#302 = DIRECTION ( 'NONE',  ( -3.491481338843133355E-15, 1.224646799147353207E-16, -1.000000000000000000 ) ) ;
#303 = EDGE_CURVE ( 'NONE', #282, #282, #182, .T. ) ;
#304 = CARTESIAN_POINT ( 'NONE',  ( 6.284666409917640040E-15, 2.999519565323711795E-33, 1.800000000000000044 ) ) ;
#305 = DIRECTION ( 'NONE',  ( 3.491481338843133355E-15, -1.224646799147353207E-16, 1.000000000000000000 ) ) ;
#306 = EDGE_CURVE ( 'NONE', #151, #151, #255, .T. ) ;
#307 = CARTESIAN_POINT ( 'NONE',  ( 8.379555213223518475E-15, -4.336808689942017736E-16, 2.399999999999999911 ) ) ;
#308 = DIRECTION ( 'NONE',  ( -3.491481338843133355E-15, 1.224646799147353207E-16, -1.000000000000000000 ) ) ;
#309 = VERTEX_POINT ( 'NONE', #95 ) ;
#310 = CONICAL_SURFACE ( 'NONE', #251, 0.4783089375244203301, 0.2217440814658746262 ) ;
#311 = DIRECTION ( 'NONE',  ( -3.491481338843133355E-15, 1.224646799147353207E-16, -1.000000000000000000 ) ) ;
#312 = VERTEX_POINT ( 'NONE', #288 ) ;
#313 = ADVANCED_FACE ( 'NONE', ( #180, #129 ), #208, .T. ) ;
#314 = FACE_OUTER_BOUND ( 'NONE', #54, .T. ) ;
#315 = DIRECTION ( 'NONE',  ( 0.0000000000000000000, 0.0000000000000000000, 1.000000000000000000 ) ) ;
#316 = PERSON_AND_ORGANIZATION_ROLE ( 'design_owner' ) ;
#317 = DIRECTION ( 'NONE',  ( 3.491481338843133355E-15, -1.224646799147353207E-16, 1.000000000000000000 ) ) ;
#318 = AXIS2_PLACEMENT_3D ( 'NONE', #106, #315, #191 ) ;
#319 = ADVANCED_FACE ( 'NONE', ( #44, #314 ), #310, .T. ) ;
#320 = APPROVAL_ROLE ( '' ) ;
#321 = EDGE_LOOP ( 'NONE', ( #199 ) ) ;
#322 = ORIENTED_EDGE ( 'NONE', *, *, #146, .F. ) ;
#323 = EDGE_LOOP ( 'NONE', ( #298 ) ) ;
#324 = AXIS2_PLACEMENT_3D ( 'NONE', #284, #231, #301 ) ;
#325 = DIRECTION ( 'NONE',  ( -4.275831445896958607E-31, -1.000000000000000000, -1.224646799147353207E-16 ) ) ;
#326 = FACE_OUTER_BOUND ( 'NONE', #323, .T. ) ;
#327 = CYLINDRICAL_SURFACE ( 'NONE', #278, 0.3999999999999999667 ) ;
#328 = AXIS2_PLACEMENT_3D ( 'NONE', #248, #247, #31 ) ;
#329 = VERTEX_POINT ( 'NONE', #127 ) ;
#330 = LOCAL_TIME ( 11, 14, 49.00000000000000000, #269 ) ;
#331 = CYLINDRICAL_SURFACE ( 'NONE', #245, 1.999999999999997335 ) ;
#332 = CARTESIAN_POINT ( 'NONE',  ( 1.036969957636410670E-14, 0.4783089375244199415, 2.970000000000000639 ) ) ;
#333 = FACE_BOUND ( 'NONE', #321, .T. ) ;
#334 = VERTEX_POINT ( 'NONE', #123 ) ;
#335 = DIRECTION ( 'NONE',  ( 0.0000000000000000000, 1.000000000000000000, 0.0000000000000000000 ) ) ;
#336 = DIRECTION ( 'NONE',  ( -3.491481338843133355E-15, 1.224646799147353207E-16, -1.000000000000000000 ) ) ;
#337 = UNCERTAINTY_MEASURE_WITH_UNIT (LENGTH_MEASURE( 1.000000000000000082E-05 ), #14, 'distance_accuracy_value', 'NONE');
#338 = DATE_TIME_ROLE ( 'creation_date' ) ;
#339 = EDGE_LOOP ( 'NONE', ( #165 ) ) ;
#340 = PERSON_AND_ORGANIZATION ( #227, #173 ) ;
#341 = CARTESIAN_POINT ( 'NONE',  ( -1.496614238587734227E-31, 5.249416104432365335E-33, -4.286473543300168898E-17 ) ) ;
#342 = CIRCLE ( 'NONE', #89, 0.3999999999999997446 ) ;
#343 = AXIS2_PLACEMENT_3D ( 'NONE', #202, #256, #147 ) ;
ENDSEC;
END-ISO-10303-21;
