ISO-10303-21;
HEADER;
FILE_DESCRIPTION (( 'STEP AP203' ),
    '1' );
FILE_NAME ('388779.step',
    '2021-12-13T10:14:49',
    ( '' ),
    ( '' ),
    'SwSTEP 2.0',
    'SolidWorks 2019',
    '' );
FILE_SCHEMA (( 'CONFIG_CONTROL_DESIGN' ));
ENDSEC;

DATA;
#1 = VERTEX_POINT ( 'NONE', #105 ) ;
#2 = VERTEX_POINT ( 'NONE', #7 ) ;
#3 = FACE_OUTER_BOUND ( 'NONE', #260, .T. ) ;
#4 = DIRECTION ( 'NONE',  ( 3.491481338843133355E-15, -1.224646799147353207E-16, 1.000000000000000000 ) ) ;
#5 = EDGE_LOOP ( 'NONE', ( #63 ) ) ;
#6 = AXIS2_PLACEMENT_3D ( 'NONE', #332, #96, #202 ) ;
#7 = CARTESIAN_POINT ( 'NONE',  ( 1.012529588264508515E-14, 0.4801627671755358540, 2.899999999999999911 ) ) ;
#8 = ORIENTED_EDGE ( 'NONE', *, *, #236, .T. ) ;
#9 = APPLICATION_PROTOCOL_DEFINITION ( 'international standard', 'config_control_design', 1994, #166 ) ;
#10 = PRODUCT_RELATED_PRODUCT_CATEGORY ( 'detail', '', ( #75 ) ) ;
#11 = COORDINATED_UNIVERSAL_TIME_OFFSET ( 1, 0, .AHEAD. ) ;
#12 = PERSON_AND_ORGANIZATION ( #314, #238 ) ;
#13 = TOROIDAL_SURFACE ( 'NONE', #181, 2.350000000000000089, 2.000000000000000000 ) ;
#14 = PERSON_AND_ORGANIZATION_ROLE ( 'design_supplier' ) ;
#15 = ORIENTED_EDGE ( 'NONE', *, *, #281, .T. ) ;
#16 = APPLICATION_PROTOCOL_DEFINITION ( 'international standard', 'config_control_design', 1994, #276 ) ;
#17 = EDGE_LOOP ( 'NONE', ( #291 ) ) ;
#18 = AXIS2_PLACEMENT_3D ( 'NONE', #121, #331, #250 ) ;
#19 = ADVANCED_FACE ( 'NONE', ( #189 ), #219, .F. ) ;
#20 = DIRECTION ( 'NONE',  ( 4.336878099697555372E-31, 1.000000000000000000, 1.224646799147353207E-16 ) ) ;
#21 = DIRECTION ( 'NONE',  ( -3.491481338843133355E-15, 1.224646799147353207E-16, -1.000000000000000000 ) ) ;
#22 = DIRECTION ( 'NONE',  ( -4.275831445896958607E-31, -1.000000000000000000, -1.224646799147353207E-16 ) ) ;
#23 =( GEOMETRIC_REPRESENTATION_CONTEXT ( 3 ) GLOBAL_UNCERTAINTY_ASSIGNED_CONTEXT ( ( #92 ) ) GLOBAL_UNIT_ASSIGNED_CONTEXT ( ( #209, #271, #266 ) ) REPRESENTATION_CONTEXT ( 'NONE', 'WORKASPACE' ) );
#24 = DIRECTION ( 'NONE',  ( -3.491481338843133355E-15, 1.224646799147353207E-16, -1.000000000000000000 ) ) ;
#25 = FACE_BOUND ( 'NONE', #265, .T. ) ;
#26 = VERTEX_POINT ( 'NONE', #129 ) ;
#27 = AXIS2_PLACEMENT_3D ( 'NONE', #100, #151, #203 ) ;
#28 = EDGE_CURVE ( 'NONE', #183, #183, #270, .T. ) ;
#29 = DIRECTION ( 'NONE',  ( -3.491481338843133355E-15, 1.224646799147353207E-16, -1.000000000000000000 ) ) ;
#30 = CARTESIAN_POINT ( 'NONE',  ( 8.867883115280731413E-15, -3.110434689002166076E-16, 2.539862669928808714 ) ) ;
#31 = EDGE_LOOP ( 'NONE', ( #311 ) ) ;
#32 = VERTEX_POINT ( 'NONE', #135 ) ;
#33 = EDGE_LOOP ( 'NONE', ( #198 ) ) ;
#34 = APPROVAL ( #42, 'UNSPECIFIED' ) ;
#35 = CLOSED_SHELL ( 'NONE', ( #295, #79, #148, #154, #322, #112, #338, #214, #273, #297, #282 ) ) ;
#36 = CIRCLE ( 'NONE', #165, 0.3499999999999997558 ) ;
#37 = LOCAL_TIME ( 11, 14, 49.00000000000000000, #326 ) ;
#38 = EDGE_LOOP ( 'NONE', ( #94 ) ) ;
#39 = APPROVAL_DATE_TIME ( #267, #247 ) ;
#40 = PERSON_AND_ORGANIZATION ( #314, #238 ) ;
#41 = AXIS2_PLACEMENT_3D ( 'NONE', #78, #259, #341 ) ;
#42 = APPROVAL_STATUS ( 'not_yet_approved' ) ;
#43 = DIRECTION ( 'NONE',  ( 0.0000000000000000000, 1.000000000000000000, 0.0000000000000000000 ) ) ;
#44 = CARTESIAN_POINT ( 'NONE',  ( 1.012529588264508515E-14, -3.551475717527323832E-16, 2.899999999999999911 ) ) ;
#45 = EDGE_CURVE ( 'NONE', #131, #131, #230, .T. ) ;
#46 = CARTESIAN_POINT ( 'NONE',  ( 5.586370142149013368E-15, 2.624579619658247393E-33, 1.600000000000000089 ) ) ;
#47 = AXIS2_PLACEMENT_3D ( 'NONE', #149, #73, #172 ) ;
#48 = CARTESIAN_POINT ( 'NONE',  ( 3.281992458512545354E-14, 2.969524369670473466E-32, 9.400000000000000355 ) ) ;
#49 = DIRECTION ( 'NONE',  ( -3.491481338843133355E-15, 1.224646799147353207E-16, -1.000000000000000000 ) ) ;
#50 = FACE_OUTER_BOUND ( 'NONE', #262, .T. ) ;
#51 = AXIS2_PLACEMENT_3D ( 'NONE', #30, #313, #289 ) ;
#52 = LOCAL_TIME ( 11, 14, 49.00000000000000000, #67 ) ;
#53 = CARTESIAN_POINT ( 'NONE',  ( 1.012529588264508515E-14, 9.862141129320740351E-33, 2.899999999999999911 ) ) ;
#54 = CARTESIAN_POINT ( 'NONE',  ( 1.312796983405018142E-13, 1.999999999999993117, 37.60000000000000142 ) ) ;
#55 = ORIENTED_EDGE ( 'NONE', *, *, #255, .F. ) ;
#56 = EDGE_CURVE ( 'NONE', #188, #188, #174, .T. ) ;
#57 = PLANE ( 'NONE',  #316 ) ;
#58 = AXIS2_PLACEMENT_3D ( 'NONE', #101, #4, #213 ) ;
#59 = CARTESIAN_POINT ( 'NONE',  ( 0.0000000000000000000, 0.0000000000000000000, 0.0000000000000000000 ) ) ;
#60 = EDGE_LOOP ( 'NONE', ( #235 ) ) ;
#61 = CARTESIAN_POINT ( 'NONE',  ( 3.281992458512545354E-14, 1.959999999999998632, 9.400000000000000355 ) ) ;
#62 = CC_DESIGN_PERSON_AND_ORGANIZATION_ASSIGNMENT ( #269, #190, ( #308 ) ) ;
#63 = ORIENTED_EDGE ( 'NONE', *, *, #28, .F. ) ;
#64 = PERSON_AND_ORGANIZATION_ROLE ( 'creator' ) ;
#65 = AXIS2_PLACEMENT_3D ( 'NONE', #70, #145, #246 ) ;
#66 = DATE_TIME_ROLE ( 'creation_date' ) ;
#67 = COORDINATED_UNIVERSAL_TIME_OFFSET ( 1, 0, .AHEAD. ) ;
#68 = APPROVAL_DATE_TIME ( #296, #102 ) ;
#69 = DIRECTION ( 'NONE',  ( -4.275831445896958607E-31, -1.000000000000000000, -1.224646799147353207E-16 ) ) ;
#70 = CARTESIAN_POINT ( 'NONE',  ( 3.281992458512545354E-14, -1.151167991198511931E-15, 9.400000000000000355 ) ) ;
#71 = EDGE_CURVE ( 'NONE', #256, #256, #146, .T. ) ;
#72 = DIRECTION ( 'NONE',  ( 4.275831445896958607E-31, 1.000000000000000000, 1.224646799147353207E-16 ) ) ;
#73 = DIRECTION ( 'NONE',  ( -3.491481338843133355E-15, 1.224646799147353207E-16, -1.000000000000000000 ) ) ;
#74 = FACE_BOUND ( 'NONE', #184, .T. ) ;
#75 = PRODUCT ( '388779', '388779', '', ( #87 ) ) ;
#76 = CYLINDRICAL_SURFACE ( 'NONE', #211, 0.3499999999999998668 ) ;
#77 = CC_DESIGN_APPROVAL ( #34, ( #308 ) ) ;
#78 = CARTESIAN_POINT ( 'NONE',  ( 0.0000000000000000000, 0.0000000000000000000, 0.0000000000000000000 ) ) ;
#79 = ADVANCED_FACE ( 'NONE', ( #3, #305 ), #99, .T. ) ;
#80 = VERTEX_POINT ( 'NONE', #185 ) ;
#81 = DIRECTION ( 'NONE',  ( -4.275831445896958607E-31, -1.000000000000000000, -1.224646799147353207E-16 ) ) ;
#82 = EDGE_LOOP ( 'NONE', ( #192 ) ) ;
#83 = CONICAL_SURFACE ( 'NONE', #222, 1.959999999999999520, 0.2217440814658727943 ) ;
#84 = CARTESIAN_POINT ( 'NONE',  ( 2.754774669301081722E-14, 1.959999999999998632, 7.889988236952307332 ) ) ;
#85 = EDGE_LOOP ( 'NONE', ( #284 ) ) ;
#86 = ORIENTED_EDGE ( 'NONE', *, *, #71, .F. ) ;
#87 = MECHANICAL_CONTEXT ( 'NONE', #166, 'mechanical' ) ;
#88 = CIRCLE ( 'NONE', #125, 0.8349999999999998535 ) ;
#89 = EDGE_CURVE ( 'NONE', #26, #26, #294, .T. ) ;
#90 = CALENDAR_DATE ( 2021, 13, 12 ) ;
#91 = EDGE_LOOP ( 'NONE', ( #15 ) ) ;
#92 = UNCERTAINTY_MEASURE_WITH_UNIT (LENGTH_MEASURE( 1.000000000000000082E-05 ), #209, 'distance_accuracy_value', 'NONE');
#93 = CC_DESIGN_PERSON_AND_ORGANIZATION_ASSIGNMENT ( #139, #327, ( #75 ) ) ;
#94 = ORIENTED_EDGE ( 'NONE', *, *, #208, .T. ) ;
#95 = FACE_BOUND ( 'NONE', #221, .T. ) ;
#96 = DIRECTION ( 'NONE',  ( -3.491481338843133355E-15, 1.224646799147353207E-16, -1.000000000000000000 ) ) ;
#97 = CARTESIAN_POINT ( 'NONE',  ( 7.332110811570580046E-15, -4.336808689942017736E-16, 2.100000000000000089 ) ) ;
#98 = AXIS2_PLACEMENT_3D ( 'NONE', #128, #107, #229 ) ;
#99 = CYLINDRICAL_SURFACE ( 'NONE', #47, 0.3500000000000000333 ) ;
#100 = CARTESIAN_POINT ( 'NONE',  ( 7.332110811570581624E-15, -2.571758278209441957E-16, 2.100000000000000089 ) ) ;
#101 = CARTESIAN_POINT ( 'NONE',  ( 5.586370142149013368E-15, 2.624579619658247393E-33, 1.600000000000000089 ) ) ;
#102 = APPROVAL ( #138, 'UNSPECIFIED' ) ;
#103 = CONICAL_SURFACE ( 'NONE', #18, 0.4801627671755362425, 0.2217440814658732662 ) ;
#104 = AXIS2_PLACEMENT_3D ( 'NONE', #48, #251, #22 ) ;
#105 = CARTESIAN_POINT ( 'NONE',  ( 1.326762908760390423E-13, 1.599999999999993205, 38.00000000000000000 ) ) ;
#106 = EDGE_LOOP ( 'NONE', ( #162 ) ) ;
#107 = DIRECTION ( 'NONE',  ( -3.491481338843133355E-15, 1.224646799147353207E-16, -1.000000000000000000 ) ) ;
#108 = AXIS2_PLACEMENT_3D ( 'NONE', #171, #29, #233 ) ;
#109 = CARTESIAN_POINT ( 'NONE',  ( 1.326762908760390423E-13, 1.199807826129477602E-32, 38.00000000000000000 ) ) ;
#110 = EDGE_LOOP ( 'NONE', ( #86 ) ) ;
#111 = DATE_AND_TIME ( #144, #330 ) ;
#112 = ADVANCED_FACE ( 'NONE', ( #95, #306 ), #83, .T. ) ;
#113 = PERSON_AND_ORGANIZATION ( #314, #238 ) ;
#114 = COORDINATED_UNIVERSAL_TIME_OFFSET ( 1, 0, .AHEAD. ) ;
#115 = ORIENTED_EDGE ( 'NONE', *, *, #173, .T. ) ;
#116 = ADVANCED_FACE ( 'NONE', ( #223 ), #249, .T. ) ;
#117 = APPROVAL_DATE_TIME ( #111, #34 ) ;
#118 = ORIENTED_EDGE ( 'NONE', *, *, #173, .F. ) ;
#119 = CIRCLE ( 'NONE', #257, 0.3499999999999999778 ) ;
#120 = CC_DESIGN_APPROVAL ( #102, ( #343 ) ) ;
#121 = CARTESIAN_POINT ( 'NONE',  ( 1.012529588264508515E-14, -3.551475717527323832E-16, 2.899999999999999911 ) ) ;
#122 = CARTESIAN_POINT ( 'NONE',  ( 2.754774669301081722E-14, -9.662448839693912963E-16, 7.889988236952307332 ) ) ;
#123 = PLANE ( 'NONE',  #104 ) ;
#124 = CARTESIAN_POINT ( 'NONE',  ( 1.012529588264508515E-14, -3.551475717527323832E-16, 2.899999999999999911 ) ) ;
#125 = AXIS2_PLACEMENT_3D ( 'NONE', #44, #228, #339 ) ;
#126 = DIRECTION ( 'NONE',  ( 0.0000000000000000000, 1.000000000000000000, 0.0000000000000000000 ) ) ;
#127 = CC_DESIGN_DATE_AND_TIME_ASSIGNMENT ( #292, #167, ( #343 ) ) ;
#128 = CARTESIAN_POINT ( 'NONE',  ( 1.326762908760390423E-13, -4.653657836759941941E-15, 38.00000000000000000 ) ) ;
#129 = CARTESIAN_POINT ( 'NONE',  ( 7.332110811570581624E-15, 0.3499999999999997558, 2.100000000000000089 ) ) ;
#130 = AXIS2_PLACEMENT_3D ( 'NONE', #109, #180, #280 ) ;
#131 = VERTEX_POINT ( 'NONE', #84 ) ;
#132 = ORIENTED_EDGE ( 'NONE', *, *, #56, .T. ) ;
#133 = PLANE ( 'NONE',  #130 ) ;
#134 = ORIENTED_EDGE ( 'NONE', *, *, #45, .F. ) ;
#135 = CARTESIAN_POINT ( 'NONE',  ( 2.137183397710479182E-32, 0.3499999999999997558, 6.121136532892404794E-18 ) ) ;
#136 = CARTESIAN_POINT ( 'NONE',  ( 2.754774669301081722E-14, -9.662448839693912963E-16, 7.889988236952307332 ) ) ;
#137 = APPROVAL_PERSON_ORGANIZATION ( #220, #34, #141 ) ;
#138 = APPROVAL_STATUS ( 'not_yet_approved' ) ;
#139 = PERSON_AND_ORGANIZATION ( #314, #238 ) ;
#140 = EDGE_CURVE ( 'NONE', #207, #207, #119, .T. ) ;
#141 = APPROVAL_ROLE ( '' ) ;
#142 = APPROVAL_ROLE ( '' ) ;
#143 = ORIENTED_EDGE ( 'NONE', *, *, #268, .F. ) ;
#144 = CALENDAR_DATE ( 2021, 13, 12 ) ;
#145 = DIRECTION ( 'NONE',  ( -3.491481338843133355E-15, 1.224646799147353207E-16, -1.000000000000000000 ) ) ;
#146 = CIRCLE ( 'NONE', #108, 1.959999999999999964 ) ;
#147 = DIRECTION ( 'NONE',  ( -3.491481338843133355E-15, 1.224646799147353207E-16, -1.000000000000000000 ) ) ;
#148 = ADVANCED_FACE ( 'NONE', ( #307, #277 ), #13, .F. ) ;
#149 = CARTESIAN_POINT ( 'NONE',  ( 0.0000000000000000000, 0.0000000000000000000, 0.0000000000000000000 ) ) ;
#150 = FACE_BOUND ( 'NONE', #110, .T. ) ;
#151 = DIRECTION ( 'NONE',  ( -3.491481338843133355E-15, 1.224646799147353207E-16, -1.000000000000000000 ) ) ;
#152 = AXIS2_PLACEMENT_3D ( 'NONE', #253, #24, #126 ) ;
#153 = APPROVAL_PERSON_ORGANIZATION ( #217, #102, #241 ) ;
#154 = ADVANCED_FACE ( 'NONE', ( #74, #224 ), #103, .T. ) ;
#155 = FACE_OUTER_BOUND ( 'NONE', #31, .T. ) ;
#156 = CARTESIAN_POINT ( 'NONE',  ( 3.281992458512545354E-14, 1.999999999999995337, 9.400000000000000355 ) ) ;
#157 = ORIENTED_EDGE ( 'NONE', *, *, #208, .F. ) ;
#158 = CARTESIAN_POINT ( 'NONE',  ( 5.586370142149013368E-15, 0.3499999999999997558, 1.600000000000000089 ) ) ;
#159 = CIRCLE ( 'NONE', #51, 0.3989692899384948976 ) ;
#160 = ORIENTED_EDGE ( 'NONE', *, *, #255, .T. ) ;
#161 = FACE_OUTER_BOUND ( 'NONE', #187, .T. ) ;
#162 = ORIENTED_EDGE ( 'NONE', *, *, #28, .T. ) ;
#163 = DIRECTION ( 'NONE',  ( 1.000000000000000000, 0.0000000000000000000, 0.0000000000000000000 ) ) ;
#164 = EDGE_LOOP ( 'NONE', ( #8 ) ) ;
#165 = AXIS2_PLACEMENT_3D ( 'NONE', #176, #275, #178 ) ;
#166 = APPLICATION_CONTEXT ( 'configuration controlled 3d designs of mechanical parts and assemblies' ) ;
#167 = DATE_TIME_ROLE ( 'classification_date' ) ;
#168 = CALENDAR_DATE ( 2021, 13, 12 ) ;
#169 = CARTESIAN_POINT ( 'NONE',  ( 1.312796983405018142E-13, -4.604671964794047724E-15, 37.60000000000000142 ) ) ;
#170 = SHAPE_DEFINITION_REPRESENTATION ( #337, #333 ) ;
#171 = CARTESIAN_POINT ( 'NONE',  ( 3.281992458512545354E-14, -1.151167991198511931E-15, 9.400000000000000355 ) ) ;
#172 = DIRECTION ( 'NONE',  ( 4.275831445896958607E-31, 1.000000000000000000, 1.224646799147353207E-16 ) ) ;
#173 = EDGE_CURVE ( 'NONE', #231, #231, #286, .T. ) ;
#174 = CIRCLE ( 'NONE', #65, 1.999999999999996669 ) ;
#175 = CC_DESIGN_APPROVAL ( #247, ( #325 ) ) ;
#176 = CARTESIAN_POINT ( 'NONE',  ( -1.282822666292886647E-31, 4.499536213101437215E-33, -3.674150143726493034E-17 ) ) ;
#177 = DIRECTION ( 'NONE',  ( 0.0000000000000000000, 1.000000000000000000, 0.0000000000000000000 ) ) ;
#178 = DIRECTION ( 'NONE',  ( 4.275831445896958607E-31, 1.000000000000000000, 1.224646799147353207E-16 ) ) ;
#179 = ADVANCED_FACE ( 'NONE', ( #200, #303 ), #76, .T. ) ;
#180 = DIRECTION ( 'NONE',  ( -3.491481338843133355E-15, 1.224646799147353207E-16, -1.000000000000000000 ) ) ;
#181 = AXIS2_PLACEMENT_3D ( 'NONE', #97, #21, #20 ) ;
#182 = APPROVAL_PERSON_ORGANIZATION ( #12, #247, #142 ) ;
#183 = VERTEX_POINT ( 'NONE', #54 ) ;
#184 = EDGE_LOOP ( 'NONE', ( #319 ) ) ;
#185 = CARTESIAN_POINT ( 'NONE',  ( 8.867883115280731413E-15, 0.3989692899384946201, 2.539862669928808714 ) ) ;
#186 = PLANE ( 'NONE',  #58 ) ;
#187 = EDGE_LOOP ( 'NONE', ( #134 ) ) ;
#188 = VERTEX_POINT ( 'NONE', #156 ) ;
#189 = FACE_OUTER_BOUND ( 'NONE', #38, .T. ) ;
#190 = PERSON_AND_ORGANIZATION_ROLE ( 'creator' ) ;
#191 = CC_DESIGN_PERSON_AND_ORGANIZATION_ASSIGNMENT ( #40, #263, ( #343 ) ) ;
#192 = ORIENTED_EDGE ( 'NONE', *, *, #236, .F. ) ;
#193 = SECURITY_CLASSIFICATION_LEVEL ( 'unclassified' ) ;
#194 = CIRCLE ( 'NONE', #152, 1.599999999999997646 ) ;
#195 = DIRECTION ( 'NONE',  ( 0.0000000000000000000, 0.0000000000000000000, 1.000000000000000000 ) ) ;
#196 = CALENDAR_DATE ( 2021, 13, 12 ) ;
#197 = EDGE_LOOP ( 'NONE', ( #115 ) ) ;
#198 = ORIENTED_EDGE ( 'NONE', *, *, #89, .T. ) ;
#199 = DIRECTION ( 'NONE',  ( 0.0000000000000000000, -1.000000000000000000, 0.0000000000000000000 ) ) ;
#200 = FACE_OUTER_BOUND ( 'NONE', #245, .T. ) ;
#201 = AXIS2_PLACEMENT_3D ( 'NONE', #46, #336, #248 ) ;
#202 = DIRECTION ( 'NONE',  ( 0.0000000000000000000, 1.000000000000000000, 0.0000000000000000000 ) ) ;
#203 = DIRECTION ( 'NONE',  ( 0.0000000000000000000, 1.000000000000000000, 0.0000000000000000000 ) ) ;
#204 = FACE_OUTER_BOUND ( 'NONE', #328, .T. ) ;
#205 = FACE_OUTER_BOUND ( 'NONE', #60, .T. ) ;
#206 = EDGE_LOOP ( 'NONE', ( #55 ) ) ;
#207 = VERTEX_POINT ( 'NONE', #158 ) ;
#208 = EDGE_CURVE ( 'NONE', #32, #32, #36, .T. ) ;
#209 =( LENGTH_UNIT ( ) NAMED_UNIT ( * ) SI_UNIT ( .MILLI., .METRE. ) );
#210 = DIRECTION ( 'NONE',  ( 3.491481338843133355E-15, -1.224646799147353207E-16, 1.000000000000000000 ) ) ;
#211 = AXIS2_PLACEMENT_3D ( 'NONE', #302, #49, #72 ) ;
#212 = ORIENTED_EDGE ( 'NONE', *, *, #56, .F. ) ;
#213 = DIRECTION ( 'NONE',  ( -4.275831445896958607E-31, -1.000000000000000000, -1.224646799147353207E-16 ) ) ;
#214 = ADVANCED_FACE ( 'NONE', ( #150, #50 ), #123, .F. ) ;
#215 = CARTESIAN_POINT ( 'NONE',  ( -6.414113331464433235E-32, 2.249768106550718607E-33, -1.837075071863246517E-17 ) ) ;
#216 = DATE_AND_TIME ( #320, #309 ) ;
#217 = PERSON_AND_ORGANIZATION ( #314, #238 ) ;
#218 = CARTESIAN_POINT ( 'NONE',  ( 0.0000000000000000000, 0.0000000000000000000, 0.0000000000000000000 ) ) ;
#219 = PLANE ( 'NONE',  #299 ) ;
#220 = PERSON_AND_ORGANIZATION ( #314, #238 ) ;
#221 = EDGE_LOOP ( 'NONE', ( #143 ) ) ;
#222 = AXIS2_PLACEMENT_3D ( 'NONE', #122, #274, #199 ) ;
#223 = FACE_OUTER_BOUND ( 'NONE', #298, .T. ) ;
#224 = FACE_OUTER_BOUND ( 'NONE', #164, .T. ) ;
#225 = MANIFOLD_SOLID_BREP ( 'Corps-Déplacer/Copier1[1]', #35 ) ;
#226 = LOCAL_TIME ( 11, 14, 49.00000000000000000, #114 ) ;
#227 = DIRECTION ( 'NONE',  ( -3.491481338843133355E-15, 1.224646799147353207E-16, -1.000000000000000000 ) ) ;
#228 = DIRECTION ( 'NONE',  ( -3.491481338843133355E-15, 1.224646799147353207E-16, -1.000000000000000000 ) ) ;
#229 = DIRECTION ( 'NONE',  ( 0.0000000000000000000, 1.000000000000000000, 0.0000000000000000000 ) ) ;
#230 = CIRCLE ( 'NONE', #293, 1.959999999999999520 ) ;
#231 = VERTEX_POINT ( 'NONE', #258 ) ;
#232 = CARTESIAN_POINT ( 'NONE',  ( 1.012529588264508515E-14, 0.8349999999999995204, 2.899999999999999911 ) ) ;
#233 = DIRECTION ( 'NONE',  ( 0.0000000000000000000, 1.000000000000000000, 0.0000000000000000000 ) ) ;
#234 = FACE_OUTER_BOUND ( 'NONE', #197, .T. ) ;
#235 = ORIENTED_EDGE ( 'NONE', *, *, #71, .T. ) ;
#236 = EDGE_CURVE ( 'NONE', #2, #2, #342, .T. ) ;
#237 = CYLINDRICAL_SURFACE ( 'NONE', #335, 1.999999999999997335 ) ;
#238 = ORGANIZATION ( 'UNSPECIFIED', 'UNSPECIFIED', '' ) ;
#239 = CC_DESIGN_SECURITY_CLASSIFICATION ( #343, ( #325 ) ) ;
#240 = EDGE_LOOP ( 'NONE', ( #329 ) ) ;
#241 = APPROVAL_ROLE ( '' ) ;
#242 = PERSON_AND_ORGANIZATION ( #314, #238 ) ;
#243 = CC_DESIGN_PERSON_AND_ORGANIZATION_ASSIGNMENT ( #113, #14, ( #325 ) ) ;
#244 = CONICAL_SURFACE ( 'NONE', #98, 1.599999999999997646, 0.7853981633974516097 ) ;
#245 = EDGE_LOOP ( 'NONE', ( #157 ) ) ;
#246 = DIRECTION ( 'NONE',  ( 0.0000000000000000000, 1.000000000000000000, 0.0000000000000000000 ) ) ;
#247 = APPROVAL ( #323, 'UNSPECIFIED' ) ;
#248 = DIRECTION ( 'NONE',  ( -4.275831445896958607E-31, -1.000000000000000000, -1.224646799147353207E-16 ) ) ;
#249 = PLANE ( 'NONE',  #201 ) ;
#250 = DIRECTION ( 'NONE',  ( 0.0000000000000000000, -1.000000000000000000, 0.0000000000000000000 ) ) ;
#251 = DIRECTION ( 'NONE',  ( 3.491481338843133355E-15, -1.224646799147353207E-16, 1.000000000000000000 ) ) ;
#252 = AXIS2_PLACEMENT_3D ( 'NONE', #218, #195, #163 ) ;
#253 = CARTESIAN_POINT ( 'NONE',  ( 1.326762908760390423E-13, -4.653657836759941941E-15, 38.00000000000000000 ) ) ;
#254 = DIRECTION ( 'NONE',  ( -3.491481338843133355E-15, 1.224646799147353207E-16, -1.000000000000000000 ) ) ;
#255 = EDGE_CURVE ( 'NONE', #1, #1, #194, .T. ) ;
#256 = VERTEX_POINT ( 'NONE', #61 ) ;
#257 = AXIS2_PLACEMENT_3D ( 'NONE', #334, #147, #177 ) ;
#258 = CARTESIAN_POINT ( 'NONE',  ( 5.586370142149013368E-15, 0.3499999999999997558, 1.600000000000000089 ) ) ;
#259 = DIRECTION ( 'NONE',  ( -3.491481338843133355E-15, 1.224646799147353207E-16, -1.000000000000000000 ) ) ;
#260 = EDGE_LOOP ( 'NONE', ( #118 ) ) ;
#261 = CYLINDRICAL_SURFACE ( 'NONE', #41, 1.959999999999999964 ) ;
#262 = EDGE_LOOP ( 'NONE', ( #132 ) ) ;
#263 = PERSON_AND_ORGANIZATION_ROLE ( 'classification_officer' ) ;
#264 = AXIS2_PLACEMENT_3D ( 'NONE', #124, #227, #278 ) ;
#265 = EDGE_LOOP ( 'NONE', ( #160 ) ) ;
#266 =( NAMED_UNIT ( * ) SI_UNIT ( $, .STERADIAN. ) SOLID_ANGLE_UNIT ( ) );
#267 = DATE_AND_TIME ( #168, #52 ) ;
#268 = EDGE_CURVE ( 'NONE', #312, #312, #88, .T. ) ;
#269 = PERSON_AND_ORGANIZATION ( #314, #238 ) ;
#270 = CIRCLE ( 'NONE', #279, 1.999999999999997780 ) ;
#271 =( NAMED_UNIT ( * ) PLANE_ANGLE_UNIT ( ) SI_UNIT ( $, .RADIAN. ) );
#272 = DIRECTION ( 'NONE',  ( -3.491481338843133355E-15, 1.224646799147353207E-16, -1.000000000000000000 ) ) ;
#273 = ADVANCED_FACE ( 'NONE', ( #204, #287 ), #237, .T. ) ;
#274 = DIRECTION ( 'NONE',  ( 3.491481338843133355E-15, -1.224646799147353207E-16, 1.000000000000000000 ) ) ;
#275 = DIRECTION ( 'NONE',  ( -3.491481338843133355E-15, 1.224646799147353207E-16, -1.000000000000000000 ) ) ;
#276 = APPLICATION_CONTEXT ( 'configuration controlled 3d designs of mechanical parts and assemblies' ) ;
#277 = FACE_OUTER_BOUND ( 'NONE', #17, .T. ) ;
#278 = DIRECTION ( 'NONE',  ( 0.0000000000000000000, 1.000000000000000000, 0.0000000000000000000 ) ) ;
#279 = AXIS2_PLACEMENT_3D ( 'NONE', #169, #288, #301 ) ;
#280 = DIRECTION ( 'NONE',  ( 4.275831445896958607E-31, 1.000000000000000000, 1.224646799147353207E-16 ) ) ;
#281 = EDGE_CURVE ( 'NONE', #80, #80, #159, .T. ) ;
#282 = ADVANCED_FACE ( 'NONE', ( #317 ), #133, .F. ) ;
#283 = FACE_OUTER_BOUND ( 'NONE', #5, .T. ) ;
#284 = ORIENTED_EDGE ( 'NONE', *, *, #45, .T. ) ;
#285 = DIRECTION ( 'NONE',  ( 4.275831445896959482E-31, 1.000000000000000000, 1.224646799147353454E-16 ) ) ;
#286 = CIRCLE ( 'NONE', #6, 0.3499999999999999778 ) ;
#287 = FACE_OUTER_BOUND ( 'NONE', #106, .T. ) ;
#288 = DIRECTION ( 'NONE',  ( -3.491481338843133355E-15, 1.224646799147353207E-16, -1.000000000000000000 ) ) ;
#289 = DIRECTION ( 'NONE',  ( 0.0000000000000000000, 1.000000000000000000, 0.0000000000000000000 ) ) ;
#290 = COORDINATED_UNIVERSAL_TIME_OFFSET ( 1, 0, .AHEAD. ) ;
#291 = ORIENTED_EDGE ( 'NONE', *, *, #89, .F. ) ;
#292 = DATE_AND_TIME ( #90, #226 ) ;
#293 = AXIS2_PLACEMENT_3D ( 'NONE', #136, #272, #43 ) ;
#294 = CIRCLE ( 'NONE', #27, 0.3500000000000000333 ) ;
#295 = ADVANCED_FACE ( 'NONE', ( #234 ), #186, .F. ) ;
#296 = DATE_AND_TIME ( #196, #37 ) ;
#297 = ADVANCED_FACE ( 'NONE', ( #283, #25 ), #244, .T. ) ;
#298 = EDGE_LOOP ( 'NONE', ( #315 ) ) ;
#299 = AXIS2_PLACEMENT_3D ( 'NONE', #215, #318, #69 ) ;
#300 = DESIGN_CONTEXT ( 'detailed design', #276, 'design' ) ;
#301 = DIRECTION ( 'NONE',  ( 0.0000000000000000000, 1.000000000000000000, 0.0000000000000000000 ) ) ;
#302 = CARTESIAN_POINT ( 'NONE',  ( 0.0000000000000000000, 0.0000000000000000000, 0.0000000000000000000 ) ) ;
#303 = FACE_OUTER_BOUND ( 'NONE', #240, .T. ) ;
#304 = CC_DESIGN_DATE_AND_TIME_ASSIGNMENT ( #216, #66, ( #308 ) ) ;
#305 = FACE_OUTER_BOUND ( 'NONE', #33, .T. ) ;
#306 = FACE_OUTER_BOUND ( 'NONE', #85, .T. ) ;
#307 = FACE_OUTER_BOUND ( 'NONE', #91, .T. ) ;
#308 = PRODUCT_DEFINITION ( 'UNKNOWN', '', #325, #300 ) ;
#309 = LOCAL_TIME ( 11, 14, 49.00000000000000000, #290 ) ;
#310 = FACE_BOUND ( 'NONE', #82, .T. ) ;
#311 = ORIENTED_EDGE ( 'NONE', *, *, #268, .T. ) ;
#312 = VERTEX_POINT ( 'NONE', #232 ) ;
#313 = DIRECTION ( 'NONE',  ( -3.491481338843133355E-15, 1.224646799147353207E-16, -1.000000000000000000 ) ) ;
#314 = PERSON ( 'UNSPECIFIED', 'UNSPECIFIED', 'UNSPECIFIED', ('UNSPECIFIED'), ('UNSPECIFIED'), ('UNSPECIFIED') ) ;
#315 = ORIENTED_EDGE ( 'NONE', *, *, #140, .F. ) ;
#316 = AXIS2_PLACEMENT_3D ( 'NONE', #53, #210, #81 ) ;
#317 = FACE_OUTER_BOUND ( 'NONE', #206, .T. ) ;
#318 = DIRECTION ( 'NONE',  ( 3.491481338843133355E-15, -1.224646799147353207E-16, 1.000000000000000000 ) ) ;
#319 = ORIENTED_EDGE ( 'NONE', *, *, #281, .F. ) ;
#320 = CALENDAR_DATE ( 2021, 13, 12 ) ;
#321 = CC_DESIGN_PERSON_AND_ORGANIZATION_ASSIGNMENT ( #242, #64, ( #325 ) ) ;
#322 = ADVANCED_FACE ( 'NONE', ( #310, #155 ), #57, .F. ) ;
#323 = APPROVAL_STATUS ( 'not_yet_approved' ) ;
#324 = CLOSED_SHELL ( 'NONE', ( #19, #179, #116 ) ) ;
#325 = PRODUCT_DEFINITION_FORMATION_WITH_SPECIFIED_SOURCE ( 'ANY', '', #75, .NOT_KNOWN. ) ;
#326 = COORDINATED_UNIVERSAL_TIME_OFFSET ( 1, 0, .AHEAD. ) ;
#327 = PERSON_AND_ORGANIZATION_ROLE ( 'design_owner' ) ;
#328 = EDGE_LOOP ( 'NONE', ( #212 ) ) ;
#329 = ORIENTED_EDGE ( 'NONE', *, *, #140, .T. ) ;
#330 = LOCAL_TIME ( 11, 14, 49.00000000000000000, #11 ) ;
#331 = DIRECTION ( 'NONE',  ( 3.491481338843133355E-15, -1.224646799147353207E-16, 1.000000000000000000 ) ) ;
#332 = CARTESIAN_POINT ( 'NONE',  ( 5.586370142149013368E-15, -1.959434878635765230E-16, 1.600000000000000089 ) ) ;
#333 = ADVANCED_BREP_SHAPE_REPRESENTATION ( '388779', ( #225, #340, #252 ), #23 ) ;
#334 = CARTESIAN_POINT ( 'NONE',  ( 5.586370142149013368E-15, -1.959434878635765230E-16, 1.600000000000000089 ) ) ;
#335 = AXIS2_PLACEMENT_3D ( 'NONE', #59, #254, #285 ) ;
#336 = DIRECTION ( 'NONE',  ( 3.491481338843133355E-15, -1.224646799147353207E-16, 1.000000000000000000 ) ) ;
#337 = PRODUCT_DEFINITION_SHAPE ( 'NONE', 'NONE',  #308 ) ;
#338 = ADVANCED_FACE ( 'NONE', ( #161, #205 ), #261, .T. ) ;
#339 = DIRECTION ( 'NONE',  ( 0.0000000000000000000, 1.000000000000000000, 0.0000000000000000000 ) ) ;
#340 = MANIFOLD_SOLID_BREP ( 'Corps-Déplacer/Copier1[2]', #324 ) ;
#341 = DIRECTION ( 'NONE',  ( 4.275831445896958607E-31, 1.000000000000000000, 1.224646799147353207E-16 ) ) ;
#342 = CIRCLE ( 'NONE', #264, 0.4801627671755362425 ) ;
#343 = SECURITY_CLASSIFICATION ( '', '', #193 ) ;
ENDSEC;
END-ISO-10303-21;
