ISO-10303-21;
HEADER;
FILE_DESCRIPTION (( 'STEP AP203' ),
    '1' );
FILE_NAME ('388778.step',
    '2021-12-13T10:14:48',
    ( '' ),
    ( '' ),
    'SwSTEP 2.0',
    'SolidWorks 2019',
    '' );
FILE_SCHEMA (( 'CONFIG_CONTROL_DESIGN' ));
ENDSEC;

DATA;
#1 = CARTESIAN_POINT ( 'NONE',  ( 1.326762908760390423E-13, 1.599999999999993205, 38.00000000000000000 ) ) ;
#2 = DIRECTION ( 'NONE',  ( 0.0000000000000000000, 1.000000000000000000, 0.0000000000000000000 ) ) ;
#3 = DIRECTION ( 'NONE',  ( -3.491481338843133355E-15, 1.224646799147353207E-16, -1.000000000000000000 ) ) ;
#4 = CARTESIAN_POINT ( 'NONE',  ( 9.776147748760773395E-15, -3.429011037612588783E-16, 2.799999999999999822 ) ) ;
#5 = EDGE_LOOP ( 'NONE', ( #109 ) ) ;
#6 = MANIFOLD_SOLID_BREP ( 'Corps-Déplacer/Copier1[1]', #34 ) ;
#7 = DIRECTION ( 'NONE',  ( -3.491481338843133355E-15, 1.224646799147353207E-16, -1.000000000000000000 ) ) ;
#8 = EDGE_LOOP ( 'NONE', ( #250 ) ) ;
#9 = APPLICATION_CONTEXT ( 'configuration controlled 3d designs of mechanical parts and assemblies' ) ;
#10 = ADVANCED_FACE ( 'NONE', ( #151, #293 ), #17, .T. ) ;
#11 = APPROVAL_ROLE ( '' ) ;
#12 =( NAMED_UNIT ( * ) PLANE_ANGLE_UNIT ( ) SI_UNIT ( $, .RADIAN. ) );
#13 = CIRCLE ( 'NONE', #132, 0.2999999999999998224 ) ;
#14 = DATE_AND_TIME ( #274, #299 ) ;
#15 = ORIENTED_EDGE ( 'NONE', *, *, #245, .T. ) ;
#16 = APPROVAL_STATUS ( 'not_yet_approved' ) ;
#17 = CYLINDRICAL_SURFACE ( 'NONE', #67, 1.959999999999999964 ) ;
#18 = FACE_OUTER_BOUND ( 'NONE', #86, .T. ) ;
#19 = CIRCLE ( 'NONE', #343, 0.2999999999999999889 ) ;
#20 = ADVANCED_FACE ( 'NONE', ( #70, #174 ), #165, .T. ) ;
#21 = DIRECTION ( 'NONE',  ( -3.491481338843133355E-15, 1.224646799147353207E-16, -1.000000000000000000 ) ) ;
#22 = DIRECTION ( 'NONE',  ( -4.275831445896958607E-31, -1.000000000000000000, -1.224646799147353207E-16 ) ) ;
#23 = AXIS2_PLACEMENT_3D ( 'NONE', #334, #200, #22 ) ;
#24 = DIRECTION ( 'NONE',  ( -3.491481338843133355E-15, 1.224646799147353207E-16, -1.000000000000000000 ) ) ;
#25 = PLANE ( 'NONE',  #149 ) ;
#26 = CARTESIAN_POINT ( 'NONE',  ( 7.820438713627792984E-15, -2.743040649257959941E-16, 2.239862669928808447 ) ) ;
#27 = VERTEX_POINT ( 'NONE', #1 ) ;
#28 = CARTESIAN_POINT ( 'NONE',  ( 0.0000000000000000000, 0.0000000000000000000, 0.0000000000000000000 ) ) ;
#29 = CARTESIAN_POINT ( 'NONE',  ( 2.137183397710479182E-32, 0.2999999999999998224, 6.121136532892404794E-18 ) ) ;
#30 = ORIENTED_EDGE ( 'NONE', *, *, #285, .F. ) ;
#31 = VERTEX_POINT ( 'NONE', #292 ) ;
#32 = FACE_BOUND ( 'NONE', #291, .T. ) ;
#33 = EDGE_CURVE ( 'NONE', #266, #266, #253, .T. ) ;
#34 = CLOSED_SHELL ( 'NONE', ( #238, #20, #191, #42, #326, #80, #10, #339, #181, #134, #273 ) ) ;
#35 =( GEOMETRIC_REPRESENTATION_CONTEXT ( 3 ) GLOBAL_UNCERTAINTY_ASSIGNED_CONTEXT ( ( #93 ) ) GLOBAL_UNIT_ASSIGNED_CONTEXT ( ( #143, #12, #301 ) ) REPRESENTATION_CONTEXT ( 'NONE', 'WORKASPACE' ) );
#36 = ORIENTED_EDGE ( 'NONE', *, *, #251, .F. ) ;
#37 = COORDINATED_UNIVERSAL_TIME_OFFSET ( 1, 0, .AHEAD. ) ;
#38 = DATE_AND_TIME ( #120, #88 ) ;
#39 = DATE_AND_TIME ( #327, #139 ) ;
#40 = EDGE_LOOP ( 'NONE', ( #166 ) ) ;
#41 = DIRECTION ( 'NONE',  ( 0.0000000000000000000, -1.000000000000000000, 0.0000000000000000000 ) ) ;
#42 = ADVANCED_FACE ( 'NONE', ( #32, #144 ), #257, .T. ) ;
#43 = EDGE_CURVE ( 'NONE', #137, #137, #197, .T. ) ;
#44 = DIRECTION ( 'NONE',  ( -3.491481338843133355E-15, 1.224646799147353207E-16, -1.000000000000000000 ) ) ;
#45 = CIRCLE ( 'NONE', #269, 0.2999999999999999889 ) ;
#46 = CARTESIAN_POINT ( 'NONE',  ( 2.719859855912650389E-14, -9.539984159779177421E-16, 7.789988236952307687 ) ) ;
#47 = FACE_BOUND ( 'NONE', #69, .T. ) ;
#48 = CARTESIAN_POINT ( 'NONE',  ( 9.776147748760773395E-15, -3.429011037612588783E-16, 2.799999999999999822 ) ) ;
#49 = ORGANIZATION ( 'UNSPECIFIED', 'UNSPECIFIED', '' ) ;
#50 = FACE_OUTER_BOUND ( 'NONE', #40, .T. ) ;
#51 = DIRECTION ( 'NONE',  ( -4.275831445896958607E-31, -1.000000000000000000, -1.224646799147353207E-16 ) ) ;
#52 = EDGE_LOOP ( 'NONE', ( #270 ) ) ;
#53 = CC_DESIGN_PERSON_AND_ORGANIZATION_ASSIGNMENT ( #216, #215, ( #95 ) ) ;
#54 = CARTESIAN_POINT ( 'NONE',  ( 1.312796983405018142E-13, 1.999999999999993117, 37.60000000000000142 ) ) ;
#55 = AXIS2_PLACEMENT_3D ( 'NONE', #342, #161, #114 ) ;
#56 = VERTEX_POINT ( 'NONE', #322 ) ;
#57 = ORIENTED_EDGE ( 'NONE', *, *, #286, .T. ) ;
#58 = VERTEX_POINT ( 'NONE', #29 ) ;
#59 = CC_DESIGN_PERSON_AND_ORGANIZATION_ASSIGNMENT ( #272, #247, ( #169 ) ) ;
#60 = DIRECTION ( 'NONE',  ( 0.0000000000000000000, 1.000000000000000000, 0.0000000000000000000 ) ) ;
#61 = PERSON_AND_ORGANIZATION_ROLE ( 'classification_officer' ) ;
#62 = AXIS2_PLACEMENT_3D ( 'NONE', #180, #21, #337 ) ;
#63 = SECURITY_CLASSIFICATION_LEVEL ( 'unclassified' ) ;
#64 = CARTESIAN_POINT ( 'NONE',  ( 0.0000000000000000000, 0.0000000000000000000, 0.0000000000000000000 ) ) ;
#65 = APPROVAL_DATE_TIME ( #116, #207 ) ;
#66 = PERSON_AND_ORGANIZATION ( #233, #49 ) ;
#67 = AXIS2_PLACEMENT_3D ( 'NONE', #87, #307, #331 ) ;
#68 = CC_DESIGN_APPROVAL ( #207, ( #95 ) ) ;
#69 = EDGE_LOOP ( 'NONE', ( #338 ) ) ;
#70 = FACE_OUTER_BOUND ( 'NONE', #211, .T. ) ;
#71 = EDGE_CURVE ( 'NONE', #27, #27, #305, .T. ) ;
#72 = CARTESIAN_POINT ( 'NONE',  ( 4.888073874380386697E-15, -1.714505518806294391E-16, 1.399999999999999911 ) ) ;
#73 = TOROIDAL_SURFACE ( 'NONE', #84, 2.300000000000000266, 2.000000000000000000 ) ;
#74 = DIRECTION ( 'NONE',  ( 4.275831445896959482E-31, 1.000000000000000000, 1.224646799147353454E-16 ) ) ;
#75 = CARTESIAN_POINT ( 'NONE',  ( 4.888073874380386697E-15, 2.249639673992784017E-33, 1.399999999999999911 ) ) ;
#76 = PRODUCT_DEFINITION_SHAPE ( 'NONE', 'NONE',  #169 ) ;
#77 = CARTESIAN_POINT ( 'NONE',  ( 0.0000000000000000000, 0.0000000000000000000, 0.0000000000000000000 ) ) ;
#78 = AXIS2_PLACEMENT_3D ( 'NONE', #103, #179, #133 ) ;
#79 = DIRECTION ( 'NONE',  ( 4.275831445896958607E-31, 1.000000000000000000, 1.224646799147353207E-16 ) ) ;
#80 = ADVANCED_FACE ( 'NONE', ( #99, #230 ), #240, .T. ) ;
#81 = CARTESIAN_POINT ( 'NONE',  ( 4.888073874380386697E-15, 0.2999999999999998224, 1.399999999999999911 ) ) ;
#82 = CARTESIAN_POINT ( 'NONE',  ( 7.820438713627792984E-15, 0.3489692899384952973, 2.239862669928808447 ) ) ;
#83 = EDGE_LOOP ( 'NONE', ( #163 ) ) ;
#84 = AXIS2_PLACEMENT_3D ( 'NONE', #226, #256, #314 ) ;
#85 = DIRECTION ( 'NONE',  ( -4.275831445896958607E-31, -1.000000000000000000, -1.224646799147353207E-16 ) ) ;
#86 = EDGE_LOOP ( 'NONE', ( #15 ) ) ;
#87 = CARTESIAN_POINT ( 'NONE',  ( 0.0000000000000000000, 0.0000000000000000000, 0.0000000000000000000 ) ) ;
#88 = LOCAL_TIME ( 11, 14, 48.00000000000000000, #325 ) ;
#89 = PERSON_AND_ORGANIZATION ( #233, #49 ) ;
#90 = PRODUCT_RELATED_PRODUCT_CATEGORY ( 'detail', '', ( #259 ) ) ;
#91 = APPLICATION_PROTOCOL_DEFINITION ( 'international standard', 'config_control_design', 1994, #129 ) ;
#92 = ORIENTED_EDGE ( 'NONE', *, *, #315, .F. ) ;
#93 = UNCERTAINTY_MEASURE_WITH_UNIT (LENGTH_MEASURE( 1.000000000000000082E-05 ), #143, 'distance_accuracy_value', 'NONE');
#94 = AXIS2_PLACEMENT_3D ( 'NONE', #212, #205, #79 ) ;
#95 = PRODUCT_DEFINITION_FORMATION_WITH_SPECIFIED_SOURCE ( 'ANY', '', #259, .NOT_KNOWN. ) ;
#96 = EDGE_CURVE ( 'NONE', #31, #31, #275, .T. ) ;
#97 = EDGE_LOOP ( 'NONE', ( #196 ) ) ;
#98 = DIRECTION ( 'NONE',  ( -3.491481338843133355E-15, 1.224646799147353207E-16, -1.000000000000000000 ) ) ;
#99 = FACE_BOUND ( 'NONE', #97, .T. ) ;
#100 = DIRECTION ( 'NONE',  ( -3.491481338843133355E-15, 1.224646799147353207E-16, -1.000000000000000000 ) ) ;
#101 = AXIS2_PLACEMENT_3D ( 'NONE', #75, #158, #156 ) ;
#102 = DIRECTION ( 'NONE',  ( 0.0000000000000000000, 1.000000000000000000, 0.0000000000000000000 ) ) ;
#103 = CARTESIAN_POINT ( 'NONE',  ( 3.247077645124114651E-14, -1.138921523207038574E-15, 9.300000000000000711 ) ) ;
#104 = DIRECTION ( 'NONE',  ( 3.491481338843133355E-15, -1.224646799147353207E-16, 1.000000000000000000 ) ) ;
#105 = APPROVAL ( #16, 'UNSPECIFIED' ) ;
#106 = AXIS2_PLACEMENT_3D ( 'NONE', #28, #3, #111 ) ;
#107 = APPROVAL_PERSON_ORGANIZATION ( #146, #155, #11 ) ;
#108 = VERTEX_POINT ( 'NONE', #81 ) ;
#109 = ORIENTED_EDGE ( 'NONE', *, *, #43, .F. ) ;
#110 = VERTEX_POINT ( 'NONE', #288 ) ;
#111 = DIRECTION ( 'NONE',  ( 4.275831445896958607E-31, 1.000000000000000000, 1.224646799147352961E-16 ) ) ;
#112 = FACE_BOUND ( 'NONE', #141, .T. ) ;
#113 = CIRCLE ( 'NONE', #283, 0.3000000000000000444 ) ;
#114 = DIRECTION ( 'NONE',  ( 0.0000000000000000000, 1.000000000000000000, 0.0000000000000000000 ) ) ;
#115 = CARTESIAN_POINT ( 'NONE',  ( 2.719859855912650389E-14, -9.539984159779177421E-16, 7.789988236952307687 ) ) ;
#116 = DATE_AND_TIME ( #242, #332 ) ;
#117 = APPROVAL_ROLE ( '' ) ;
#118 = CC_DESIGN_PERSON_AND_ORGANIZATION_ASSIGNMENT ( #66, #219, ( #95 ) ) ;
#119 = CLOSED_SHELL ( 'NONE', ( #303, #213, #136 ) ) ;
#120 = CALENDAR_DATE ( 2021, 13, 12 ) ;
#121 = EDGE_LOOP ( 'NONE', ( #57 ) ) ;
#122 = EDGE_CURVE ( 'NONE', #56, #56, #113, .T. ) ;
#123 = CALENDAR_DATE ( 2021, 13, 12 ) ;
#124 = ORIENTED_EDGE ( 'NONE', *, *, #43, .T. ) ;
#125 = SHAPE_DEFINITION_REPRESENTATION ( #76, #224 ) ;
#126 = APPROVAL_PERSON_ORGANIZATION ( #244, #105, #117 ) ;
#127 = DIRECTION ( 'NONE',  ( 0.0000000000000000000, 1.000000000000000000, 0.0000000000000000000 ) ) ;
#128 = CARTESIAN_POINT ( 'NONE',  ( 1.326762908760390423E-13, -4.653657836759941941E-15, 38.00000000000000000 ) ) ;
#129 = APPLICATION_CONTEXT ( 'configuration controlled 3d designs of mechanical parts and assemblies' ) ;
#130 = FACE_OUTER_BOUND ( 'NONE', #150, .T. ) ;
#131 = DIRECTION ( 'NONE',  ( 0.0000000000000000000, -1.000000000000000000, 0.0000000000000000000 ) ) ;
#132 = AXIS2_PLACEMENT_3D ( 'NONE', #225, #98, #228 ) ;
#133 = DIRECTION ( 'NONE',  ( 0.0000000000000000000, 1.000000000000000000, 0.0000000000000000000 ) ) ;
#134 = ADVANCED_FACE ( 'NONE', ( #154, #47 ), #138, .T. ) ;
#135 = CARTESIAN_POINT ( 'NONE',  ( 3.247077645124114651E-14, 2.969524369670473466E-32, 9.300000000000000711 ) ) ;
#136 = ADVANCED_FACE ( 'NONE', ( #312 ), #202, .T. ) ;
#137 = VERTEX_POINT ( 'NONE', #232 ) ;
#138 = CONICAL_SURFACE ( 'NONE', #152, 1.599999999999997646, 0.7853981633974516097 ) ;
#139 = LOCAL_TIME ( 11, 14, 48.00000000000000000, #329 ) ;
#140 = CARTESIAN_POINT ( 'NONE',  ( 9.776147748760773395E-15, 0.8349999999999995204, 2.799999999999999822 ) ) ;
#141 = EDGE_LOOP ( 'NONE', ( #187 ) ) ;
#142 = VERTEX_POINT ( 'NONE', #236 ) ;
#143 =( LENGTH_UNIT ( ) NAMED_UNIT ( * ) SI_UNIT ( .MILLI., .METRE. ) );
#144 = FACE_OUTER_BOUND ( 'NONE', #83, .T. ) ;
#145 = AXIS2_PLACEMENT_3D ( 'NONE', #241, #313, #131 ) ;
#146 = PERSON_AND_ORGANIZATION ( #233, #49 ) ;
#147 = CC_DESIGN_DATE_AND_TIME_ASSIGNMENT ( #14, #167, ( #227 ) ) ;
#148 = PERSON_AND_ORGANIZATION_ROLE ( 'design_owner' ) ;
#149 = AXIS2_PLACEMENT_3D ( 'NONE', #183, #104, #51 ) ;
#150 = EDGE_LOOP ( 'NONE', ( #198 ) ) ;
#151 = FACE_OUTER_BOUND ( 'NONE', #222, .T. ) ;
#152 = AXIS2_PLACEMENT_3D ( 'NONE', #128, #24, #102 ) ;
#153 = APPROVAL_PERSON_ORGANIZATION ( #171, #207, #302 ) ;
#154 = FACE_OUTER_BOUND ( 'NONE', #168, .T. ) ;
#155 = APPROVAL ( #243, 'UNSPECIFIED' ) ;
#156 = DIRECTION ( 'NONE',  ( -4.275831445896958607E-31, -1.000000000000000000, -1.224646799147353207E-16 ) ) ;
#157 = DIRECTION ( 'NONE',  ( -3.491481338843133355E-15, 1.224646799147353207E-16, -1.000000000000000000 ) ) ;
#158 = DIRECTION ( 'NONE',  ( 3.491481338843133355E-15, -1.224646799147353207E-16, 1.000000000000000000 ) ) ;
#159 = CIRCLE ( 'NONE', #298, 0.8349999999999998535 ) ;
#160 = CC_DESIGN_DATE_AND_TIME_ASSIGNMENT ( #38, #221, ( #169 ) ) ;
#161 = DIRECTION ( 'NONE',  ( -3.491481338843133355E-15, 1.224646799147353207E-16, -1.000000000000000000 ) ) ;
#162 = DIRECTION ( 'NONE',  ( -3.491481338843133355E-15, 1.224646799147353207E-16, -1.000000000000000000 ) ) ;
#163 = ORIENTED_EDGE ( 'NONE', *, *, #315, .T. ) ;
#164 = PLANE ( 'NONE',  #94 ) ;
#165 = CYLINDRICAL_SURFACE ( 'NONE', #106, 0.3000000000000000444 ) ;
#166 = ORIENTED_EDGE ( 'NONE', *, *, #251, .T. ) ;
#167 = DATE_TIME_ROLE ( 'classification_date' ) ;
#168 = EDGE_LOOP ( 'NONE', ( #237 ) ) ;
#169 = PRODUCT_DEFINITION ( 'UNKNOWN', '', #95, #306 ) ;
#170 = DIRECTION ( 'NONE',  ( 1.000000000000000000, 0.0000000000000000000, 0.0000000000000000000 ) ) ;
#171 = PERSON_AND_ORGANIZATION ( #233, #49 ) ;
#172 = DATE_AND_TIME ( #123, #297 ) ;
#173 = EDGE_LOOP ( 'NONE', ( #261 ) ) ;
#174 = FACE_OUTER_BOUND ( 'NONE', #52, .T. ) ;
#175 = CARTESIAN_POINT ( 'NONE',  ( 0.0000000000000000000, 0.0000000000000000000, 0.0000000000000000000 ) ) ;
#176 = CC_DESIGN_PERSON_AND_ORGANIZATION_ASSIGNMENT ( #249, #148, ( #259 ) ) ;
#177 = CIRCLE ( 'NONE', #321, 0.3489692899384955749 ) ;
#178 = DIRECTION ( 'NONE',  ( 0.0000000000000000000, 1.000000000000000000, 0.0000000000000000000 ) ) ;
#179 = DIRECTION ( 'NONE',  ( -3.491481338843133355E-15, 1.224646799147353207E-16, -1.000000000000000000 ) ) ;
#180 = CARTESIAN_POINT ( 'NONE',  ( 1.326762908760390423E-13, -4.653657836759941941E-15, 38.00000000000000000 ) ) ;
#181 = ADVANCED_FACE ( 'NONE', ( #309, #204 ), #340, .T. ) ;
#182 = DIRECTION ( 'NONE',  ( 0.0000000000000000000, 1.000000000000000000, 0.0000000000000000000 ) ) ;
#183 = CARTESIAN_POINT ( 'NONE',  ( 9.776147748760773395E-15, 9.825324176210687034E-33, 2.799999999999999822 ) ) ;
#184 = FACE_OUTER_BOUND ( 'NONE', #214, .T. ) ;
#185 = FACE_BOUND ( 'NONE', #295, .T. ) ;
#186 = AXIS2_PLACEMENT_3D ( 'NONE', #64, #193, #170 ) ;
#187 = ORIENTED_EDGE ( 'NONE', *, *, #96, .F. ) ;
#188 = CARTESIAN_POINT ( 'NONE',  ( 2.719859855912650389E-14, 1.959999999999998632, 7.789988236952307687 ) ) ;
#189 = EDGE_LOOP ( 'NONE', ( #268 ) ) ;
#190 = COORDINATED_UNIVERSAL_TIME_OFFSET ( 1, 0, .AHEAD. ) ;
#191 = ADVANCED_FACE ( 'NONE', ( #130, #255 ), #73, .F. ) ;
#192 = EDGE_LOOP ( 'NONE', ( #220 ) ) ;
#193 = DIRECTION ( 'NONE',  ( 0.0000000000000000000, 0.0000000000000000000, 1.000000000000000000 ) ) ;
#194 = CC_DESIGN_APPROVAL ( #105, ( #169 ) ) ;
#195 = APPROVAL_DATE_TIME ( #39, #155 ) ;
#196 = ORIENTED_EDGE ( 'NONE', *, *, #262, .F. ) ;
#197 = CIRCLE ( 'NONE', #78, 1.999999999999996669 ) ;
#198 = ORIENTED_EDGE ( 'NONE', *, *, #300, .T. ) ;
#199 = DIRECTION ( 'NONE',  ( -3.491481338843133355E-15, 1.224646799147353207E-16, -1.000000000000000000 ) ) ;
#200 = DIRECTION ( 'NONE',  ( 3.491481338843133355E-15, -1.224646799147353207E-16, 1.000000000000000000 ) ) ;
#201 = CIRCLE ( 'NONE', #55, 1.999999999999997780 ) ;
#202 = PLANE ( 'NONE',  #101 ) ;
#203 = FACE_OUTER_BOUND ( 'NONE', #330, .T. ) ;
#204 = FACE_OUTER_BOUND ( 'NONE', #121, .T. ) ;
#205 = DIRECTION ( 'NONE',  ( -3.491481338843133355E-15, 1.224646799147353207E-16, -1.000000000000000000 ) ) ;
#206 = DIRECTION ( 'NONE',  ( -4.275831445896958607E-31, -1.000000000000000000, -1.224646799147353207E-16 ) ) ;
#207 = APPROVAL ( #218, 'UNSPECIFIED' ) ;
#208 = VERTEX_POINT ( 'NONE', #82 ) ;
#209 = CARTESIAN_POINT ( 'NONE',  ( 4.888073874380386697E-15, -1.714505518806294391E-16, 1.399999999999999911 ) ) ;
#210 = AXIS2_PLACEMENT_3D ( 'NONE', #46, #252, #41 ) ;
#211 = EDGE_LOOP ( 'NONE', ( #30 ) ) ;
#212 = CARTESIAN_POINT ( 'NONE',  ( 1.326762908760390423E-13, 1.199807826129477602E-32, 38.00000000000000000 ) ) ;
#213 = ADVANCED_FACE ( 'NONE', ( #203, #18 ), #281, .T. ) ;
#214 = EDGE_LOOP ( 'NONE', ( #320 ) ) ;
#215 = PERSON_AND_ORGANIZATION_ROLE ( 'design_supplier' ) ;
#216 = PERSON_AND_ORGANIZATION ( #233, #49 ) ;
#217 = CC_DESIGN_SECURITY_CLASSIFICATION ( #227, ( #95 ) ) ;
#218 = APPROVAL_STATUS ( 'not_yet_approved' ) ;
#219 = PERSON_AND_ORGANIZATION_ROLE ( 'creator' ) ;
#220 = ORIENTED_EDGE ( 'NONE', *, *, #262, .T. ) ;
#221 = DATE_TIME_ROLE ( 'creation_date' ) ;
#222 = EDGE_LOOP ( 'NONE', ( #323 ) ) ;
#223 = AXIS2_PLACEMENT_3D ( 'NONE', #77, #157, #333 ) ;
#224 = ADVANCED_BREP_SHAPE_REPRESENTATION ( '388778', ( #6, #229, #186 ), #35 ) ;
#225 = CARTESIAN_POINT ( 'NONE',  ( -1.069031093998038848E-31, 3.749656321770509779E-33, -3.061826744152817170E-17 ) ) ;
#226 = CARTESIAN_POINT ( 'NONE',  ( 6.284666409917639251E-15, -4.336808689942017736E-16, 1.799999999999999822 ) ) ;
#227 = SECURITY_CLASSIFICATION ( '', '', #63 ) ;
#228 = DIRECTION ( 'NONE',  ( 4.275831445896958607E-31, 1.000000000000000000, 1.224646799147353207E-16 ) ) ;
#229 = MANIFOLD_SOLID_BREP ( 'Corps-Déplacer/Copier1[2]', #119 ) ;
#230 = FACE_OUTER_BOUND ( 'NONE', #8, .T. ) ;
#231 = PLANE ( 'NONE',  #246 ) ;
#232 = CARTESIAN_POINT ( 'NONE',  ( 3.247077645124114651E-14, 1.999999999999995337, 9.300000000000000711 ) ) ;
#233 = PERSON ( 'UNSPECIFIED', 'UNSPECIFIED', 'UNSPECIFIED', ('UNSPECIFIED'), ('UNSPECIFIED'), ('UNSPECIFIED') ) ;
#234 = VERTEX_POINT ( 'NONE', #54 ) ;
#235 = ORIENTED_EDGE ( 'NONE', *, *, #245, .F. ) ;
#236 = CARTESIAN_POINT ( 'NONE',  ( 9.776147748760773395E-15, 0.4752530538286811601, 2.799999999999999822 ) ) ;
#237 = ORIENTED_EDGE ( 'NONE', *, *, #286, .F. ) ;
#238 = ADVANCED_FACE ( 'NONE', ( #254 ), #335, .F. ) ;
#239 = VERTEX_POINT ( 'NONE', #140 ) ;
#240 = CONICAL_SURFACE ( 'NONE', #210, 1.959999999999999520, 0.2217440814658727943 ) ;
#241 = CARTESIAN_POINT ( 'NONE',  ( 9.776147748760773395E-15, -3.429011037612588783E-16, 2.799999999999999822 ) ) ;
#242 = CALENDAR_DATE ( 2021, 13, 12 ) ;
#243 = APPROVAL_STATUS ( 'not_yet_approved' ) ;
#244 = PERSON_AND_ORGANIZATION ( #233, #49 ) ;
#245 = EDGE_CURVE ( 'NONE', #108, #108, #19, .T. ) ;
#246 = AXIS2_PLACEMENT_3D ( 'NONE', #318, #290, #85 ) ;
#247 = PERSON_AND_ORGANIZATION_ROLE ( 'creator' ) ;
#248 = ORIENTED_EDGE ( 'NONE', *, *, #96, .T. ) ;
#249 = PERSON_AND_ORGANIZATION ( #233, #49 ) ;
#250 = ORIENTED_EDGE ( 'NONE', *, *, #33, .T. ) ;
#251 = EDGE_CURVE ( 'NONE', #58, #58, #13, .T. ) ;
#252 = DIRECTION ( 'NONE',  ( 3.491481338843133355E-15, -1.224646799147353207E-16, 1.000000000000000000 ) ) ;
#253 = CIRCLE ( 'NONE', #328, 1.959999999999999520 ) ;
#254 = FACE_OUTER_BOUND ( 'NONE', #173, .T. ) ;
#255 = FACE_OUTER_BOUND ( 'NONE', #189, .T. ) ;
#256 = DIRECTION ( 'NONE',  ( -3.491481338843133355E-15, 1.224646799147353207E-16, -1.000000000000000000 ) ) ;
#257 = CONICAL_SURFACE ( 'NONE', #145, 0.4752530538286814932, 0.2217440814658728776 ) ;
#258 = DIRECTION ( 'NONE',  ( -3.491481338843133355E-15, 1.224646799147353207E-16, -1.000000000000000000 ) ) ;
#259 = PRODUCT ( '388778', '388778', '', ( #296 ) ) ;
#260 = FACE_OUTER_BOUND ( 'NONE', #192, .T. ) ;
#261 = ORIENTED_EDGE ( 'NONE', *, *, #285, .T. ) ;
#262 = EDGE_CURVE ( 'NONE', #239, #239, #159, .T. ) ;
#263 = FACE_OUTER_BOUND ( 'NONE', #341, .T. ) ;
#264 = AXIS2_PLACEMENT_3D ( 'NONE', #308, #199, #280 ) ;
#265 = DIRECTION ( 'NONE',  ( 0.0000000000000000000, 1.000000000000000000, 0.0000000000000000000 ) ) ;
#266 = VERTEX_POINT ( 'NONE', #188 ) ;
#267 = ORIENTED_EDGE ( 'NONE', *, *, #300, .F. ) ;
#268 = ORIENTED_EDGE ( 'NONE', *, *, #122, .F. ) ;
#269 = AXIS2_PLACEMENT_3D ( 'NONE', #209, #7, #317 ) ;
#270 = ORIENTED_EDGE ( 'NONE', *, *, #122, .T. ) ;
#271 = APPROVAL_DATE_TIME ( #172, #105 ) ;
#272 = PERSON_AND_ORGANIZATION ( #233, #49 ) ;
#273 = ADVANCED_FACE ( 'NONE', ( #184 ), #164, .F. ) ;
#274 = CALENDAR_DATE ( 2021, 13, 12 ) ;
#275 = CIRCLE ( 'NONE', #264, 1.959999999999999964 ) ;
#276 = APPLICATION_PROTOCOL_DEFINITION ( 'international standard', 'config_control_design', 1994, #9 ) ;
#277 = EDGE_LOOP ( 'NONE', ( #248 ) ) ;
#278 = CC_DESIGN_PERSON_AND_ORGANIZATION_ASSIGNMENT ( #89, #61, ( #227 ) ) ;
#279 = DIRECTION ( 'NONE',  ( -3.491481338843133355E-15, 1.224646799147353207E-16, -1.000000000000000000 ) ) ;
#280 = DIRECTION ( 'NONE',  ( 0.0000000000000000000, 1.000000000000000000, 0.0000000000000000000 ) ) ;
#281 = CYLINDRICAL_SURFACE ( 'NONE', #223, 0.2999999999999999334 ) ;
#282 = CARTESIAN_POINT ( 'NONE',  ( 6.284666409917640040E-15, -2.204364238465235576E-16, 1.800000000000000044 ) ) ;
#283 = AXIS2_PLACEMENT_3D ( 'NONE', #282, #44, #178 ) ;
#284 = DIRECTION ( 'NONE',  ( -3.491481338843133355E-15, 1.224646799147353207E-16, -1.000000000000000000 ) ) ;
#285 = EDGE_CURVE ( 'NONE', #110, #110, #45, .T. ) ;
#286 = EDGE_CURVE ( 'NONE', #234, #234, #201, .T. ) ;
#287 = PLANE ( 'NONE',  #336 ) ;
#288 = CARTESIAN_POINT ( 'NONE',  ( 4.888073874380386697E-15, 0.2999999999999998224, 1.399999999999999911 ) ) ;
#289 = AXIS2_PLACEMENT_3D ( 'NONE', #4, #162, #265 ) ;
#290 = DIRECTION ( 'NONE',  ( 3.491481338843133355E-15, -1.224646799147353207E-16, 1.000000000000000000 ) ) ;
#291 = EDGE_LOOP ( 'NONE', ( #267 ) ) ;
#292 = CARTESIAN_POINT ( 'NONE',  ( 3.247077645124114651E-14, 1.959999999999998632, 9.300000000000000711 ) ) ;
#293 = FACE_OUTER_BOUND ( 'NONE', #277, .T. ) ;
#294 = COORDINATED_UNIVERSAL_TIME_OFFSET ( 1, 0, .AHEAD. ) ;
#295 = EDGE_LOOP ( 'NONE', ( #92 ) ) ;
#296 = MECHANICAL_CONTEXT ( 'NONE', #129, 'mechanical' ) ;
#297 = LOCAL_TIME ( 11, 14, 48.00000000000000000, #294 ) ;
#298 = AXIS2_PLACEMENT_3D ( 'NONE', #48, #258, #2 ) ;
#299 = LOCAL_TIME ( 11, 14, 48.00000000000000000, #37 ) ;
#300 = EDGE_CURVE ( 'NONE', #208, #208, #177, .T. ) ;
#301 =( NAMED_UNIT ( * ) SI_UNIT ( $, .STERADIAN. ) SOLID_ANGLE_UNIT ( ) );
#302 = APPROVAL_ROLE ( '' ) ;
#303 = ADVANCED_FACE ( 'NONE', ( #50 ), #231, .F. ) ;
#304 = EDGE_LOOP ( 'NONE', ( #235 ) ) ;
#305 = CIRCLE ( 'NONE', #62, 1.599999999999997646 ) ;
#306 = DESIGN_CONTEXT ( 'detailed design', #9, 'design' ) ;
#307 = DIRECTION ( 'NONE',  ( -3.491481338843133355E-15, 1.224646799147353207E-16, -1.000000000000000000 ) ) ;
#308 = CARTESIAN_POINT ( 'NONE',  ( 3.247077645124114651E-14, -1.138921523207038574E-15, 9.300000000000000711 ) ) ;
#309 = FACE_OUTER_BOUND ( 'NONE', #5, .T. ) ;
#310 = AXIS2_PLACEMENT_3D ( 'NONE', #175, #279, #74 ) ;
#311 = CC_DESIGN_APPROVAL ( #155, ( #227 ) ) ;
#312 = FACE_OUTER_BOUND ( 'NONE', #304, .T. ) ;
#313 = DIRECTION ( 'NONE',  ( 3.491481338843133355E-15, -1.224646799147353207E-16, 1.000000000000000000 ) ) ;
#314 = DIRECTION ( 'NONE',  ( 4.337587944509189251E-31, 1.000000000000000000, 1.224646799147353207E-16 ) ) ;
#315 = EDGE_CURVE ( 'NONE', #142, #142, #316, .T. ) ;
#316 = CIRCLE ( 'NONE', #289, 0.4752530538286814932 ) ;
#317 = DIRECTION ( 'NONE',  ( 0.0000000000000000000, 1.000000000000000000, 0.0000000000000000000 ) ) ;
#318 = CARTESIAN_POINT ( 'NONE',  ( -5.345155469990194241E-32, 1.874828160885254890E-33, -1.530913372076408585E-17 ) ) ;
#319 = DIRECTION ( 'NONE',  ( 3.491481338843133355E-15, -1.224646799147353207E-16, 1.000000000000000000 ) ) ;
#320 = ORIENTED_EDGE ( 'NONE', *, *, #71, .F. ) ;
#321 = AXIS2_PLACEMENT_3D ( 'NONE', #26, #284, #182 ) ;
#322 = CARTESIAN_POINT ( 'NONE',  ( 6.284666409917640040E-15, 0.2999999999999998224, 1.800000000000000044 ) ) ;
#323 = ORIENTED_EDGE ( 'NONE', *, *, #33, .F. ) ;
#324 = DIRECTION ( 'NONE',  ( -3.491481338843133355E-15, 1.224646799147353207E-16, -1.000000000000000000 ) ) ;
#325 = COORDINATED_UNIVERSAL_TIME_OFFSET ( 1, 0, .AHEAD. ) ;
#326 = ADVANCED_FACE ( 'NONE', ( #185, #260 ), #25, .F. ) ;
#327 = CALENDAR_DATE ( 2021, 13, 12 ) ;
#328 = AXIS2_PLACEMENT_3D ( 'NONE', #115, #324, #60 ) ;
#329 = COORDINATED_UNIVERSAL_TIME_OFFSET ( 1, 0, .AHEAD. ) ;
#330 = EDGE_LOOP ( 'NONE', ( #36 ) ) ;
#331 = DIRECTION ( 'NONE',  ( 4.275831445896958607E-31, 1.000000000000000000, 1.224646799147353207E-16 ) ) ;
#332 = LOCAL_TIME ( 11, 14, 48.00000000000000000, #190 ) ;
#333 = DIRECTION ( 'NONE',  ( 4.275831445896958607E-31, 1.000000000000000000, 1.224646799147353207E-16 ) ) ;
#334 = CARTESIAN_POINT ( 'NONE',  ( 4.888073874380386697E-15, 2.249639673992784017E-33, 1.399999999999999911 ) ) ;
#335 = PLANE ( 'NONE',  #23 ) ;
#336 = AXIS2_PLACEMENT_3D ( 'NONE', #135, #319, #206 ) ;
#337 = DIRECTION ( 'NONE',  ( 0.0000000000000000000, 1.000000000000000000, 0.0000000000000000000 ) ) ;
#338 = ORIENTED_EDGE ( 'NONE', *, *, #71, .T. ) ;
#339 = ADVANCED_FACE ( 'NONE', ( #112, #263 ), #287, .F. ) ;
#340 = CYLINDRICAL_SURFACE ( 'NONE', #310, 1.999999999999997335 ) ;
#341 = EDGE_LOOP ( 'NONE', ( #124 ) ) ;
#342 = CARTESIAN_POINT ( 'NONE',  ( 1.312796983405018142E-13, -4.604671964794047724E-15, 37.60000000000000142 ) ) ;
#343 = AXIS2_PLACEMENT_3D ( 'NONE', #72, #100, #127 ) ;
ENDSEC;
END-ISO-10303-21;
