ISO-10303-21;
HEADER;
FILE_DESCRIPTION (( 'STEP AP203' ),
    '1' );
FILE_NAME ('388777.step',
    '2021-12-13T10:14:48',
    ( '' ),
    ( '' ),
    'SwSTEP 2.0',
    'SolidWorks 2019',
    '' );
FILE_SCHEMA (( 'CONFIG_CONTROL_DESIGN' ));
ENDSEC;

DATA;
#1 = CARTESIAN_POINT ( 'NONE',  ( -8.552395217031910492E-32, 2.999776430439580633E-33, -2.449503344579140690E-17 ) ) ;
#2 = EDGE_CURVE ( 'NONE', #196, #196, #244, .T. ) ;
#3 = DIRECTION ( 'NONE',  ( 3.491481338843133355E-15, -1.224646799147353207E-16, 1.000000000000000000 ) ) ;
#4 = VERTEX_POINT ( 'NONE', #291 ) ;
#5 = ORIENTED_EDGE ( 'NONE', *, *, #331, .T. ) ;
#6 = PRODUCT_DEFINITION_FORMATION_WITH_SPECIFIED_SOURCE ( 'ANY', '', #78, .NOT_KNOWN. ) ;
#7 = ADVANCED_FACE ( 'NONE', ( #327, #249 ), #254, .T. ) ;
#8 = DIRECTION ( 'NONE',  ( -4.275831445896958607E-31, -1.000000000000000000, -1.224646799147353207E-16 ) ) ;
#9 = ORIENTED_EDGE ( 'NONE', *, *, #263, .F. ) ;
#10 = ORIENTED_EDGE ( 'NONE', *, *, #220, .F. ) ;
#11 = ORIENTED_EDGE ( 'NONE', *, *, #337, .T. ) ;
#12 = CIRCLE ( 'NONE', #143, 0.2500000000000000000 ) ;
#13 = ORIENTED_EDGE ( 'NONE', *, *, #305, .F. ) ;
#14 = CARTESIAN_POINT ( 'NONE',  ( 9.776147748760773395E-15, -3.429011037612588783E-16, 2.799999999999999822 ) ) ;
#15 = DIRECTION ( 'NONE',  ( 0.0000000000000000000, 1.000000000000000000, 0.0000000000000000000 ) ) ;
#16 = FACE_OUTER_BOUND ( 'NONE', #110, .T. ) ;
#17 = CARTESIAN_POINT ( 'NONE',  ( 3.840629472727447480E-15, -1.347111479062088503E-16, 1.100000000000000089 ) ) ;
#18 = CALENDAR_DATE ( 2021, 13, 12 ) ;
#19 = FACE_OUTER_BOUND ( 'NONE', #146, .T. ) ;
#20 = APPLICATION_PROTOCOL_DEFINITION ( 'international standard', 'config_control_design', 1994, #297 ) ;
#21 = CARTESIAN_POINT ( 'NONE',  ( 0.0000000000000000000, 0.0000000000000000000, 0.0000000000000000000 ) ) ;
#22 = APPROVAL_STATUS ( 'not_yet_approved' ) ;
#23 = PERSON_AND_ORGANIZATION_ROLE ( 'creator' ) ;
#24 = CONICAL_SURFACE ( 'NONE', #186, 1.959999999999999520, 0.2217440814658727943 ) ;
#25 = CC_DESIGN_APPROVAL ( #103, ( #236 ) ) ;
#26 = CARTESIAN_POINT ( 'NONE',  ( 0.0000000000000000000, 0.0000000000000000000, 0.0000000000000000000 ) ) ;
#27 = DIRECTION ( 'NONE',  ( -3.491481338843133355E-15, 1.224646799147353207E-16, -1.000000000000000000 ) ) ;
#28 = DIRECTION ( 'NONE',  ( -4.275831445896958607E-31, -1.000000000000000000, -1.224646799147353207E-16 ) ) ;
#29 = ADVANCED_FACE ( 'NONE', ( #170, #96 ), #304, .T. ) ;
#30 = AXIS2_PLACEMENT_3D ( 'NONE', #221, #148, #276 ) ;
#31 = DIRECTION ( 'NONE',  ( 3.491481338843133355E-15, -1.224646799147353207E-16, 1.000000000000000000 ) ) ;
#32 = CARTESIAN_POINT ( 'NONE',  ( 3.247077645124114651E-14, 1.999999999999995337, 9.300000000000000711 ) ) ;
#33 = PRODUCT_DEFINITION ( 'UNKNOWN', '', #6, #40 ) ;
#34 = CARTESIAN_POINT ( 'NONE',  ( 3.247077645124114651E-14, 1.959999999999998632, 9.300000000000000711 ) ) ;
#35 = CC_DESIGN_APPROVAL ( #312, ( #6 ) ) ;
#36 = ORIENTED_EDGE ( 'NONE', *, *, #337, .F. ) ;
#37 = EDGE_LOOP ( 'NONE', ( #87 ) ) ;
#38 = ORIENTED_EDGE ( 'NONE', *, *, #159, .T. ) ;
#39 = EDGE_LOOP ( 'NONE', ( #192 ) ) ;
#40 = DESIGN_CONTEXT ( 'detailed design', #297, 'design' ) ;
#41 = DATE_AND_TIME ( #206, #57 ) ;
#42 = COORDINATED_UNIVERSAL_TIME_OFFSET ( 1, 0, .AHEAD. ) ;
#43 = CARTESIAN_POINT ( 'NONE',  ( 2.719859855912650389E-14, -9.539984159779177421E-16, 7.789988236952307687 ) ) ;
#44 = MANIFOLD_SOLID_BREP ( 'Corps-Déplacer/Copier1[2]', #194 ) ;
#45 = COORDINATED_UNIVERSAL_TIME_OFFSET ( 1, 0, .AHEAD. ) ;
#46 = AXIS2_PLACEMENT_3D ( 'NONE', #317, #118, #77 ) ;
#47 = DIRECTION ( 'NONE',  ( 0.0000000000000000000, 1.000000000000000000, 0.0000000000000000000 ) ) ;
#48 = DIRECTION ( 'NONE',  ( -3.491481338843133355E-15, 1.224646799147353207E-16, -1.000000000000000000 ) ) ;
#49 = CIRCLE ( 'NONE', #290, 1.959999999999999520 ) ;
#50 = DIRECTION ( 'NONE',  ( 0.0000000000000000000, -1.000000000000000000, 0.0000000000000000000 ) ) ;
#51 = FACE_BOUND ( 'NONE', #138, .T. ) ;
#52 = ORIENTED_EDGE ( 'NONE', *, *, #220, .T. ) ;
#53 = VERTEX_POINT ( 'NONE', #34 ) ;
#54 = ORIENTED_EDGE ( 'NONE', *, *, #190, .T. ) ;
#55 = AXIS2_PLACEMENT_3D ( 'NONE', #157, #310, #341 ) ;
#56 = ORIENTED_EDGE ( 'NONE', *, *, #153, .T. ) ;
#57 = LOCAL_TIME ( 11, 14, 48.00000000000000000, #45 ) ;
#58 = APPLICATION_CONTEXT ( 'configuration controlled 3d designs of mechanical parts and assemblies' ) ;
#59 = EDGE_CURVE ( 'NONE', #4, #4, #218, .T. ) ;
#60 = DIRECTION ( 'NONE',  ( -3.491481338843133355E-15, 1.224646799147353207E-16, -1.000000000000000000 ) ) ;
#61 = AXIS2_PLACEMENT_3D ( 'NONE', #64, #173, #226 ) ;
#62 = CC_DESIGN_DATE_AND_TIME_ASSIGNMENT ( #257, #334, ( #236 ) ) ;
#63 = CARTESIAN_POINT ( 'NONE',  ( 2.719859855912650389E-14, 1.959999999999998632, 7.789988236952307687 ) ) ;
#64 = CARTESIAN_POINT ( 'NONE',  ( 3.840629472727447480E-15, 1.874699728327319957E-33, 1.100000000000000089 ) ) ;
#65 = AXIS2_PLACEMENT_3D ( 'NONE', #17, #298, #302 ) ;
#66 = SECURITY_CLASSIFICATION_LEVEL ( 'unclassified' ) ;
#67 = UNCERTAINTY_MEASURE_WITH_UNIT (LENGTH_MEASURE( 1.000000000000000082E-05 ), #326, 'distance_accuracy_value', 'NONE');
#68 = DIRECTION ( 'NONE',  ( 0.0000000000000000000, 1.000000000000000000, 0.0000000000000000000 ) ) ;
#69 = APPROVAL_STATUS ( 'not_yet_approved' ) ;
#70 = FACE_OUTER_BOUND ( 'NONE', #79, .T. ) ;
#71 = AXIS2_PLACEMENT_3D ( 'NONE', #195, #60, #193 ) ;
#72 = CARTESIAN_POINT ( 'NONE',  ( 3.247077645124114651E-14, -1.138921523207038574E-15, 9.300000000000000711 ) ) ;
#73 = DIRECTION ( 'NONE',  ( 0.0000000000000000000, 1.000000000000000000, 0.0000000000000000000 ) ) ;
#74 = CARTESIAN_POINT ( 'NONE',  ( 5.237222008264699244E-15, 0.0000000000000000000, 1.499999999999999778 ) ) ;
#75 = EDGE_CURVE ( 'NONE', #293, #293, #12, .T. ) ;
#76 = AXIS2_PLACEMENT_3D ( 'NONE', #80, #31, #240 ) ;
#77 = DIRECTION ( 'NONE',  ( 0.0000000000000000000, 1.000000000000000000, 0.0000000000000000000 ) ) ;
#78 = PRODUCT ( '388777', '388777', '', ( #198 ) ) ;
#79 = EDGE_LOOP ( 'NONE', ( #10 ) ) ;
#80 = CARTESIAN_POINT ( 'NONE',  ( -4.276197608515955246E-32, 1.499888215219790317E-33, -1.224751672289570345E-17 ) ) ;
#81 = EDGE_LOOP ( 'NONE', ( #11 ) ) ;
#82 =( NAMED_UNIT ( * ) PLANE_ANGLE_UNIT ( ) SI_UNIT ( $, .RADIAN. ) );
#83 = EDGE_LOOP ( 'NONE', ( #112 ) ) ;
#84 = AXIS2_PLACEMENT_3D ( 'NONE', #74, #234, #229 ) ;
#85 = APPROVAL_PERSON_ORGANIZATION ( #231, #103, #204 ) ;
#86 = ADVANCED_FACE ( 'NONE', ( #119 ), #121, .F. ) ;
#87 = ORIENTED_EDGE ( 'NONE', *, *, #59, .F. ) ;
#88 = FACE_OUTER_BOUND ( 'NONE', #163, .T. ) ;
#89 = ADVANCED_FACE ( 'NONE', ( #19 ), #308, .F. ) ;
#90 =( GEOMETRIC_REPRESENTATION_CONTEXT ( 3 ) GLOBAL_UNCERTAINTY_ASSIGNED_CONTEXT ( ( #67 ) ) GLOBAL_UNIT_ASSIGNED_CONTEXT ( ( #326, #82, #299 ) ) REPRESENTATION_CONTEXT ( 'NONE', 'WORKASPACE' ) );
#91 = DIRECTION ( 'NONE',  ( 0.0000000000000000000, 1.000000000000000000, 0.0000000000000000000 ) ) ;
#92 = DIRECTION ( 'NONE',  ( -3.491481338843133355E-15, 1.224646799147353207E-16, -1.000000000000000000 ) ) ;
#93 = PERSON_AND_ORGANIZATION ( #128, #106 ) ;
#94 = DIRECTION ( 'NONE',  ( 4.275831445896958607E-31, 1.000000000000000000, 1.224646799147353207E-16 ) ) ;
#95 = APPROVAL_ROLE ( '' ) ;
#96 = FACE_OUTER_BOUND ( 'NONE', #256, .T. ) ;
#97 = CC_DESIGN_DATE_AND_TIME_ASSIGNMENT ( #282, #100, ( #33 ) ) ;
#98 = TOROIDAL_SURFACE ( 'NONE', #84, 2.250000000000000000, 2.000000000000000000 ) ;
#99 = CARTESIAN_POINT ( 'NONE',  ( 9.776147748760773395E-15, -3.429011037612588783E-16, 2.799999999999999822 ) ) ;
#100 = DATE_TIME_ROLE ( 'creation_date' ) ;
#101 = CARTESIAN_POINT ( 'NONE',  ( 3.247077645124114651E-14, -1.138921523207038574E-15, 9.300000000000000711 ) ) ;
#102 = CALENDAR_DATE ( 2021, 13, 12 ) ;
#103 = APPROVAL ( #280, 'UNSPECIFIED' ) ;
#104 = CYLINDRICAL_SURFACE ( 'NONE', #230, 0.2500000000000000000 ) ;
#105 = CONICAL_SURFACE ( 'NONE', #307, 1.599999999999997646, 0.7853981633974516097 ) ;
#106 = ORGANIZATION ( 'UNSPECIFIED', 'UNSPECIFIED', '' ) ;
#107 = FACE_OUTER_BOUND ( 'NONE', #188, .T. ) ;
#108 = DIRECTION ( 'NONE',  ( 3.491481338843133355E-15, -1.224646799147353207E-16, 1.000000000000000000 ) ) ;
#109 = CARTESIAN_POINT ( 'NONE',  ( 3.247077645124114651E-14, 2.969524369670473466E-32, 9.300000000000000711 ) ) ;
#110 = EDGE_LOOP ( 'NONE', ( #56 ) ) ;
#111 = DIRECTION ( 'NONE',  ( 3.491481338843133355E-15, -1.224646799147353207E-16, 1.000000000000000000 ) ) ;
#112 = ORIENTED_EDGE ( 'NONE', *, *, #75, .T. ) ;
#113 = ADVANCED_FACE ( 'NONE', ( #199, #207 ), #105, .T. ) ;
#114 = EDGE_LOOP ( 'NONE', ( #294 ) ) ;
#115 = CIRCLE ( 'NONE', #251, 0.8349999999999998535 ) ;
#116 = EDGE_LOOP ( 'NONE', ( #223 ) ) ;
#117 = EDGE_LOOP ( 'NONE', ( #144 ) ) ;
#118 = DIRECTION ( 'NONE',  ( -3.491481338843133355E-15, 1.224646799147353207E-16, -1.000000000000000000 ) ) ;
#119 = FACE_OUTER_BOUND ( 'NONE', #81, .T. ) ;
#120 = DIRECTION ( 'NONE',  ( 0.0000000000000000000, 1.000000000000000000, 0.0000000000000000000 ) ) ;
#121 = PLANE ( 'NONE',  #61 ) ;
#122 = AXIS2_PLACEMENT_3D ( 'NONE', #145, #245, #91 ) ;
#123 = LOCAL_TIME ( 11, 14, 48.00000000000000000, #227 ) ;
#124 = DIRECTION ( 'NONE',  ( 1.000000000000000000, 0.0000000000000000000, 0.0000000000000000000 ) ) ;
#125 = DATE_AND_TIME ( #149, #319 ) ;
#126 = ADVANCED_FACE ( 'NONE', ( #136, #266 ), #98, .F. ) ;
#127 = DIRECTION ( 'NONE',  ( 4.275831445896958607E-31, 1.000000000000000000, 1.224646799147353207E-16 ) ) ;
#128 = PERSON ( 'UNSPECIFIED', 'UNSPECIFIED', 'UNSPECIFIED', ('UNSPECIFIED'), ('UNSPECIFIED'), ('UNSPECIFIED') ) ;
#129 = DIRECTION ( 'NONE',  ( 4.275831445896958607E-31, 1.000000000000000000, 1.224646799147353207E-16 ) ) ;
#130 = CIRCLE ( 'NONE', #122, 0.2989692899384950309 ) ;
#131 = PERSON_AND_ORGANIZATION ( #128, #106 ) ;
#132 = CARTESIAN_POINT ( 'NONE',  ( 1.326762908760390423E-13, -4.653657836759941941E-15, 38.00000000000000000 ) ) ;
#133 = EDGE_CURVE ( 'NONE', #161, #161, #115, .T. ) ;
#134 = DATE_AND_TIME ( #18, #123 ) ;
#135 = FACE_OUTER_BOUND ( 'NONE', #174, .T. ) ;
#136 = FACE_OUTER_BOUND ( 'NONE', #279, .T. ) ;
#137 = VERTEX_POINT ( 'NONE', #162 ) ;
#138 = EDGE_LOOP ( 'NONE', ( #13 ) ) ;
#139 = CARTESIAN_POINT ( 'NONE',  ( 3.840629472727447480E-15, 0.2499999999999998335, 1.100000000000000089 ) ) ;
#140 = EDGE_LOOP ( 'NONE', ( #243 ) ) ;
#141 = PRODUCT_RELATED_PRODUCT_CATEGORY ( 'detail', '', ( #78 ) ) ;
#142 = EDGE_LOOP ( 'NONE', ( #215 ) ) ;
#143 = AXIS2_PLACEMENT_3D ( 'NONE', #201, #246, #15 ) ;
#144 = ORIENTED_EDGE ( 'NONE', *, *, #331, .F. ) ;
#145 = CARTESIAN_POINT ( 'NONE',  ( 6.772994311974852189E-15, -2.375646609513754300E-16, 1.939862669928808625 ) ) ;
#146 = EDGE_LOOP ( 'NONE', ( #9 ) ) ;
#147 = VERTEX_POINT ( 'NONE', #171 ) ;
#148 = DIRECTION ( 'NONE',  ( -3.491481338843133355E-15, 1.224646799147353207E-16, -1.000000000000000000 ) ) ;
#149 = CALENDAR_DATE ( 2021, 13, 12 ) ;
#150 = CARTESIAN_POINT ( 'NONE',  ( 1.326762908760390423E-13, 1.199807826129477602E-32, 38.00000000000000000 ) ) ;
#151 = PERSON_AND_ORGANIZATION ( #128, #106 ) ;
#152 = FACE_OUTER_BOUND ( 'NONE', #37, .T. ) ;
#153 = EDGE_CURVE ( 'NONE', #269, #269, #202, .T. ) ;
#154 = AXIS2_PLACEMENT_3D ( 'NONE', #1, #27, #258 ) ;
#155 = LOCAL_TIME ( 11, 14, 48.00000000000000000, #42 ) ;
#156 = DIRECTION ( 'NONE',  ( 0.0000000000000000000, 1.000000000000000000, 0.0000000000000000000 ) ) ;
#157 = CARTESIAN_POINT ( 'NONE',  ( 3.840629472727447480E-15, 1.874699728327319957E-33, 1.100000000000000089 ) ) ;
#158 = FACE_OUTER_BOUND ( 'NONE', #83, .T. ) ;
#159 = EDGE_CURVE ( 'NONE', #224, #224, #49, .T. ) ;
#160 = PLANE ( 'NONE',  #286 ) ;
#161 = VERTEX_POINT ( 'NONE', #222 ) ;
#162 = CARTESIAN_POINT ( 'NONE',  ( 2.137183397710478088E-32, 0.2499999999999998335, 6.121136532892404794E-18 ) ) ;
#163 = EDGE_LOOP ( 'NONE', ( #5 ) ) ;
#164 = CC_DESIGN_PERSON_AND_ORGANIZATION_ASSIGNMENT ( #151, #200, ( #6 ) ) ;
#165 = AXIS2_PLACEMENT_3D ( 'NONE', #189, #3, #248 ) ;
#166 = ORIENTED_EDGE ( 'NONE', *, *, #133, .F. ) ;
#167 = ORIENTED_EDGE ( 'NONE', *, *, #59, .T. ) ;
#168 = ORIENTED_EDGE ( 'NONE', *, *, #305, .T. ) ;
#169 = CIRCLE ( 'NONE', #46, 0.2499999999999999445 ) ;
#170 = FACE_OUTER_BOUND ( 'NONE', #217, .T. ) ;
#171 = CARTESIAN_POINT ( 'NONE',  ( 1.326762908760390423E-13, 1.599999999999993205, 38.00000000000000000 ) ) ;
#172 = VERTEX_POINT ( 'NONE', #139 ) ;
#173 = DIRECTION ( 'NONE',  ( 3.491481338843133355E-15, -1.224646799147353207E-16, 1.000000000000000000 ) ) ;
#174 = EDGE_LOOP ( 'NONE', ( #38 ) ) ;
#175 = PERSON_AND_ORGANIZATION_ROLE ( 'classification_officer' ) ;
#176 = APPROVAL_DATE_TIME ( #125, #275 ) ;
#177 = ADVANCED_FACE ( 'NONE', ( #336, #135 ), #24, .T. ) ;
#178 = FACE_OUTER_BOUND ( 'NONE', #140, .T. ) ;
#179 = COORDINATED_UNIVERSAL_TIME_OFFSET ( 1, 0, .AHEAD. ) ;
#180 = PLANE ( 'NONE',  #55 ) ;
#181 = CIRCLE ( 'NONE', #154, 0.2499999999999998335 ) ;
#182 = LOCAL_TIME ( 11, 14, 48.00000000000000000, #179 ) ;
#183 = DIRECTION ( 'NONE',  ( -3.491481338843133355E-15, 1.224646799147353207E-16, -1.000000000000000000 ) ) ;
#184 = ADVANCED_FACE ( 'NONE', ( #152 ), #180, .T. ) ;
#185 = FACE_OUTER_BOUND ( 'NONE', #274, .T. ) ;
#186 = AXIS2_PLACEMENT_3D ( 'NONE', #288, #108, #50 ) ;
#187 = PLANE ( 'NONE',  #76 ) ;
#188 = EDGE_LOOP ( 'NONE', ( #36 ) ) ;
#189 = CARTESIAN_POINT ( 'NONE',  ( 9.776147748760773395E-15, -3.429011037612588783E-16, 2.799999999999999822 ) ) ;
#190 = EDGE_CURVE ( 'NONE', #53, #53, #296, .T. ) ;
#191 = CIRCLE ( 'NONE', #335, 1.599999999999997646 ) ;
#192 = ORIENTED_EDGE ( 'NONE', *, *, #190, .F. ) ;
#193 = DIRECTION ( 'NONE',  ( 4.275831445896959482E-31, 1.000000000000000000, 1.224646799147353454E-16 ) ) ;
#194 = CLOSED_SHELL ( 'NONE', ( #295, #225, #184 ) ) ;
#195 = CARTESIAN_POINT ( 'NONE',  ( 0.0000000000000000000, 0.0000000000000000000, 0.0000000000000000000 ) ) ;
#196 = VERTEX_POINT ( 'NONE', #238 ) ;
#197 = CC_DESIGN_PERSON_AND_ORGANIZATION_ASSIGNMENT ( #278, #306, ( #6 ) ) ;
#198 = MECHANICAL_CONTEXT ( 'NONE', #58, 'mechanical' ) ;
#199 = FACE_OUTER_BOUND ( 'NONE', #142, .T. ) ;
#200 = PERSON_AND_ORGANIZATION_ROLE ( 'creator' ) ;
#201 = CARTESIAN_POINT ( 'NONE',  ( 5.237222008264700033E-15, -1.836970198721029934E-16, 1.500000000000000000 ) ) ;
#202 = CIRCLE ( 'NONE', #324, 1.999999999999996669 ) ;
#203 = CC_DESIGN_APPROVAL ( #275, ( #33 ) ) ;
#204 = APPROVAL_ROLE ( '' ) ;
#205 = DIRECTION ( 'NONE',  ( 0.0000000000000000000, 1.000000000000000000, 0.0000000000000000000 ) ) ;
#206 = CALENDAR_DATE ( 2021, 13, 12 ) ;
#207 = FACE_BOUND ( 'NONE', #273, .T. ) ;
#208 = CIRCLE ( 'NONE', #318, 0.4928884838083981146 ) ;
#209 = DIRECTION ( 'NONE',  ( -3.491481338843133355E-15, 1.224646799147353207E-16, -1.000000000000000000 ) ) ;
#210 = CC_DESIGN_PERSON_AND_ORGANIZATION_ASSIGNMENT ( #131, #303, ( #78 ) ) ;
#211 = DIRECTION ( 'NONE',  ( -3.491481338843133355E-15, 1.224646799147353207E-16, -1.000000000000000000 ) ) ;
#212 = AXIS2_PLACEMENT_3D ( 'NONE', #21, #228, #127 ) ;
#213 = ADVANCED_FACE ( 'NONE', ( #289, #178 ), #160, .F. ) ;
#214 = PLANE ( 'NONE',  #259 ) ;
#215 = ORIENTED_EDGE ( 'NONE', *, *, #2, .F. ) ;
#216 = DIRECTION ( 'NONE',  ( -3.491481338843133355E-15, 1.224646799147353207E-16, -1.000000000000000000 ) ) ;
#217 = EDGE_LOOP ( 'NONE', ( #333 ) ) ;
#218 = CIRCLE ( 'NONE', #65, 0.2499999999999999445 ) ;
#219 = ORIENTED_EDGE ( 'NONE', *, *, #263, .T. ) ;
#220 = EDGE_CURVE ( 'NONE', #137, #137, #181, .T. ) ;
#221 = CARTESIAN_POINT ( 'NONE',  ( 1.312796983405018142E-13, -4.604671964794047724E-15, 37.60000000000000142 ) ) ;
#222 = CARTESIAN_POINT ( 'NONE',  ( 9.776147748760773395E-15, 0.8349999999999995204, 2.799999999999999822 ) ) ;
#223 = ORIENTED_EDGE ( 'NONE', *, *, #75, .F. ) ;
#224 = VERTEX_POINT ( 'NONE', #63 ) ;
#225 = ADVANCED_FACE ( 'NONE', ( #70, #185 ), #235, .T. ) ;
#226 = DIRECTION ( 'NONE',  ( -4.275831445896958607E-31, -1.000000000000000000, -1.224646799147353207E-16 ) ) ;
#227 = COORDINATED_UNIVERSAL_TIME_OFFSET ( 1, 0, .AHEAD. ) ;
#228 = DIRECTION ( 'NONE',  ( -3.491481338843133355E-15, 1.224646799147353207E-16, -1.000000000000000000 ) ) ;
#229 = DIRECTION ( 'NONE',  ( 4.338314491551686298E-31, 1.000000000000000000, 1.224646799147353207E-16 ) ) ;
#230 = AXIS2_PLACEMENT_3D ( 'NONE', #26, #211, #129 ) ;
#231 = PERSON_AND_ORGANIZATION ( #128, #106 ) ;
#232 = DIRECTION ( 'NONE',  ( -3.491481338843133355E-15, 1.224646799147353207E-16, -1.000000000000000000 ) ) ;
#233 = SHAPE_DEFINITION_REPRESENTATION ( #264, #316 ) ;
#234 = DIRECTION ( 'NONE',  ( -3.491481338843133355E-15, 1.224646799147353207E-16, -1.000000000000000000 ) ) ;
#235 = CYLINDRICAL_SURFACE ( 'NONE', #342, 0.2499999999999998890 ) ;
#236 = SECURITY_CLASSIFICATION ( '', '', #66 ) ;
#237 = DIRECTION ( 'NONE',  ( -3.491481338843133355E-15, 1.224646799147353207E-16, -1.000000000000000000 ) ) ;
#238 = CARTESIAN_POINT ( 'NONE',  ( 1.312796983405018142E-13, 1.999999999999993117, 37.60000000000000142 ) ) ;
#239 = ADVANCED_FACE ( 'NONE', ( #107, #158 ), #104, .T. ) ;
#240 = DIRECTION ( 'NONE',  ( -4.275831445896958607E-31, -1.000000000000000000, -1.224646799147353207E-16 ) ) ;
#241 = APPROVAL_PERSON_ORGANIZATION ( #261, #275, #255 ) ;
#242 = EDGE_LOOP ( 'NONE', ( #166 ) ) ;
#243 = ORIENTED_EDGE ( 'NONE', *, *, #133, .T. ) ;
#244 = CIRCLE ( 'NONE', #30, 1.999999999999997780 ) ;
#245 = DIRECTION ( 'NONE',  ( -3.491481338843133355E-15, 1.224646799147353207E-16, -1.000000000000000000 ) ) ;
#246 = DIRECTION ( 'NONE',  ( -3.491481338843133355E-15, 1.224646799147353207E-16, -1.000000000000000000 ) ) ;
#247 = CC_DESIGN_PERSON_AND_ORGANIZATION_ASSIGNMENT ( #93, #175, ( #236 ) ) ;
#248 = DIRECTION ( 'NONE',  ( 0.0000000000000000000, -1.000000000000000000, 0.0000000000000000000 ) ) ;
#249 = FACE_OUTER_BOUND ( 'NONE', #292, .T. ) ;
#250 = PERSON_AND_ORGANIZATION ( #128, #106 ) ;
#251 = AXIS2_PLACEMENT_3D ( 'NONE', #99, #209, #205 ) ;
#252 = CC_DESIGN_SECURITY_CLASSIFICATION ( #236, ( #6 ) ) ;
#253 = DIRECTION ( 'NONE',  ( 0.0000000000000000000, 0.0000000000000000000, 1.000000000000000000 ) ) ;
#254 = CYLINDRICAL_SURFACE ( 'NONE', #71, 1.999999999999997335 ) ;
#255 = APPROVAL_ROLE ( '' ) ;
#256 = EDGE_LOOP ( 'NONE', ( #54 ) ) ;
#257 = DATE_AND_TIME ( #102, #182 ) ;
#258 = DIRECTION ( 'NONE',  ( 4.275831445896957731E-31, 1.000000000000000000, 1.224646799147353207E-16 ) ) ;
#259 = AXIS2_PLACEMENT_3D ( 'NONE', #109, #111, #8 ) ;
#260 = APPROVAL_PERSON_ORGANIZATION ( #338, #312, #95 ) ;
#261 = PERSON_AND_ORGANIZATION ( #128, #106 ) ;
#262 = CARTESIAN_POINT ( 'NONE',  ( 9.776147748760773395E-15, 9.957568719378326261E-33, 2.799999999999999822 ) ) ;
#263 = EDGE_CURVE ( 'NONE', #147, #147, #191, .T. ) ;
#264 = PRODUCT_DEFINITION_SHAPE ( 'NONE', 'NONE',  #33 ) ;
#265 = DIRECTION ( 'NONE',  ( 3.491481338843133355E-15, -1.224646799147353207E-16, 1.000000000000000000 ) ) ;
#266 = FACE_OUTER_BOUND ( 'NONE', #116, .T. ) ;
#267 = AXIS2_PLACEMENT_3D ( 'NONE', #150, #92, #94 ) ;
#268 = DIRECTION ( 'NONE',  ( 4.275831445896958607E-31, 1.000000000000000000, 1.224646799147353207E-16 ) ) ;
#269 = VERTEX_POINT ( 'NONE', #32 ) ;
#270 = VERTEX_POINT ( 'NONE', #271 ) ;
#271 = CARTESIAN_POINT ( 'NONE',  ( 9.776147748760773395E-15, 0.4928884838083977815, 2.799999999999999822 ) ) ;
#272 = ADVANCED_FACE ( 'NONE', ( #313, #16 ), #214, .F. ) ;
#273 = EDGE_LOOP ( 'NONE', ( #219 ) ) ;
#274 = EDGE_LOOP ( 'NONE', ( #167 ) ) ;
#275 = APPROVAL ( #22, 'UNSPECIFIED' ) ;
#276 = DIRECTION ( 'NONE',  ( 0.0000000000000000000, 1.000000000000000000, 0.0000000000000000000 ) ) ;
#277 = MANIFOLD_SOLID_BREP ( 'Corps-Déplacer/Copier1[1]', #300 ) ;
#278 = PERSON_AND_ORGANIZATION ( #128, #106 ) ;
#279 = EDGE_LOOP ( 'NONE', ( #168 ) ) ;
#280 = APPROVAL_STATUS ( 'not_yet_approved' ) ;
#281 = CC_DESIGN_PERSON_AND_ORGANIZATION_ASSIGNMENT ( #250, #23, ( #33 ) ) ;
#282 = DATE_AND_TIME ( #340, #155 ) ;
#283 = DIRECTION ( 'NONE',  ( -3.491481338843133355E-15, 1.224646799147353207E-16, -1.000000000000000000 ) ) ;
#284 = APPROVAL_DATE_TIME ( #41, #103 ) ;
#285 = DIRECTION ( 'NONE',  ( -3.491481338843133355E-15, 1.224646799147353207E-16, -1.000000000000000000 ) ) ;
#286 = AXIS2_PLACEMENT_3D ( 'NONE', #262, #265, #28 ) ;
#287 = AXIS2_PLACEMENT_3D ( 'NONE', #311, #253, #124 ) ;
#288 = CARTESIAN_POINT ( 'NONE',  ( 2.719859855912650389E-14, -9.539984159779177421E-16, 7.789988236952307687 ) ) ;
#289 = FACE_BOUND ( 'NONE', #117, .T. ) ;
#290 = AXIS2_PLACEMENT_3D ( 'NONE', #43, #183, #156 ) ;
#291 = CARTESIAN_POINT ( 'NONE',  ( 3.840629472727447480E-15, 0.2499999999999998335, 1.100000000000000089 ) ) ;
#292 = EDGE_LOOP ( 'NONE', ( #325 ) ) ;
#293 = VERTEX_POINT ( 'NONE', #321 ) ;
#294 = ORIENTED_EDGE ( 'NONE', *, *, #153, .F. ) ;
#295 = ADVANCED_FACE ( 'NONE', ( #320 ), #187, .F. ) ;
#296 = CIRCLE ( 'NONE', #329, 1.959999999999999964 ) ;
#297 = APPLICATION_CONTEXT ( 'configuration controlled 3d designs of mechanical parts and assemblies' ) ;
#298 = DIRECTION ( 'NONE',  ( -3.491481338843133355E-15, 1.224646799147353207E-16, -1.000000000000000000 ) ) ;
#299 =( NAMED_UNIT ( * ) SI_UNIT ( $, .STERADIAN. ) SOLID_ANGLE_UNIT ( ) );
#300 = CLOSED_SHELL ( 'NONE', ( #86, #239, #126, #322, #213, #177, #29, #272, #7, #113, #89 ) ) ;
#301 = CARTESIAN_POINT ( 'NONE',  ( 6.772994311974852189E-15, 0.2989692899384948088, 1.939862669928808625 ) ) ;
#302 = DIRECTION ( 'NONE',  ( 0.0000000000000000000, 1.000000000000000000, 0.0000000000000000000 ) ) ;
#303 = PERSON_AND_ORGANIZATION_ROLE ( 'design_owner' ) ;
#304 = CYLINDRICAL_SURFACE ( 'NONE', #212, 1.959999999999999964 ) ;
#305 = EDGE_CURVE ( 'NONE', #328, #328, #130, .T. ) ;
#306 = PERSON_AND_ORGANIZATION_ROLE ( 'design_supplier' ) ;
#307 = AXIS2_PLACEMENT_3D ( 'NONE', #315, #237, #68 ) ;
#308 = PLANE ( 'NONE',  #267 ) ;
#309 = COORDINATED_UNIVERSAL_TIME_OFFSET ( 1, 0, .AHEAD. ) ;
#310 = DIRECTION ( 'NONE',  ( 3.491481338843133355E-15, -1.224646799147353207E-16, 1.000000000000000000 ) ) ;
#311 = CARTESIAN_POINT ( 'NONE',  ( 0.0000000000000000000, 0.0000000000000000000, 0.0000000000000000000 ) ) ;
#312 = APPROVAL ( #69, 'UNSPECIFIED' ) ;
#313 = FACE_BOUND ( 'NONE', #39, .T. ) ;
#314 = CONICAL_SURFACE ( 'NONE', #165, 0.4928884838083981146, 0.2217440814658728776 ) ;
#315 = CARTESIAN_POINT ( 'NONE',  ( 1.326762908760390423E-13, -4.653657836759941941E-15, 38.00000000000000000 ) ) ;
#316 = ADVANCED_BREP_SHAPE_REPRESENTATION ( '388777', ( #277, #44, #287 ), #90 ) ;
#317 = CARTESIAN_POINT ( 'NONE',  ( 3.840629472727447480E-15, -1.347111479062088503E-16, 1.100000000000000089 ) ) ;
#318 = AXIS2_PLACEMENT_3D ( 'NONE', #14, #216, #120 ) ;
#319 = LOCAL_TIME ( 11, 14, 48.00000000000000000, #309 ) ;
#320 = FACE_OUTER_BOUND ( 'NONE', #323, .T. ) ;
#321 = CARTESIAN_POINT ( 'NONE',  ( 5.237222008264700033E-15, 0.2499999999999998335, 1.500000000000000000 ) ) ;
#322 = ADVANCED_FACE ( 'NONE', ( #51, #88 ), #314, .T. ) ;
#323 = EDGE_LOOP ( 'NONE', ( #52 ) ) ;
#324 = AXIS2_PLACEMENT_3D ( 'NONE', #72, #48, #73 ) ;
#325 = ORIENTED_EDGE ( 'NONE', *, *, #2, .T. ) ;
#326 =( LENGTH_UNIT ( ) NAMED_UNIT ( * ) SI_UNIT ( .MILLI., .METRE. ) );
#327 = FACE_OUTER_BOUND ( 'NONE', #114, .T. ) ;
#328 = VERTEX_POINT ( 'NONE', #301 ) ;
#329 = AXIS2_PLACEMENT_3D ( 'NONE', #101, #285, #47 ) ;
#330 = APPROVAL_DATE_TIME ( #134, #312 ) ;
#331 = EDGE_CURVE ( 'NONE', #270, #270, #208, .T. ) ;
#332 = APPLICATION_PROTOCOL_DEFINITION ( 'international standard', 'config_control_design', 1994, #58 ) ;
#333 = ORIENTED_EDGE ( 'NONE', *, *, #159, .F. ) ;
#334 = DATE_TIME_ROLE ( 'classification_date' ) ;
#335 = AXIS2_PLACEMENT_3D ( 'NONE', #132, #232, #339 ) ;
#336 = FACE_BOUND ( 'NONE', #242, .T. ) ;
#337 = EDGE_CURVE ( 'NONE', #172, #172, #169, .T. ) ;
#338 = PERSON_AND_ORGANIZATION ( #128, #106 ) ;
#339 = DIRECTION ( 'NONE',  ( 0.0000000000000000000, 1.000000000000000000, 0.0000000000000000000 ) ) ;
#340 = CALENDAR_DATE ( 2021, 13, 12 ) ;
#341 = DIRECTION ( 'NONE',  ( -4.275831445896958607E-31, -1.000000000000000000, -1.224646799147353207E-16 ) ) ;
#342 = AXIS2_PLACEMENT_3D ( 'NONE', #343, #283, #268 ) ;
#343 = CARTESIAN_POINT ( 'NONE',  ( 0.0000000000000000000, 0.0000000000000000000, 0.0000000000000000000 ) ) ;
ENDSEC;
END-ISO-10303-21;
