ISO-10303-21;
HEADER;
FILE_DESCRIPTION (( 'STEP AP203' ),
    '1' );
FILE_NAME ('388776.step',
    '2021-12-13T10:14:47',
    ( '' ),
    ( '' ),
    'SwSTEP 2.0',
    'SolidWorks 2019',
    '' );
FILE_SCHEMA (( 'CONFIG_CONTROL_DESIGN' ));
ENDSEC;

DATA;
#1 = DIRECTION ( 'NONE',  ( -3.491481338843133355E-15, 1.224646799147353207E-16, -1.000000000000000000 ) ) ;
#2 = CARTESIAN_POINT ( 'NONE',  ( 6.633814543801952586E-15, -2.326828918379970872E-16, 1.899999999999999689 ) ) ;
#3 = DIRECTION ( 'NONE',  ( 0.0000000000000000000, 1.000000000000000000, 0.0000000000000000000 ) ) ;
#4 = CC_DESIGN_DATE_AND_TIME_ASSIGNMENT ( #130, #101, ( #219 ) ) ;
#5 = CARTESIAN_POINT ( 'NONE',  ( 4.189777606611758449E-15, 0.0000000000000000000, 1.199999999999999734 ) ) ;
#6 = FACE_OUTER_BOUND ( 'NONE', #230, .T. ) ;
#7 = EDGE_LOOP ( 'NONE', ( #307 ) ) ;
#8 = VERTEX_POINT ( 'NONE', #117 ) ;
#9 = AXIS2_PLACEMENT_3D ( 'NONE', #39, #20, #232 ) ;
#10 = CC_DESIGN_APPROVAL ( #84, ( #219 ) ) ;
#11 = EDGE_CURVE ( 'NONE', #168, #168, #128, .T. ) ;
#12 = DIRECTION ( 'NONE',  ( -3.491481338843133355E-15, 1.224646799147353207E-16, -1.000000000000000000 ) ) ;
#13 = PERSON_AND_ORGANIZATION_ROLE ( 'design_owner' ) ;
#14 = ORIENTED_EDGE ( 'NONE', *, *, #125, .F. ) ;
#15 = CIRCLE ( 'NONE', #104, 0.2000000000000000111 ) ;
#16 = DIRECTION ( 'NONE',  ( 3.491481338843133355E-15, -1.224646799147353207E-16, 1.000000000000000000 ) ) ;
#17 = AXIS2_PLACEMENT_3D ( 'NONE', #174, #276, #324 ) ;
#18 = ADVANCED_FACE ( 'NONE', ( #40, #150 ), #33, .T. ) ;
#19 = PERSON_AND_ORGANIZATION ( #160, #200 ) ;
#20 = DIRECTION ( 'NONE',  ( 3.491481338843133355E-15, -1.224646799147353207E-16, 1.000000000000000000 ) ) ;
#21 = CARTESIAN_POINT ( 'NONE',  ( 5.641617183846770622E-15, 0.2437047985323860522, 1.615823381635504541 ) ) ;
#22 = EDGE_LOOP ( 'NONE', ( #288 ) ) ;
#23 = ORIENTED_EDGE ( 'NONE', *, *, #303, .F. ) ;
#24 = AXIS2_PLACEMENT_3D ( 'NONE', #95, #146, #205 ) ;
#25 = COORDINATED_UNIVERSAL_TIME_OFFSET ( 1, 0, .AHEAD. ) ;
#26 = DIRECTION ( 'NONE',  ( 3.491481338843133355E-15, -1.224646799147353207E-16, 1.000000000000000000 ) ) ;
#27 = FACE_BOUND ( 'NONE', #100, .T. ) ;
#28 = SECURITY_CLASSIFICATION_LEVEL ( 'unclassified' ) ;
#29 = AXIS2_PLACEMENT_3D ( 'NONE', #108, #26, #132 ) ;
#30 = FACE_OUTER_BOUND ( 'NONE', #180, .T. ) ;
#31 = CARTESIAN_POINT ( 'NONE',  ( 3.142333204958820020E-15, 1.499759782661856068E-33, 0.9000000000000000222 ) ) ;
#32 = PRODUCT_DEFINITION ( 'UNKNOWN', '', #266, #310 ) ;
#33 = CONICAL_SURFACE ( 'NONE', #9, 1.959999999999999520, 0.2094395102393127317 ) ;
#34 = EDGE_CURVE ( 'NONE', #144, #144, #330, .T. ) ;
#35 = FACE_OUTER_BOUND ( 'NONE', #251, .T. ) ;
#36 = DIRECTION ( 'NONE',  ( 0.0000000000000000000, 1.000000000000000000, 0.0000000000000000000 ) ) ;
#37 = TOROIDAL_SURFACE ( 'NONE', #71, 2.200000000000000178, 2.000000000000000000 ) ;
#38 = CARTESIAN_POINT ( 'NONE',  ( 3.212162831735682687E-14, 1.959999999999998632, 9.199999999999999289 ) ) ;
#39 = CARTESIAN_POINT ( 'NONE',  ( 2.700221355322303872E-14, -9.471101572264071548E-16, 7.733741335753478552 ) ) ;
#40 = FACE_BOUND ( 'NONE', #129, .T. ) ;
#41 = EDGE_LOOP ( 'NONE', ( #264 ) ) ;
#42 = APPROVAL_PERSON_ORGANIZATION ( #243, #84, #294 ) ;
#43 = CYLINDRICAL_SURFACE ( 'NONE', #235, 1.959999999999999964 ) ;
#44 = DIRECTION ( 'NONE',  ( -3.491481338843133355E-15, 1.224646799147353207E-16, -1.000000000000000000 ) ) ;
#45 = DATE_AND_TIME ( #72, #286 ) ;
#46 = CARTESIAN_POINT ( 'NONE',  ( 1.326762908760390423E-13, 1.199807826129477602E-32, 38.00000000000000000 ) ) ;
#47 = LOCAL_TIME ( 11, 14, 47.00000000000000000, #25 ) ;
#48 = DIRECTION ( 'NONE',  ( 3.491481338843133355E-15, -1.224646799147353207E-16, 1.000000000000000000 ) ) ;
#49 = CYLINDRICAL_SURFACE ( 'NONE', #115, 1.999999999999997335 ) ;
#50 = PERSON_AND_ORGANIZATION_ROLE ( 'creator' ) ;
#51 = FACE_BOUND ( 'NONE', #259, .T. ) ;
#52 = AXIS2_PLACEMENT_3D ( 'NONE', #245, #138, #247 ) ;
#53 = PERSON_AND_ORGANIZATION ( #160, #200 ) ;
#54 = FACE_OUTER_BOUND ( 'NONE', #82, .T. ) ;
#55 = DIRECTION ( 'NONE',  ( -3.491481338843133355E-15, 1.224646799147353207E-16, -1.000000000000000000 ) ) ;
#56 = DIRECTION ( 'NONE',  ( -3.491481338843133355E-15, 1.224646799147353207E-16, -1.000000000000000000 ) ) ;
#57 = AXIS2_PLACEMENT_3D ( 'NONE', #68, #340, #213 ) ;
#58 = VERTEX_POINT ( 'NONE', #171 ) ;
#59 = EDGE_CURVE ( 'NONE', #254, #254, #195, .T. ) ;
#60 = EDGE_LOOP ( 'NONE', ( #329 ) ) ;
#61 = FACE_OUTER_BOUND ( 'NONE', #238, .T. ) ;
#62 = DIRECTION ( 'NONE',  ( 1.000000000000000000, 0.0000000000000000000, 0.0000000000000000000 ) ) ;
#63 = CLOSED_SHELL ( 'NONE', ( #102, #244, #343, #181, #89, #18, #74, #149, #223, #155, #114 ) ) ;
#64 = ORIENTED_EDGE ( 'NONE', *, *, #270, .T. ) ;
#65 = AXIS2_PLACEMENT_3D ( 'NONE', #131, #1, #190 ) ;
#66 = FACE_OUTER_BOUND ( 'NONE', #60, .T. ) ;
#67 = EDGE_LOOP ( 'NONE', ( #87 ) ) ;
#68 = CARTESIAN_POINT ( 'NONE',  ( -6.414479494083433597E-32, 2.249896539108652856E-33, -1.837179945005464826E-17 ) ) ;
#69 = FACE_OUTER_BOUND ( 'NONE', #41, .T. ) ;
#70 = AXIS2_PLACEMENT_3D ( 'NONE', #317, #134, #167 ) ;
#71 = AXIS2_PLACEMENT_3D ( 'NONE', #5, #113, #275 ) ;
#72 = CALENDAR_DATE ( 2021, 13, 12 ) ;
#73 = DIRECTION ( 'NONE',  ( -4.275831445896958607E-31, -1.000000000000000000, -1.224646799147353207E-16 ) ) ;
#74 = ADVANCED_FACE ( 'NONE', ( #185, #66 ), #43, .T. ) ;
#75 = APPROVAL_ROLE ( '' ) ;
#76 = DIRECTION ( 'NONE',  ( 4.275831445896959482E-31, 1.000000000000000000, 1.224646799147353454E-16 ) ) ;
#77 = AXIS2_PLACEMENT_3D ( 'NONE', #31, #48, #73 ) ;
#78 = APPROVAL_PERSON_ORGANIZATION ( #292, #209, #75 ) ;
#79 = ADVANCED_FACE ( 'NONE', ( #202 ), #178, .T. ) ;
#80 = PLANE ( 'NONE',  #312 ) ;
#81 = DIRECTION ( 'NONE',  ( 0.0000000000000000000, 1.000000000000000000, 0.0000000000000000000 ) ) ;
#82 = EDGE_LOOP ( 'NONE', ( #197 ) ) ;
#83 = CARTESIAN_POINT ( 'NONE',  ( 1.312796983405018142E-13, -4.604671964794047724E-15, 37.60000000000000142 ) ) ;
#84 = APPROVAL ( #315, 'UNSPECIFIED' ) ;
#85 = EDGE_LOOP ( 'NONE', ( #203 ) ) ;
#86 = CONICAL_SURFACE ( 'NONE', #29, 0.3041084034389550661, 0.2094395102393115937 ) ;
#87 = ORIENTED_EDGE ( 'NONE', *, *, #320, .T. ) ;
#88 = CARTESIAN_POINT ( 'NONE',  ( 1.326762908760390423E-13, 1.599999999999993205, 38.00000000000000000 ) ) ;
#89 = ADVANCED_FACE ( 'NONE', ( #240, #103 ), #298, .F. ) ;
#90 = AXIS2_PLACEMENT_3D ( 'NONE', #333, #44, #148 ) ;
#91 = APPROVAL_PERSON_ORGANIZATION ( #19, #252, #339 ) ;
#92 = ORIENTED_EDGE ( 'NONE', *, *, #119, .T. ) ;
#93 = ORIENTED_EDGE ( 'NONE', *, *, #59, .F. ) ;
#94 = CARTESIAN_POINT ( 'NONE',  ( 3.212162831735682687E-14, 1.999999999999995337, 9.199999999999999289 ) ) ;
#95 = CARTESIAN_POINT ( 'NONE',  ( 4.189777606611759237E-15, -1.469576158976823553E-16, 1.199999999999999956 ) ) ;
#96 =( NAMED_UNIT ( * ) SI_UNIT ( $, .STERADIAN. ) SOLID_ANGLE_UNIT ( ) );
#97 = CIRCLE ( 'NONE', #17, 0.2437047985323862465 ) ;
#98 = EDGE_LOOP ( 'NONE', ( #311 ) ) ;
#99 = CALENDAR_DATE ( 2021, 13, 12 ) ;
#100 = EDGE_LOOP ( 'NONE', ( #336 ) ) ;
#101 = DATE_TIME_ROLE ( 'classification_date' ) ;
#102 = ADVANCED_FACE ( 'NONE', ( #211 ), #319, .F. ) ;
#103 = FACE_OUTER_BOUND ( 'NONE', #325, .T. ) ;
#104 = AXIS2_PLACEMENT_3D ( 'NONE', #196, #172, #36 ) ;
#105 = SHAPE_DEFINITION_REPRESENTATION ( #110, #304 ) ;
#106 = CARTESIAN_POINT ( 'NONE',  ( 0.0000000000000000000, 0.0000000000000000000, 0.0000000000000000000 ) ) ;
#107 = DIRECTION ( 'NONE',  ( -3.491481338843133355E-15, 1.224646799147353207E-16, -1.000000000000000000 ) ) ;
#108 = CARTESIAN_POINT ( 'NONE',  ( 6.633814543801953375E-15, -2.326828918379971365E-16, 1.899999999999999911 ) ) ;
#109 = DIRECTION ( 'NONE',  ( -3.491481338843133355E-15, 1.224646799147353207E-16, -1.000000000000000000 ) ) ;
#110 = PRODUCT_DEFINITION_SHAPE ( 'NONE', 'NONE',  #32 ) ;
#111 = ORIENTED_EDGE ( 'NONE', *, *, #270, .F. ) ;
#112 = APPLICATION_CONTEXT ( 'configuration controlled 3d designs of mechanical parts and assemblies' ) ;
#113 = DIRECTION ( 'NONE',  ( -3.491481338843133355E-15, 1.224646799147353207E-16, -1.000000000000000000 ) ) ;
#114 = ADVANCED_FACE ( 'NONE', ( #54 ), #163, .F. ) ;
#115 = AXIS2_PLACEMENT_3D ( 'NONE', #106, #107, #76 ) ;
#116 = PRODUCT ( '388776', '388776', '', ( #176 ) ) ;
#117 = CARTESIAN_POINT ( 'NONE',  ( 6.633814543801953375E-15, 0.3041084034389548441, 1.899999999999999911 ) ) ;
#118 = FACE_OUTER_BOUND ( 'NONE', #260, .T. ) ;
#119 = EDGE_CURVE ( 'NONE', #58, #58, #218, .T. ) ;
#120 = VERTEX_POINT ( 'NONE', #151 ) ;
#121 = ORIENTED_EDGE ( 'NONE', *, *, #220, .F. ) ;
#122 = VERTEX_POINT ( 'NONE', #21 ) ;
#123 = CIRCLE ( 'NONE', #65, 1.959999999999999964 ) ;
#124 = DIRECTION ( 'NONE',  ( -4.275831445896958607E-31, -1.000000000000000000, -1.224646799147353207E-16 ) ) ;
#125 = EDGE_CURVE ( 'NONE', #8, #8, #164, .T. ) ;
#126 = ORIENTED_EDGE ( 'NONE', *, *, #11, .F. ) ;
#127 = CALENDAR_DATE ( 2021, 13, 12 ) ;
#128 = CIRCLE ( 'NONE', #182, 0.2000000000000000111 ) ;
#129 = EDGE_LOOP ( 'NONE', ( #257 ) ) ;
#130 = DATE_AND_TIME ( #127, #136 ) ;
#131 = CARTESIAN_POINT ( 'NONE',  ( 3.212162831735682687E-14, -1.126675055215564822E-15, 9.199999999999999289 ) ) ;
#132 = DIRECTION ( 'NONE',  ( 0.0000000000000000000, -1.000000000000000000, 0.0000000000000000000 ) ) ;
#133 = APPROVAL_STATUS ( 'not_yet_approved' ) ;
#134 = DIRECTION ( 'NONE',  ( -3.491481338843133355E-15, 1.224646799147353207E-16, -1.000000000000000000 ) ) ;
#135 = AXIS2_PLACEMENT_3D ( 'NONE', #199, #56, #3 ) ;
#136 = LOCAL_TIME ( 11, 14, 47.00000000000000000, #265 ) ;
#137 = PERSON_AND_ORGANIZATION ( #160, #200 ) ;
#138 = DIRECTION ( 'NONE',  ( -3.491481338843133355E-15, 1.224646799147353207E-16, -1.000000000000000000 ) ) ;
#139 = EDGE_CURVE ( 'NONE', #225, #225, #142, .T. ) ;
#140 = FACE_OUTER_BOUND ( 'NONE', #85, .T. ) ;
#141 = FACE_OUTER_BOUND ( 'NONE', #305, .T. ) ;
#142 = CIRCLE ( 'NONE', #188, 1.959999999999999520 ) ;
#143 = DIRECTION ( 'NONE',  ( 3.491481338843133355E-15, -1.224646799147353207E-16, 1.000000000000000000 ) ) ;
#144 = VERTEX_POINT ( 'NONE', #88 ) ;
#145 = CARTESIAN_POINT ( 'NONE',  ( -3.207239747041716799E-32, 1.124948269554326428E-33, -9.185899725027324128E-18 ) ) ;
#146 = DIRECTION ( 'NONE',  ( -3.491481338843133355E-15, 1.224646799147353207E-16, -1.000000000000000000 ) ) ;
#147 =( NAMED_UNIT ( * ) PLANE_ANGLE_UNIT ( ) SI_UNIT ( $, .RADIAN. ) );
#148 = DIRECTION ( 'NONE',  ( 0.0000000000000000000, 1.000000000000000000, 0.0000000000000000000 ) ) ;
#149 = ADVANCED_FACE ( 'NONE', ( #51, #69 ), #342, .F. ) ;
#150 = FACE_OUTER_BOUND ( 'NONE', #22, .T. ) ;
#151 = CARTESIAN_POINT ( 'NONE',  ( 3.142333204958820020E-15, 0.1999999999999999001, 0.9000000000000000222 ) ) ;
#152 = DIRECTION ( 'NONE',  ( 4.275831445896958607E-31, 1.000000000000000000, 1.224646799147353207E-16 ) ) ;
#153 = AXIS2_PLACEMENT_3D ( 'NONE', #2, #248, #242 ) ;
#154 = DIRECTION ( 'NONE',  ( 4.275831445896958607E-31, 1.000000000000000000, 1.224646799147353207E-16 ) ) ;
#155 = ADVANCED_FACE ( 'NONE', ( #30, #27 ), #206, .T. ) ;
#156 = DATE_TIME_ROLE ( 'creation_date' ) ;
#157 = CARTESIAN_POINT ( 'NONE',  ( 2.700221355322303872E-14, -9.471101572264071548E-16, 7.733741335753478552 ) ) ;
#158 = APPROVAL_DATE_TIME ( #239, #252 ) ;
#159 = FACE_BOUND ( 'NONE', #177, .T. ) ;
#160 = PERSON ( 'UNSPECIFIED', 'UNSPECIFIED', 'UNSPECIFIED', ('UNSPECIFIED'), ('UNSPECIFIED'), ('UNSPECIFIED') ) ;
#161 = CC_DESIGN_PERSON_AND_ORGANIZATION_ASSIGNMENT ( #53, #50, ( #32 ) ) ;
#162 = COORDINATED_UNIVERSAL_TIME_OFFSET ( 1, 0, .AHEAD. ) ;
#163 = PLANE ( 'NONE',  #277 ) ;
#164 = CIRCLE ( 'NONE', #70, 0.3041084034389550661 ) ;
#165 = LOCAL_TIME ( 11, 14, 47.00000000000000000, #191 ) ;
#166 = CALENDAR_DATE ( 2021, 13, 12 ) ;
#167 = DIRECTION ( 'NONE',  ( 0.0000000000000000000, 1.000000000000000000, 0.0000000000000000000 ) ) ;
#168 = VERTEX_POINT ( 'NONE', #250 ) ;
#169 = ORIENTED_EDGE ( 'NONE', *, *, #303, .T. ) ;
#170 = MANIFOLD_SOLID_BREP ( 'Corps-Déplacer/Copier1[2]', #290 ) ;
#171 = CARTESIAN_POINT ( 'NONE',  ( 6.633814543801952586E-15, 0.7199999999999997513, 1.899999999999999689 ) ) ;
#172 = DIRECTION ( 'NONE',  ( -3.491481338843133355E-15, 1.224646799147353207E-16, -1.000000000000000000 ) ) ;
#173 = PRODUCT_RELATED_PRODUCT_CATEGORY ( 'detail', '', ( #116 ) ) ;
#174 = CARTESIAN_POINT ( 'NONE',  ( 5.641617183846770622E-15, -1.978812932307372756E-16, 1.615823381635504541 ) ) ;
#175 = CIRCLE ( 'NONE', #57, 0.1999999999999999001 ) ;
#176 = MECHANICAL_CONTEXT ( 'NONE', #282, 'mechanical' ) ;
#177 = EDGE_LOOP ( 'NONE', ( #111 ) ) ;
#178 = PLANE ( 'NONE',  #301 ) ;
#179 = APPLICATION_PROTOCOL_DEFINITION ( 'international standard', 'config_control_design', 1994, #282 ) ;
#180 = EDGE_LOOP ( 'NONE', ( #326 ) ) ;
#181 = ADVANCED_FACE ( 'NONE', ( #159, #140 ), #86, .T. ) ;
#182 = AXIS2_PLACEMENT_3D ( 'NONE', #279, #227, #233 ) ;
#183 = VERTEX_POINT ( 'NONE', #309 ) ;
#184 = ORIENTED_EDGE ( 'NONE', *, *, #214, .F. ) ;
#185 = FACE_OUTER_BOUND ( 'NONE', #335, .T. ) ;
#186 = DATE_AND_TIME ( #166, #165 ) ;
#187 = DIRECTION ( 'NONE',  ( 3.491481338843133355E-15, -1.224646799147353207E-16, 1.000000000000000000 ) ) ;
#188 = AXIS2_PLACEMENT_3D ( 'NONE', #157, #189, #321 ) ;
#189 = DIRECTION ( 'NONE',  ( -3.491481338843133355E-15, 1.224646799147353207E-16, -1.000000000000000000 ) ) ;
#190 = DIRECTION ( 'NONE',  ( 0.0000000000000000000, 1.000000000000000000, 0.0000000000000000000 ) ) ;
#191 = COORDINATED_UNIVERSAL_TIME_OFFSET ( 1, 0, .AHEAD. ) ;
#192 = DIRECTION ( 'NONE',  ( -4.275831445896958607E-31, -1.000000000000000000, -1.224646799147353207E-16 ) ) ;
#193 = PERSON_AND_ORGANIZATION_ROLE ( 'creator' ) ;
#194 = FACE_OUTER_BOUND ( 'NONE', #224, .T. ) ;
#195 = CIRCLE ( 'NONE', #24, 0.2000000000000000389 ) ;
#196 = CARTESIAN_POINT ( 'NONE',  ( 3.142333204958820020E-15, -1.102182119232617788E-16, 0.9000000000000000222 ) ) ;
#197 = ORIENTED_EDGE ( 'NONE', *, *, #34, .F. ) ;
#198 = CC_DESIGN_PERSON_AND_ORGANIZATION_ASSIGNMENT ( #337, #193, ( #266 ) ) ;
#199 = CARTESIAN_POINT ( 'NONE',  ( 3.212162831735682687E-14, -1.126675055215564822E-15, 9.199999999999999289 ) ) ;
#200 = ORGANIZATION ( 'UNSPECIFIED', 'UNSPECIFIED', '' ) ;
#201 = VERTEX_POINT ( 'NONE', #38 ) ;
#202 = FACE_OUTER_BOUND ( 'NONE', #313, .T. ) ;
#203 = ORIENTED_EDGE ( 'NONE', *, *, #125, .T. ) ;
#204 = CARTESIAN_POINT ( 'NONE',  ( 2.137183397710479182E-32, 0.1999999999999999001, 6.121136532892404794E-18 ) ) ;
#205 = DIRECTION ( 'NONE',  ( 0.0000000000000000000, 1.000000000000000000, 0.0000000000000000000 ) ) ;
#206 = CONICAL_SURFACE ( 'NONE', #52, 1.599999999999997646, 0.7853981633974516097 ) ;
#207 = PERSON_AND_ORGANIZATION ( #160, #200 ) ;
#208 = DIRECTION ( 'NONE',  ( -3.491481338843133355E-15, 1.224646799147353207E-16, -1.000000000000000000 ) ) ;
#209 = APPROVAL ( #133, 'UNSPECIFIED' ) ;
#210 = EDGE_LOOP ( 'NONE', ( #14 ) ) ;
#211 = FACE_OUTER_BOUND ( 'NONE', #284, .T. ) ;
#212 = AXIS2_PLACEMENT_3D ( 'NONE', #291, #338, #192 ) ;
#213 = DIRECTION ( 'NONE',  ( 4.275831445896958607E-31, 1.000000000000000000, 1.224646799147353207E-16 ) ) ;
#214 = EDGE_CURVE ( 'NONE', #231, #231, #175, .T. ) ;
#215 = PERSON_AND_ORGANIZATION_ROLE ( 'design_supplier' ) ;
#216 = FACE_OUTER_BOUND ( 'NONE', #67, .T. ) ;
#217 = FACE_OUTER_BOUND ( 'NONE', #7, .T. ) ;
#218 = CIRCLE ( 'NONE', #153, 0.7199999999999999734 ) ;
#219 = SECURITY_CLASSIFICATION ( '', '', #28 ) ;
#220 = EDGE_CURVE ( 'NONE', #201, #201, #123, .T. ) ;
#221 = CYLINDRICAL_SURFACE ( 'NONE', #228, 0.1999999999999999556 ) ;
#222 = DIRECTION ( 'NONE',  ( 4.275831445896958607E-31, 1.000000000000000000, 1.224646799147353207E-16 ) ) ;
#223 = ADVANCED_FACE ( 'NONE', ( #293, #216 ), #49, .T. ) ;
#224 = EDGE_LOOP ( 'NONE', ( #126 ) ) ;
#225 = VERTEX_POINT ( 'NONE', #327 ) ;
#226 = APPLICATION_PROTOCOL_DEFINITION ( 'international standard', 'config_control_design', 1994, #112 ) ;
#227 = DIRECTION ( 'NONE',  ( -3.491481338843133355E-15, 1.224646799147353207E-16, -1.000000000000000000 ) ) ;
#228 = AXIS2_PLACEMENT_3D ( 'NONE', #299, #109, #222 ) ;
#229 = CARTESIAN_POINT ( 'NONE',  ( 0.0000000000000000000, 0.0000000000000000000, 0.0000000000000000000 ) ) ;
#230 = EDGE_LOOP ( 'NONE', ( #93 ) ) ;
#231 = VERTEX_POINT ( 'NONE', #204 ) ;
#232 = DIRECTION ( 'NONE',  ( 0.0000000000000000000, -1.000000000000000000, 0.0000000000000000000 ) ) ;
#233 = DIRECTION ( 'NONE',  ( 0.0000000000000000000, 1.000000000000000000, 0.0000000000000000000 ) ) ;
#234 = CC_DESIGN_PERSON_AND_ORGANIZATION_ASSIGNMENT ( #137, #236, ( #219 ) ) ;
#235 = AXIS2_PLACEMENT_3D ( 'NONE', #262, #208, #152 ) ;
#236 = PERSON_AND_ORGANIZATION_ROLE ( 'classification_officer' ) ;
#237 =( GEOMETRIC_REPRESENTATION_CONTEXT ( 3 ) GLOBAL_UNCERTAINTY_ASSIGNED_CONTEXT ( ( #334 ) ) GLOBAL_UNIT_ASSIGNED_CONTEXT ( ( #263, #147, #96 ) ) REPRESENTATION_CONTEXT ( 'NONE', 'WORKASPACE' ) );
#238 = EDGE_LOOP ( 'NONE', ( #184 ) ) ;
#239 = DATE_AND_TIME ( #246, #272 ) ;
#240 = FACE_BOUND ( 'NONE', #210, .T. ) ;
#241 = COORDINATED_UNIVERSAL_TIME_OFFSET ( 1, 0, .AHEAD. ) ;
#242 = DIRECTION ( 'NONE',  ( 0.0000000000000000000, 1.000000000000000000, 0.0000000000000000000 ) ) ;
#243 = PERSON_AND_ORGANIZATION ( #160, #200 ) ;
#244 = ADVANCED_FACE ( 'NONE', ( #194, #217 ), #289, .T. ) ;
#245 = CARTESIAN_POINT ( 'NONE',  ( 1.326762908760390423E-13, -4.653657836759941941E-15, 38.00000000000000000 ) ) ;
#246 = CALENDAR_DATE ( 2021, 13, 12 ) ;
#247 = DIRECTION ( 'NONE',  ( 0.0000000000000000000, 1.000000000000000000, 0.0000000000000000000 ) ) ;
#248 = DIRECTION ( 'NONE',  ( -3.491481338843133355E-15, 1.224646799147353207E-16, -1.000000000000000000 ) ) ;
#249 = ADVANCED_FACE ( 'NONE', ( #61, #141 ), #221, .T. ) ;
#250 = CARTESIAN_POINT ( 'NONE',  ( 3.142333204958820020E-15, 0.1999999999999999001, 0.9000000000000000222 ) ) ;
#251 = EDGE_LOOP ( 'NONE', ( #64 ) ) ;
#252 = APPROVAL ( #328, 'UNSPECIFIED' ) ;
#253 = DIRECTION ( 'NONE',  ( 4.275831445896958607E-31, 1.000000000000000000, 1.224646799147353207E-16 ) ) ;
#254 = VERTEX_POINT ( 'NONE', #300 ) ;
#255 = CIRCLE ( 'NONE', #297, 1.999999999999997780 ) ;
#256 = AXIS2_PLACEMENT_3D ( 'NONE', #229, #308, #62 ) ;
#257 = ORIENTED_EDGE ( 'NONE', *, *, #119, .F. ) ;
#258 = CC_DESIGN_PERSON_AND_ORGANIZATION_ASSIGNMENT ( #273, #215, ( #266 ) ) ;
#259 = EDGE_LOOP ( 'NONE', ( #121 ) ) ;
#260 = EDGE_LOOP ( 'NONE', ( #332 ) ) ;
#261 = CC_DESIGN_PERSON_AND_ORGANIZATION_ASSIGNMENT ( #207, #13, ( #116 ) ) ;
#262 = CARTESIAN_POINT ( 'NONE',  ( 0.0000000000000000000, 0.0000000000000000000, 0.0000000000000000000 ) ) ;
#263 =( LENGTH_UNIT ( ) NAMED_UNIT ( * ) SI_UNIT ( .MILLI., .METRE. ) );
#264 = ORIENTED_EDGE ( 'NONE', *, *, #316, .T. ) ;
#265 = COORDINATED_UNIVERSAL_TIME_OFFSET ( 1, 0, .AHEAD. ) ;
#266 = PRODUCT_DEFINITION_FORMATION_WITH_SPECIFIED_SOURCE ( 'ANY', '', #116, .NOT_KNOWN. ) ;
#267 = CARTESIAN_POINT ( 'NONE',  ( 0.0000000000000000000, 0.0000000000000000000, 0.0000000000000000000 ) ) ;
#268 = APPROVAL_DATE_TIME ( #341, #84 ) ;
#269 = CARTESIAN_POINT ( 'NONE',  ( 3.212162831735682687E-14, 2.969524369670473466E-32, 9.199999999999999289 ) ) ;
#270 = EDGE_CURVE ( 'NONE', #122, #122, #97, .T. ) ;
#271 = APPROVAL_DATE_TIME ( #186, #209 ) ;
#272 = LOCAL_TIME ( 11, 14, 47.00000000000000000, #162 ) ;
#273 = PERSON_AND_ORGANIZATION ( #160, #200 ) ;
#274 = DIRECTION ( 'NONE',  ( -4.275831445896958607E-31, -1.000000000000000000, -1.224646799147353207E-16 ) ) ;
#275 = DIRECTION ( 'NONE',  ( 4.339058337333290564E-31, 1.000000000000000000, 1.224646799147353207E-16 ) ) ;
#276 = DIRECTION ( 'NONE',  ( -3.491481338843133355E-15, 1.224646799147353207E-16, -1.000000000000000000 ) ) ;
#277 = AXIS2_PLACEMENT_3D ( 'NONE', #46, #295, #154 ) ;
#278 = CC_DESIGN_APPROVAL ( #209, ( #266 ) ) ;
#279 = CARTESIAN_POINT ( 'NONE',  ( 3.142333204958820020E-15, -1.102182119232617788E-16, 0.9000000000000000222 ) ) ;
#280 = VERTEX_POINT ( 'NONE', #94 ) ;
#281 = CARTESIAN_POINT ( 'NONE',  ( 3.142333204958820020E-15, 1.499759782661856068E-33, 0.9000000000000000222 ) ) ;
#282 = APPLICATION_CONTEXT ( 'configuration controlled 3d designs of mechanical parts and assemblies' ) ;
#283 = MANIFOLD_SOLID_BREP ( 'Corps-Déplacer/Copier1[1]', #63 ) ;
#284 = EDGE_LOOP ( 'NONE', ( #314 ) ) ;
#285 = CIRCLE ( 'NONE', #135, 1.999999999999996669 ) ;
#286 = LOCAL_TIME ( 11, 14, 47.00000000000000000, #241 ) ;
#287 = ADVANCED_FACE ( 'NONE', ( #118 ), #80, .F. ) ;
#288 = ORIENTED_EDGE ( 'NONE', *, *, #139, .T. ) ;
#289 = CYLINDRICAL_SURFACE ( 'NONE', #306, 0.2000000000000000389 ) ;
#290 = CLOSED_SHELL ( 'NONE', ( #287, #249, #79 ) ) ;
#291 = CARTESIAN_POINT ( 'NONE',  ( 6.633814543801952586E-15, 3.423487738607853449E-32, 1.899999999999999689 ) ) ;
#292 = PERSON_AND_ORGANIZATION ( #160, #200 ) ;
#293 = FACE_OUTER_BOUND ( 'NONE', #98, .T. ) ;
#294 = APPROVAL_ROLE ( '' ) ;
#295 = DIRECTION ( 'NONE',  ( -3.491481338843133355E-15, 1.224646799147353207E-16, -1.000000000000000000 ) ) ;
#296 = CC_DESIGN_DATE_AND_TIME_ASSIGNMENT ( #45, #156, ( #32 ) ) ;
#297 = AXIS2_PLACEMENT_3D ( 'NONE', #83, #55, #81 ) ;
#298 = PLANE ( 'NONE',  #212 ) ;
#299 = CARTESIAN_POINT ( 'NONE',  ( 0.0000000000000000000, 0.0000000000000000000, 0.0000000000000000000 ) ) ;
#300 = CARTESIAN_POINT ( 'NONE',  ( 4.189777606611759237E-15, 0.1999999999999999001, 1.199999999999999956 ) ) ;
#301 = AXIS2_PLACEMENT_3D ( 'NONE', #281, #16, #124 ) ;
#302 = ORIENTED_EDGE ( 'NONE', *, *, #139, .F. ) ;
#303 = EDGE_CURVE ( 'NONE', #120, #120, #15, .T. ) ;
#304 = ADVANCED_BREP_SHAPE_REPRESENTATION ( '388776', ( #283, #170, #256 ), #237 ) ;
#305 = EDGE_LOOP ( 'NONE', ( #169 ) ) ;
#306 = AXIS2_PLACEMENT_3D ( 'NONE', #267, #12, #253 ) ;
#307 = ORIENTED_EDGE ( 'NONE', *, *, #59, .T. ) ;
#308 = DIRECTION ( 'NONE',  ( 0.0000000000000000000, 0.0000000000000000000, 1.000000000000000000 ) ) ;
#309 = CARTESIAN_POINT ( 'NONE',  ( 1.312796983405018142E-13, 1.999999999999993117, 37.60000000000000142 ) ) ;
#310 = DESIGN_CONTEXT ( 'detailed design', #112, 'design' ) ;
#311 = ORIENTED_EDGE ( 'NONE', *, *, #316, .F. ) ;
#312 = AXIS2_PLACEMENT_3D ( 'NONE', #145, #143, #323 ) ;
#313 = EDGE_LOOP ( 'NONE', ( #23 ) ) ;
#314 = ORIENTED_EDGE ( 'NONE', *, *, #11, .T. ) ;
#315 = APPROVAL_STATUS ( 'not_yet_approved' ) ;
#316 = EDGE_CURVE ( 'NONE', #280, #280, #285, .T. ) ;
#317 = CARTESIAN_POINT ( 'NONE',  ( 6.633814543801953375E-15, -2.326828918379971365E-16, 1.899999999999999911 ) ) ;
#318 = CC_DESIGN_SECURITY_CLASSIFICATION ( #219, ( #266 ) ) ;
#319 = PLANE ( 'NONE',  #77 ) ;
#320 = EDGE_CURVE ( 'NONE', #183, #183, #255, .T. ) ;
#321 = DIRECTION ( 'NONE',  ( 0.0000000000000000000, 1.000000000000000000, 0.0000000000000000000 ) ) ;
#322 = AXIS2_PLACEMENT_3D ( 'NONE', #269, #187, #274 ) ;
#323 = DIRECTION ( 'NONE',  ( -4.275831445896958607E-31, -1.000000000000000000, -1.224646799147353207E-16 ) ) ;
#324 = DIRECTION ( 'NONE',  ( 0.0000000000000000000, 1.000000000000000000, 0.0000000000000000000 ) ) ;
#325 = EDGE_LOOP ( 'NONE', ( #92 ) ) ;
#326 = ORIENTED_EDGE ( 'NONE', *, *, #320, .F. ) ;
#327 = CARTESIAN_POINT ( 'NONE',  ( 2.700221355322303872E-14, 1.959999999999998632, 7.733741335753478552 ) ) ;
#328 = APPROVAL_STATUS ( 'not_yet_approved' ) ;
#329 = ORIENTED_EDGE ( 'NONE', *, *, #220, .T. ) ;
#330 = CIRCLE ( 'NONE', #90, 1.599999999999997646 ) ;
#331 = CC_DESIGN_APPROVAL ( #252, ( #32 ) ) ;
#332 = ORIENTED_EDGE ( 'NONE', *, *, #214, .T. ) ;
#333 = CARTESIAN_POINT ( 'NONE',  ( 1.326762908760390423E-13, -4.653657836759941941E-15, 38.00000000000000000 ) ) ;
#334 = UNCERTAINTY_MEASURE_WITH_UNIT (LENGTH_MEASURE( 1.000000000000000082E-05 ), #263, 'distance_accuracy_value', 'NONE');
#335 = EDGE_LOOP ( 'NONE', ( #302 ) ) ;
#336 = ORIENTED_EDGE ( 'NONE', *, *, #34, .T. ) ;
#337 = PERSON_AND_ORGANIZATION ( #160, #200 ) ;
#338 = DIRECTION ( 'NONE',  ( 3.491481338843133355E-15, -1.224646799147353207E-16, 1.000000000000000000 ) ) ;
#339 = APPROVAL_ROLE ( '' ) ;
#340 = DIRECTION ( 'NONE',  ( -3.491481338843133355E-15, 1.224646799147353207E-16, -1.000000000000000000 ) ) ;
#341 = DATE_AND_TIME ( #99, #47 ) ;
#342 = PLANE ( 'NONE',  #322 ) ;
#343 = ADVANCED_FACE ( 'NONE', ( #35, #6 ), #37, .F. ) ;
ENDSEC;
END-ISO-10303-21;
