ISO-10303-21;
HEADER;
FILE_DESCRIPTION (( 'STEP AP203' ),
    '1' );
FILE_NAME ('388775.step',
    '2021-12-13T10:14:46',
    ( '' ),
    ( '' ),
    'SwSTEP 2.0',
    'SolidWorks 2019',
    '' );
FILE_SCHEMA (( 'CONFIG_CONTROL_DESIGN' ));
ENDSEC;

DATA;
#1 = CARTESIAN_POINT ( 'NONE',  ( 1.326762908760390423E-13, -4.653657836759941941E-15, 38.00000000000000000 ) ) ;
#2 = AXIS2_PLACEMENT_3D ( 'NONE', #98, #233, #25 ) ;
#3 = ADVANCED_FACE ( 'NONE', ( #110, #170 ), #34, .T. ) ;
#4 = VERTEX_POINT ( 'NONE', #234 ) ;
#5 = LOCAL_TIME ( 11, 14, 46.00000000000000000, #81 ) ;
#6 = DIRECTION ( 'NONE',  ( 0.0000000000000000000, 1.000000000000000000, 0.0000000000000000000 ) ) ;
#7 = DIRECTION ( 'NONE',  ( 3.491481338843133355E-15, -1.224646799147353207E-16, 1.000000000000000000 ) ) ;
#8 = ORIENTED_EDGE ( 'NONE', *, *, #96, .F. ) ;
#9 = AXIS2_PLACEMENT_3D ( 'NONE', #240, #60, #238 ) ;
#10 = DIRECTION ( 'NONE',  ( 0.0000000000000000000, -1.000000000000000000, 0.0000000000000000000 ) ) ;
#11 = EDGE_LOOP ( 'NONE', ( #113 ) ) ;
#12 = VERTEX_POINT ( 'NONE', #70 ) ;
#13 = EDGE_LOOP ( 'NONE', ( #189 ) ) ;
#14 = APPLICATION_PROTOCOL_DEFINITION ( 'international standard', 'config_control_design', 1994, #202 ) ;
#15 = EDGE_LOOP ( 'NONE', ( #172 ) ) ;
#16 = APPLICATION_PROTOCOL_DEFINITION ( 'international standard', 'config_control_design', 1994, #260 ) ;
#17 = CARTESIAN_POINT ( 'NONE',  ( 2.444036937190193743E-15, -8.572527594031473190E-17, 0.7000000000000000666 ) ) ;
#18 = CARTESIAN_POINT ( 'NONE',  ( 6.284666409917640040E-15, -2.204364238465235576E-16, 1.800000000000000044 ) ) ;
#19 = ADVANCED_BREP_SHAPE_REPRESENTATION ( '388775', ( #38, #35, #332 ), #194 ) ;
#20 = APPROVAL ( #143, 'UNSPECIFIED' ) ;
#21 = CARTESIAN_POINT ( 'NONE',  ( -3.848305047719291846E-31, 1.349803708357661192E-32, -1.102198372050984135E-16 ) ) ;
#22 = FACE_OUTER_BOUND ( 'NONE', #141, .T. ) ;
#23 = DATE_AND_TIME ( #78, #175 ) ;
#24 = PLANE ( 'NONE',  #257 ) ;
#25 = DIRECTION ( 'NONE',  ( 0.0000000000000000000, 1.000000000000000000, 0.0000000000000000000 ) ) ;
#26 = DIRECTION ( 'NONE',  ( -3.491481338843133355E-15, 1.224646799147353207E-16, -1.000000000000000000 ) ) ;
#27 = AXIS2_PLACEMENT_3D ( 'NONE', #341, #177, #313 ) ;
#28 = EDGE_CURVE ( 'NONE', #269, #269, #242, .T. ) ;
#29 = VERTEX_POINT ( 'NONE', #191 ) ;
#30 = AXIS2_PLACEMENT_3D ( 'NONE', #135, #322, #165 ) ;
#31 = ADVANCED_FACE ( 'NONE', ( #119, #225 ), #333, .F. ) ;
#32 = DIRECTION ( 'NONE',  ( 0.0000000000000000000, 1.000000000000000000, 0.0000000000000000000 ) ) ;
#33 = CARTESIAN_POINT ( 'NONE',  ( 6.284666409917640040E-15, 0.7199999999999996403, 1.800000000000000044 ) ) ;
#34 = CYLINDRICAL_SURFACE ( 'NONE', #266, 0.1499999999999993561 ) ;
#35 = MANIFOLD_SOLID_BREP ( 'Corps-Déplacer/Copier1[2]', #317 ) ;
#36 = DIRECTION ( 'NONE',  ( -3.491481338843133355E-15, 1.224646799147353207E-16, -1.000000000000000000 ) ) ;
#37 = EDGE_LOOP ( 'NONE', ( #222 ) ) ;
#38 = MANIFOLD_SOLID_BREP ( 'Corps-Déplacer/Copier1[1]', #295 ) ;
#39 = CIRCLE ( 'NONE', #2, 1.999999999999994449 ) ;
#40 = ORIENTED_EDGE ( 'NONE', *, *, #96, .T. ) ;
#41 = CARTESIAN_POINT ( 'NONE',  ( 6.284666409917638462E-15, 0.2966197157729529854, 1.799999999999999600 ) ) ;
#42 = EDGE_LOOP ( 'NONE', ( #61 ) ) ;
#43 = ORIENTED_EDGE ( 'NONE', *, *, #320, .F. ) ;
#44 = PERSON_AND_ORGANIZATION ( #282, #236 ) ;
#45 = DIRECTION ( 'NONE',  ( 4.355817272412799955E-31, 1.000000000000000000, 1.224646799147353207E-16 ) ) ;
#46 = CIRCLE ( 'NONE', #129, 0.1499999999999993838 ) ;
#47 = DIRECTION ( 'NONE',  ( 0.0000000000000000000, 1.000000000000000000, 0.0000000000000000000 ) ) ;
#48 = DIRECTION ( 'NONE',  ( -4.275831445896958607E-31, -1.000000000000000000, -1.224646799147353207E-16 ) ) ;
#49 = PERSON_AND_ORGANIZATION ( #282, #236 ) ;
#50 = FACE_OUTER_BOUND ( 'NONE', #11, .T. ) ;
#51 = PLANE ( 'NONE',  #144 ) ;
#52 = ADVANCED_FACE ( 'NONE', ( #268, #152 ), #71, .F. ) ;
#53 = CIRCLE ( 'NONE', #224, 1.959999999999999076 ) ;
#54 =( NAMED_UNIT ( * ) SI_UNIT ( $, .STERADIAN. ) SOLID_ANGLE_UNIT ( ) );
#55 = EDGE_CURVE ( 'NONE', #216, #216, #127, .T. ) ;
#56 = CALENDAR_DATE ( 2021, 13, 12 ) ;
#57 = CIRCLE ( 'NONE', #309, 1.999999999999997780 ) ;
#58 = DIRECTION ( 'NONE',  ( -4.275831445896958607E-31, -1.000000000000000000, -1.224646799147353207E-16 ) ) ;
#59 = ORIENTED_EDGE ( 'NONE', *, *, #297, .T. ) ;
#60 = DIRECTION ( 'NONE',  ( -3.491481338843133355E-15, 1.224646799147353207E-16, -1.000000000000000000 ) ) ;
#61 = ORIENTED_EDGE ( 'NONE', *, *, #55, .T. ) ;
#62 = EDGE_LOOP ( 'NONE', ( #8 ) ) ;
#63 = ADVANCED_FACE ( 'NONE', ( #180 ), #51, .F. ) ;
#64 = VERTEX_POINT ( 'NONE', #168 ) ;
#65 = CIRCLE ( 'NONE', #179, 1.959999999999999520 ) ;
#66 = PRODUCT_DEFINITION_FORMATION_WITH_SPECIFIED_SOURCE ( 'ANY', '', #217, .NOT_KNOWN. ) ;
#67 = EDGE_LOOP ( 'NONE', ( #326 ) ) ;
#68 = VERTEX_POINT ( 'NONE', #221 ) ;
#69 = ORIENTED_EDGE ( 'NONE', *, *, #311, .T. ) ;
#70 = CARTESIAN_POINT ( 'NONE',  ( 1.326762908760390423E-13, 1.599999999999993205, 38.00000000000000000 ) ) ;
#71 = PLANE ( 'NONE',  #187 ) ;
#72 = APPROVAL_ROLE ( '' ) ;
#73 = AXIS2_PLACEMENT_3D ( 'NONE', #201, #340, #104 ) ;
#74 = DIRECTION ( 'NONE',  ( 0.0000000000000000000, 1.000000000000000000, 0.0000000000000000000 ) ) ;
#75 = CALENDAR_DATE ( 2021, 13, 12 ) ;
#76 = CARTESIAN_POINT ( 'NONE',  ( 2.444036937190193743E-15, 1.124819836996387219E-33, 0.7000000000000000666 ) ) ;
#77 = CARTESIAN_POINT ( 'NONE',  ( 3.177248018347251984E-14, -1.114428587224091465E-15, 9.099999999999999645 ) ) ;
#78 = CALENDAR_DATE ( 2021, 13, 12 ) ;
#79 = AXIS2_PLACEMENT_3D ( 'NONE', #173, #280, #120 ) ;
#80 = ADVANCED_FACE ( 'NONE', ( #259 ), #24, .F. ) ;
#81 = COORDINATED_UNIVERSAL_TIME_OFFSET ( 1, 0, .AHEAD. ) ;
#82 = MECHANICAL_CONTEXT ( 'NONE', #260, 'mechanical' ) ;
#83 = CYLINDRICAL_SURFACE ( 'NONE', #230, 1.959999999999999076 ) ;
#84 = FACE_OUTER_BOUND ( 'NONE', #302, .T. ) ;
#85 = AXIS2_PLACEMENT_3D ( 'NONE', #21, #121, #229 ) ;
#86 = APPROVAL_PERSON_ORGANIZATION ( #343, #247, #72 ) ;
#87 = DIRECTION ( 'NONE',  ( 3.491481338843133355E-15, -1.224646799147353207E-16, 1.000000000000000000 ) ) ;
#88 = ORIENTED_EDGE ( 'NONE', *, *, #290, .F. ) ;
#89 = EDGE_CURVE ( 'NONE', #162, #162, #65, .T. ) ;
#90 = EDGE_LOOP ( 'NONE', ( #136 ) ) ;
#91 = COORDINATED_UNIVERSAL_TIME_OFFSET ( 1, 0, .AHEAD. ) ;
#92 = CONICAL_SURFACE ( 'NONE', #156, 0.2966197157729532075, 0.2094395102393050434 ) ;
#93 = CC_DESIGN_APPROVAL ( #286, ( #342 ) ) ;
#94 = ORIENTED_EDGE ( 'NONE', *, *, #320, .T. ) ;
#95 = PERSON_AND_ORGANIZATION_ROLE ( 'design_owner' ) ;
#96 = EDGE_CURVE ( 'NONE', #68, #68, #39, .T. ) ;
#97 = CARTESIAN_POINT ( 'NONE',  ( 3.177248018347251984E-14, 2.969524369670471823E-32, 9.099999999999999645 ) ) ;
#98 = CARTESIAN_POINT ( 'NONE',  ( 3.177248018347251984E-14, -1.114428587224091465E-15, 9.099999999999999645 ) ) ;
#99 = AXIS2_PLACEMENT_3D ( 'NONE', #131, #87, #58 ) ;
#100 = DIRECTION ( 'NONE',  ( -3.491481338843133355E-15, 1.224646799147353207E-16, -1.000000000000000000 ) ) ;
#101 = CC_DESIGN_PERSON_AND_ORGANIZATION_ASSIGNMENT ( #197, #264, ( #342 ) ) ;
#102 = PRODUCT_DEFINITION_SHAPE ( 'NONE', 'NONE',  #342 ) ;
#103 = CARTESIAN_POINT ( 'NONE',  ( 6.284666409917639251E-15, -1.843792905035076502E-15, 1.799999999999999822 ) ) ;
#104 = DIRECTION ( 'NONE',  ( 0.0000000000000000000, 1.000000000000000000, 0.0000000000000000000 ) ) ;
#105 = FACE_OUTER_BOUND ( 'NONE', #245, .T. ) ;
#106 = CARTESIAN_POINT ( 'NONE',  ( 0.0000000000000000000, 0.0000000000000000000, 0.0000000000000000000 ) ) ;
#107 = CIRCLE ( 'NONE', #30, 0.2966197157729532075 ) ;
#108 = CARTESIAN_POINT ( 'NONE',  ( 2.665306541933872222E-14, -9.348636892349337978E-16, 7.633741335753478019 ) ) ;
#109 = CARTESIAN_POINT ( 'NONE',  ( 2.665306541933872222E-14, -9.348636892349337978E-16, 7.633741335753478019 ) ) ;
#110 = FACE_OUTER_BOUND ( 'NONE', #15, .T. ) ;
#111 = CONICAL_SURFACE ( 'NONE', #235, 1.959999999999999076, 0.2094395102393126762 ) ;
#112 = DIRECTION ( 'NONE',  ( -3.491481338843133355E-15, 1.224646799147353207E-16, -1.000000000000000000 ) ) ;
#113 = ORIENTED_EDGE ( 'NONE', *, *, #290, .T. ) ;
#114 =( NAMED_UNIT ( * ) PLANE_ANGLE_UNIT ( ) SI_UNIT ( $, .RADIAN. ) );
#115 = ORIENTED_EDGE ( 'NONE', *, *, #199, .T. ) ;
#116 = APPROVAL_STATUS ( 'not_yet_approved' ) ;
#117 = CC_DESIGN_PERSON_AND_ORGANIZATION_ASSIGNMENT ( #285, #151, ( #66 ) ) ;
#118 = EDGE_LOOP ( 'NONE', ( #196 ) ) ;
#119 = FACE_BOUND ( 'NONE', #192, .T. ) ;
#120 = DIRECTION ( 'NONE',  ( 4.275831445896958607E-31, 1.000000000000000000, 1.224646799147353207E-16 ) ) ;
#121 = DIRECTION ( 'NONE',  ( -3.491481338843133355E-15, 1.224646799147353207E-16, -1.000000000000000000 ) ) ;
#122 = ADVANCED_FACE ( 'NONE', ( #203, #50 ), #255, .T. ) ;
#123 = DIRECTION ( 'NONE',  ( -4.275831445896958607E-31, -1.000000000000000000, -1.224646799147353207E-16 ) ) ;
#124 = DATE_TIME_ROLE ( 'classification_date' ) ;
#125 = DIRECTION ( 'NONE',  ( 3.491481338843133355E-15, -1.224646799147353207E-16, 1.000000000000000000 ) ) ;
#126 = ADVANCED_FACE ( 'NONE', ( #105, #289 ), #288, .T. ) ;
#127 = CIRCLE ( 'NONE', #281, 0.7199999999999998623 ) ;
#128 = COORDINATED_UNIVERSAL_TIME_OFFSET ( 1, 0, .AHEAD. ) ;
#129 = AXIS2_PLACEMENT_3D ( 'NONE', #198, #206, #155 ) ;
#130 = LOCAL_TIME ( 11, 14, 46.00000000000000000, #91 ) ;
#131 = CARTESIAN_POINT ( 'NONE',  ( 2.444036937190193743E-15, 1.124819836996387219E-33, 0.7000000000000000666 ) ) ;
#132 = CARTESIAN_POINT ( 'NONE',  ( 6.284666409917638462E-15, -2.204364238465235083E-16, 1.799999999999999600 ) ) ;
#133 = EDGE_LOOP ( 'NONE', ( #69 ) ) ;
#134 = ADVANCED_FACE ( 'NONE', ( #284, #22 ), #249, .F. ) ;
#135 = CARTESIAN_POINT ( 'NONE',  ( 6.284666409917638462E-15, -2.204364238465235083E-16, 1.799999999999999600 ) ) ;
#136 = ORIENTED_EDGE ( 'NONE', *, *, #149, .T. ) ;
#137 = DESIGN_CONTEXT ( 'detailed design', #202, 'design' ) ;
#138 = AXIS2_PLACEMENT_3D ( 'NONE', #1, #100, #47 ) ;
#139 = EDGE_LOOP ( 'NONE', ( #273 ) ) ;
#140 = DIRECTION ( 'NONE',  ( 1.000000000000000000, 0.0000000000000000000, 0.0000000000000000000 ) ) ;
#141 = EDGE_LOOP ( 'NONE', ( #243 ) ) ;
#142 = EDGE_LOOP ( 'NONE', ( #40 ) ) ;
#143 = APPROVAL_STATUS ( 'not_yet_approved' ) ;
#144 = AXIS2_PLACEMENT_3D ( 'NONE', #283, #150, #48 ) ;
#145 = FACE_OUTER_BOUND ( 'NONE', #167, .T. ) ;
#146 = COORDINATED_UNIVERSAL_TIME_OFFSET ( 1, 0, .AHEAD. ) ;
#147 = DIRECTION ( 'NONE',  ( 4.275831445896958607E-31, 1.000000000000000000, 1.224646799147353207E-16 ) ) ;
#148 = DIRECTION ( 'NONE',  ( -3.491481338843133355E-15, 1.224646799147353207E-16, -1.000000000000000000 ) ) ;
#149 = EDGE_CURVE ( 'NONE', #64, #64, #46, .T. ) ;
#150 = DIRECTION ( 'NONE',  ( 3.491481338843133355E-15, -1.224646799147353207E-16, 1.000000000000000000 ) ) ;
#151 = PERSON_AND_ORGANIZATION_ROLE ( 'design_supplier' ) ;
#152 = FACE_OUTER_BOUND ( 'NONE', #42, .T. ) ;
#153 = APPROVAL_DATE_TIME ( #254, #247 ) ;
#154 = CC_DESIGN_DATE_AND_TIME_ASSIGNMENT ( #23, #124, ( #310 ) ) ;
#155 = DIRECTION ( 'NONE',  ( 0.0000000000000000000, 1.000000000000000000, 0.0000000000000000000 ) ) ;
#156 = AXIS2_PLACEMENT_3D ( 'NONE', #132, #7, #10 ) ;
#157 = ADVANCED_FACE ( 'NONE', ( #145, #261 ), #307, .T. ) ;
#158 = VERTEX_POINT ( 'NONE', #274 ) ;
#159 = DIRECTION ( 'NONE',  ( 3.491481338843133355E-15, -1.224646799147353207E-16, 1.000000000000000000 ) ) ;
#160 = AXIS2_PLACEMENT_3D ( 'NONE', #17, #305, #276 ) ;
#161 = CC_DESIGN_DATE_AND_TIME_ASSIGNMENT ( #306, #279, ( #342 ) ) ;
#162 = VERTEX_POINT ( 'NONE', #246 ) ;
#163 = DIRECTION ( 'NONE',  ( -4.275831445896958607E-31, -1.000000000000000000, -1.224646799147353207E-16 ) ) ;
#164 = UNCERTAINTY_MEASURE_WITH_UNIT (LENGTH_MEASURE( 1.000000000000000082E-05 ), #272, 'distance_accuracy_value', 'NONE');
#165 = DIRECTION ( 'NONE',  ( 0.0000000000000000000, 1.000000000000000000, 0.0000000000000000000 ) ) ;
#166 = EDGE_LOOP ( 'NONE', ( #291 ) ) ;
#167 = EDGE_LOOP ( 'NONE', ( #270 ) ) ;
#168 = CARTESIAN_POINT ( 'NONE',  ( 2.444036937190193743E-15, 0.1499999999999993006, 0.7000000000000000666 ) ) ;
#169 = CIRCLE ( 'NONE', #73, 1.599999999999997646 ) ;
#170 = FACE_OUTER_BOUND ( 'NONE', #324, .T. ) ;
#171 = CARTESIAN_POINT ( 'NONE',  ( 1.312796983405018142E-13, 1.999999999999993117, 37.60000000000000142 ) ) ;
#172 = ORIENTED_EDGE ( 'NONE', *, *, #199, .F. ) ;
#173 = CARTESIAN_POINT ( 'NONE',  ( 0.0000000000000000000, 0.0000000000000000000, 0.0000000000000000000 ) ) ;
#174 = APPROVAL_DATE_TIME ( #204, #20 ) ;
#175 = LOCAL_TIME ( 11, 14, 46.00000000000000000, #146 ) ;
#176 = ADVANCED_FACE ( 'NONE', ( #228 ), #200, .F. ) ;
#177 = DIRECTION ( 'NONE',  ( -3.491481338843133355E-15, 1.224646799147353207E-16, -1.000000000000000000 ) ) ;
#178 = DIRECTION ( 'NONE',  ( 3.491481338843133355E-15, -1.224646799147353207E-16, 1.000000000000000000 ) ) ;
#179 = AXIS2_PLACEMENT_3D ( 'NONE', #77, #231, #232 ) ;
#180 = FACE_OUTER_BOUND ( 'NONE', #299, .T. ) ;
#181 = COORDINATED_UNIVERSAL_TIME_OFFSET ( 1, 0, .AHEAD. ) ;
#182 = CC_DESIGN_APPROVAL ( #20, ( #66 ) ) ;
#183 = ORIENTED_EDGE ( 'NONE', *, *, #28, .T. ) ;
#184 = CALENDAR_DATE ( 2021, 13, 12 ) ;
#185 = PRODUCT_RELATED_PRODUCT_CATEGORY ( 'detail', '', ( #217 ) ) ;
#186 = CARTESIAN_POINT ( 'NONE',  ( 3.142333204958819231E-15, -1.102182119232617541E-16, 0.8999999999999998002 ) ) ;
#187 = AXIS2_PLACEMENT_3D ( 'NONE', #103, #178, #123 ) ;
#188 = CARTESIAN_POINT ( 'NONE',  ( 1.312796983405018142E-13, -4.604671964794047724E-15, 37.60000000000000142 ) ) ;
#189 = ORIENTED_EDGE ( 'NONE', *, *, #28, .F. ) ;
#190 = CARTESIAN_POINT ( 'NONE',  ( 0.0000000000000000000, 0.0000000000000000000, 0.0000000000000000000 ) ) ;
#191 = CARTESIAN_POINT ( 'NONE',  ( 2.665306541933872222E-14, 1.959999999999998188, 7.633741335753478019 ) ) ;
#192 = EDGE_LOOP ( 'NONE', ( #300 ) ) ;
#193 = CALENDAR_DATE ( 2021, 13, 12 ) ;
#194 =( GEOMETRIC_REPRESENTATION_CONTEXT ( 3 ) GLOBAL_UNCERTAINTY_ASSIGNED_CONTEXT ( ( #164 ) ) GLOBAL_UNIT_ASSIGNED_CONTEXT ( ( #272, #114, #54 ) ) REPRESENTATION_CONTEXT ( 'NONE', 'WORKASPACE' ) );
#195 = CC_DESIGN_APPROVAL ( #247, ( #310 ) ) ;
#196 = ORIENTED_EDGE ( 'NONE', *, *, #211, .T. ) ;
#197 = PERSON_AND_ORGANIZATION ( #282, #236 ) ;
#198 = CARTESIAN_POINT ( 'NONE',  ( 2.444036937190193743E-15, -8.572527594031473190E-17, 0.7000000000000000666 ) ) ;
#199 = EDGE_CURVE ( 'NONE', #158, #158, #215, .T. ) ;
#200 = PLANE ( 'NONE',  #210 ) ;
#201 = CARTESIAN_POINT ( 'NONE',  ( 1.326762908760390423E-13, -4.653657836759941941E-15, 38.00000000000000000 ) ) ;
#202 = APPLICATION_CONTEXT ( 'configuration controlled 3d designs of mechanical parts and assemblies' ) ;
#203 = FACE_OUTER_BOUND ( 'NONE', #62, .T. ) ;
#204 = DATE_AND_TIME ( #184, #5 ) ;
#205 = FACE_BOUND ( 'NONE', #166, .T. ) ;
#206 = DIRECTION ( 'NONE',  ( -3.491481338843133355E-15, 1.224646799147353207E-16, -1.000000000000000000 ) ) ;
#207 = PERSON_AND_ORGANIZATION_ROLE ( 'classification_officer' ) ;
#208 = ADVANCED_FACE ( 'NONE', ( #335, #312 ), #83, .T. ) ;
#209 = APPROVAL_ROLE ( '' ) ;
#210 = AXIS2_PLACEMENT_3D ( 'NONE', #308, #148, #253 ) ;
#211 = EDGE_CURVE ( 'NONE', #12, #12, #169, .T. ) ;
#212 = PLANE ( 'NONE',  #99 ) ;
#213 = DIRECTION ( 'NONE',  ( -3.491481338843133355E-15, 1.224646799147353207E-16, -1.000000000000000000 ) ) ;
#214 = EDGE_LOOP ( 'NONE', ( #59 ) ) ;
#215 = CIRCLE ( 'NONE', #85, 0.1499999999999993006 ) ;
#216 = VERTEX_POINT ( 'NONE', #33 ) ;
#217 = PRODUCT ( '388775', '388775', '', ( #82 ) ) ;
#218 = EDGE_LOOP ( 'NONE', ( #330 ) ) ;
#219 = ADVANCED_FACE ( 'NONE', ( #205, #84 ), #111, .T. ) ;
#220 = ORIENTED_EDGE ( 'NONE', *, *, #297, .F. ) ;
#221 = CARTESIAN_POINT ( 'NONE',  ( 3.177248018347251984E-14, 1.999999999999993117, 9.099999999999999645 ) ) ;
#222 = ORIENTED_EDGE ( 'NONE', *, *, #311, .F. ) ;
#223 = APPROVAL_ROLE ( '' ) ;
#224 = AXIS2_PLACEMENT_3D ( 'NONE', #108, #112, #32 ) ;
#225 = FACE_OUTER_BOUND ( 'NONE', #142, .T. ) ;
#226 = SHAPE_DEFINITION_REPRESENTATION ( #102, #19 ) ;
#227 = CC_DESIGN_PERSON_AND_ORGANIZATION_ASSIGNMENT ( #314, #256, ( #66 ) ) ;
#228 = FACE_OUTER_BOUND ( 'NONE', #218, .T. ) ;
#229 = DIRECTION ( 'NONE',  ( 4.275831445896958607E-31, 1.000000000000000000, 1.224646799147353207E-16 ) ) ;
#230 = AXIS2_PLACEMENT_3D ( 'NONE', #106, #26, #147 ) ;
#231 = DIRECTION ( 'NONE',  ( -3.491481338843133355E-15, 1.224646799147353207E-16, -1.000000000000000000 ) ) ;
#232 = DIRECTION ( 'NONE',  ( 0.0000000000000000000, 1.000000000000000000, 0.0000000000000000000 ) ) ;
#233 = DIRECTION ( 'NONE',  ( -3.491481338843133355E-15, 1.224646799147353207E-16, -1.000000000000000000 ) ) ;
#234 = CARTESIAN_POINT ( 'NONE',  ( 4.594172782193784861E-15, 0.1937047985323820110, 1.315823381635491174 ) ) ;
#235 = AXIS2_PLACEMENT_3D ( 'NONE', #109, #159, #267 ) ;
#236 = ORGANIZATION ( 'UNSPECIFIED', 'UNSPECIFIED', '' ) ;
#237 = FACE_OUTER_BOUND ( 'NONE', #214, .T. ) ;
#238 = DIRECTION ( 'NONE',  ( 0.0000000000000000000, 1.000000000000000000, 0.0000000000000000000 ) ) ;
#239 = DIRECTION ( 'NONE',  ( -3.491481338843133355E-15, 1.224646799147353207E-16, -1.000000000000000000 ) ) ;
#240 = CARTESIAN_POINT ( 'NONE',  ( 4.594172782193784861E-15, -1.611418892563150598E-16, 1.315823381635491174 ) ) ;
#241 = EDGE_LOOP ( 'NONE', ( #43 ) ) ;
#242 = CIRCLE ( 'NONE', #160, 0.1499999999999993838 ) ;
#243 = ORIENTED_EDGE ( 'NONE', *, *, #262, .F. ) ;
#244 = PERSON_AND_ORGANIZATION ( #282, #236 ) ;
#245 = EDGE_LOOP ( 'NONE', ( #88 ) ) ;
#246 = CARTESIAN_POINT ( 'NONE',  ( 3.177248018347251984E-14, 1.959999999999998188, 9.099999999999999645 ) ) ;
#247 = APPROVAL ( #336, 'UNSPECIFIED' ) ;
#248 = EDGE_LOOP ( 'NONE', ( #220 ) ) ;
#249 = TOROIDAL_SURFACE ( 'NONE', #321, 2.149999999999999023, 2.000000000000000000 ) ;
#250 = CC_DESIGN_SECURITY_CLASSIFICATION ( #310, ( #66 ) ) ;
#251 = DIRECTION ( 'NONE',  ( -3.491481338843133355E-15, 1.224646799147353207E-16, -1.000000000000000000 ) ) ;
#252 = SECURITY_CLASSIFICATION_LEVEL ( 'unclassified' ) ;
#253 = DIRECTION ( 'NONE',  ( 4.275831445896958607E-31, 1.000000000000000000, 1.224646799147353207E-16 ) ) ;
#254 = DATE_AND_TIME ( #75, #325 ) ;
#255 = CYLINDRICAL_SURFACE ( 'NONE', #27, 1.999999999999996225 ) ;
#256 = PERSON_AND_ORGANIZATION_ROLE ( 'creator' ) ;
#257 = AXIS2_PLACEMENT_3D ( 'NONE', #76, #125, #287 ) ;
#258 = APPROVAL_PERSON_ORGANIZATION ( #44, #20, #209 ) ;
#259 = FACE_OUTER_BOUND ( 'NONE', #90, .T. ) ;
#260 = APPLICATION_CONTEXT ( 'configuration controlled 3d designs of mechanical parts and assemblies' ) ;
#261 = FACE_OUTER_BOUND ( 'NONE', #67, .T. ) ;
#262 = EDGE_CURVE ( 'NONE', #329, #329, #263, .T. ) ;
#263 = CIRCLE ( 'NONE', #337, 0.1499999999999994116 ) ;
#264 = PERSON_AND_ORGANIZATION_ROLE ( 'creator' ) ;
#265 = FACE_OUTER_BOUND ( 'NONE', #13, .T. ) ;
#266 = AXIS2_PLACEMENT_3D ( 'NONE', #190, #239, #328 ) ;
#267 = DIRECTION ( 'NONE',  ( 0.0000000000000000000, -1.000000000000000000, 0.0000000000000000000 ) ) ;
#268 = FACE_BOUND ( 'NONE', #248, .T. ) ;
#269 = VERTEX_POINT ( 'NONE', #298 ) ;
#270 = ORIENTED_EDGE ( 'NONE', *, *, #149, .F. ) ;
#271 = ADVANCED_FACE ( 'NONE', ( #319, #237 ), #92, .T. ) ;
#272 =( LENGTH_UNIT ( ) NAMED_UNIT ( * ) SI_UNIT ( .MILLI., .METRE. ) );
#273 = ORIENTED_EDGE ( 'NONE', *, *, #89, .T. ) ;
#274 = CARTESIAN_POINT ( 'NONE',  ( -3.206930330834751296E-31, 0.1499999999999993006, -9.185013521788820534E-17 ) ) ;
#275 = AXIS2_PLACEMENT_3D ( 'NONE', #97, #296, #163 ) ;
#276 = DIRECTION ( 'NONE',  ( 0.0000000000000000000, 1.000000000000000000, 0.0000000000000000000 ) ) ;
#277 = APPROVAL_DATE_TIME ( #292, #286 ) ;
#278 = CC_DESIGN_PERSON_AND_ORGANIZATION_ASSIGNMENT ( #49, #207, ( #310 ) ) ;
#279 = DATE_TIME_ROLE ( 'creation_date' ) ;
#280 = DIRECTION ( 'NONE',  ( -3.491481338843133355E-15, 1.224646799147353207E-16, -1.000000000000000000 ) ) ;
#281 = AXIS2_PLACEMENT_3D ( 'NONE', #18, #251, #74 ) ;
#282 = PERSON ( 'UNSPECIFIED', 'UNSPECIFIED', 'UNSPECIFIED', ('UNSPECIFIED'), ('UNSPECIFIED'), ('UNSPECIFIED') ) ;
#283 = CARTESIAN_POINT ( 'NONE',  ( -1.924152523859645923E-31, 6.749018541788305961E-33, -5.510991860254920674E-17 ) ) ;
#284 = FACE_OUTER_BOUND ( 'NONE', #133, .T. ) ;
#285 = PERSON_AND_ORGANIZATION ( #282, #236 ) ;
#286 = APPROVAL ( #116, 'UNSPECIFIED' ) ;
#287 = DIRECTION ( 'NONE',  ( -4.275831445896958607E-31, -1.000000000000000000, -1.224646799147353207E-16 ) ) ;
#288 = CONICAL_SURFACE ( 'NONE', #138, 1.599999999999997646, 0.7853981633974516097 ) ;
#289 = FACE_BOUND ( 'NONE', #118, .T. ) ;
#290 = EDGE_CURVE ( 'NONE', #301, #301, #57, .T. ) ;
#291 = ORIENTED_EDGE ( 'NONE', *, *, #55, .F. ) ;
#292 = DATE_AND_TIME ( #193, #130 ) ;
#293 = CARTESIAN_POINT ( 'NONE',  ( 3.142333204958819231E-15, 0.1499999999999993006, 0.8999999999999998002 ) ) ;
#294 = DIRECTION ( 'NONE',  ( 0.0000000000000000000, 1.000000000000000000, 0.0000000000000000000 ) ) ;
#295 = CLOSED_SHELL ( 'NONE', ( #80, #157, #134, #271, #52, #219, #208, #31, #122, #126, #176 ) ) ;
#296 = DIRECTION ( 'NONE',  ( 3.491481338843133355E-15, -1.224646799147353207E-16, 1.000000000000000000 ) ) ;
#297 = EDGE_CURVE ( 'NONE', #331, #331, #107, .T. ) ;
#298 = CARTESIAN_POINT ( 'NONE',  ( 2.444036937190193743E-15, 0.1499999999999993006, 0.7000000000000000666 ) ) ;
#299 = EDGE_LOOP ( 'NONE', ( #115 ) ) ;
#300 = ORIENTED_EDGE ( 'NONE', *, *, #89, .F. ) ;
#301 = VERTEX_POINT ( 'NONE', #171 ) ;
#302 = EDGE_LOOP ( 'NONE', ( #94 ) ) ;
#303 = PERSON_AND_ORGANIZATION ( #282, #236 ) ;
#304 = CIRCLE ( 'NONE', #9, 0.1937047985323821775 ) ;
#305 = DIRECTION ( 'NONE',  ( -3.491481338843133355E-15, 1.224646799147353207E-16, -1.000000000000000000 ) ) ;
#306 = DATE_AND_TIME ( #56, #338 ) ;
#307 = CYLINDRICAL_SURFACE ( 'NONE', #79, 0.1499999999999994116 ) ;
#308 = CARTESIAN_POINT ( 'NONE',  ( 1.326762908760390423E-13, 1.199807826129477602E-32, 38.00000000000000000 ) ) ;
#309 = AXIS2_PLACEMENT_3D ( 'NONE', #188, #36, #6 ) ;
#310 = SECURITY_CLASSIFICATION ( '', '', #252 ) ;
#311 = EDGE_CURVE ( 'NONE', #4, #4, #304, .T. ) ;
#312 = FACE_OUTER_BOUND ( 'NONE', #139, .T. ) ;
#313 = DIRECTION ( 'NONE',  ( 4.275831445896958607E-31, 1.000000000000000000, 1.224646799147352961E-16 ) ) ;
#314 = PERSON_AND_ORGANIZATION ( #282, #236 ) ;
#315 = DIRECTION ( 'NONE',  ( -3.491481338843133355E-15, 1.224646799147353207E-16, -1.000000000000000000 ) ) ;
#316 = CC_DESIGN_PERSON_AND_ORGANIZATION_ASSIGNMENT ( #244, #95, ( #217 ) ) ;
#317 = CLOSED_SHELL ( 'NONE', ( #63, #3, #334 ) ) ;
#318 = DIRECTION ( 'NONE',  ( 0.0000000000000000000, 0.0000000000000000000, 1.000000000000000000 ) ) ;
#319 = FACE_BOUND ( 'NONE', #37, .T. ) ;
#320 = EDGE_CURVE ( 'NONE', #29, #29, #53, .T. ) ;
#321 = AXIS2_PLACEMENT_3D ( 'NONE', #339, #315, #45 ) ;
#322 = DIRECTION ( 'NONE',  ( -3.491481338843133355E-15, 1.224646799147353207E-16, -1.000000000000000000 ) ) ;
#323 = APPROVAL_PERSON_ORGANIZATION ( #303, #286, #223 ) ;
#324 = EDGE_LOOP ( 'NONE', ( #183 ) ) ;
#325 = LOCAL_TIME ( 11, 14, 46.00000000000000000, #181 ) ;
#326 = ORIENTED_EDGE ( 'NONE', *, *, #262, .T. ) ;
#327 = CARTESIAN_POINT ( 'NONE',  ( 0.0000000000000000000, 0.0000000000000000000, 0.0000000000000000000 ) ) ;
#328 = DIRECTION ( 'NONE',  ( 4.275831445896958607E-31, 1.000000000000000000, 1.224646799147353207E-16 ) ) ;
#329 = VERTEX_POINT ( 'NONE', #293 ) ;
#330 = ORIENTED_EDGE ( 'NONE', *, *, #211, .F. ) ;
#331 = VERTEX_POINT ( 'NONE', #41 ) ;
#332 = AXIS2_PLACEMENT_3D ( 'NONE', #327, #318, #140 ) ;
#333 = PLANE ( 'NONE',  #275 ) ;
#334 = ADVANCED_FACE ( 'NONE', ( #265 ), #212, .T. ) ;
#335 = FACE_OUTER_BOUND ( 'NONE', #241, .T. ) ;
#336 = APPROVAL_STATUS ( 'not_yet_approved' ) ;
#337 = AXIS2_PLACEMENT_3D ( 'NONE', #186, #213, #294 ) ;
#338 = LOCAL_TIME ( 11, 14, 46.00000000000000000, #128 ) ;
#339 = CARTESIAN_POINT ( 'NONE',  ( 3.142333204958818442E-15, 0.0000000000000000000, 0.8999999999999995781 ) ) ;
#340 = DIRECTION ( 'NONE',  ( -3.491481338843133355E-15, 1.224646799147353207E-16, -1.000000000000000000 ) ) ;
#341 = CARTESIAN_POINT ( 'NONE',  ( 0.0000000000000000000, 0.0000000000000000000, 0.0000000000000000000 ) ) ;
#342 = PRODUCT_DEFINITION ( 'UNKNOWN', '', #66, #137 ) ;
#343 = PERSON_AND_ORGANIZATION ( #282, #236 ) ;
ENDSEC;
END-ISO-10303-21;
