ISO-10303-21;
HEADER;
FILE_DESCRIPTION (( 'STEP AP203' ),
    '1' );
FILE_NAME ('387472387489.step',
    '2022-05-31T14:09:13',
    ( '' ),
    ( '' ),
    'SwSTEP 2.0',
    'SolidWorks 2019',
    '' );
FILE_SCHEMA (( 'CONFIG_CONTROL_DESIGN' ));
ENDSEC;

DATA;
#1 = CIRCLE ( 'NONE', #99, 9.999999999999992895 ) ;
#2 = APPROVAL_DATE_TIME ( #203, #297 ) ;
#3 = AXIS2_PLACEMENT_3D ( 'NONE', #303, #21, #87 ) ;
#4 = CARTESIAN_POINT ( 'NONE',  ( 1.394901897621108588E-15, -6.999999999999990230, 1.040949779275249154E-15 ) ) ;
#5 = PERSON_AND_ORGANIZATION_ROLE ( 'creator' ) ;
#6 = DIRECTION ( 'NONE',  ( -0.000000000000000000, 0.000000000000000000, -1.000000000000000000 ) ) ;
#7 = EDGE_LOOP ( 'NONE', ( #182, #95, #177, #128 ) ) ;
#8 = APPROVAL_STATUS ( 'not_yet_approved' ) ;
#9 = AXIS2_PLACEMENT_3D ( 'NONE', #232, #209, #345 ) ;
#10 = LINE ( 'NONE', #286, #200 ) ;
#11 = ORIENTED_EDGE ( 'NONE', *, *, #101, .T. ) ;
#12 = DIRECTION ( 'NONE',  ( 1.000000000000000000, 3.768143997376471359E-17, -0.000000000000000000 ) ) ;
#13 = SECURITY_CLASSIFICATION ( '', '', #59 ) ;
#14 = ORIENTED_EDGE ( 'NONE', *, *, #70, .T. ) ;
#15 = ORIENTED_EDGE ( 'NONE', *, *, #27, .F. ) ;
#16 = CIRCLE ( 'NONE', #220, 9.000000000000001776 ) ;
#17 = LOCAL_TIME ( 16, 9, 13.00000000000000000, #229 ) ;
#18 = CARTESIAN_POINT ( 'NONE',  ( -26.00000000000000000, -9.797174393178825657E-16, 0.000000000000000000 ) ) ;
#19 = EDGE_CURVE ( 'NONE', #102, #299, #334, .T. ) ;
#20 = CARTESIAN_POINT ( 'NONE',  ( -92.00000000000001421, -9.062386313690415163E-15, 0.000000000000000000 ) ) ;
#21 = DIRECTION ( 'NONE',  ( 1.000000000000000000, 1.224646799147353207E-16, -0.000000000000000000 ) ) ;
#22 = PLANE ( 'NONE',  #111 ) ;
#23 = DIRECTION ( 'NONE',  ( 0.000000000000000000, 1.000000000000000000, 0.000000000000000000 ) ) ;
#24 = VECTOR ( 'NONE', #104, 1000.000000000000000 ) ;
#25 = AXIS2_PLACEMENT_3D ( 'NONE', #320, #12, #126 ) ;
#26 = CARTESIAN_POINT ( 'NONE',  ( -26.00000000000000000, -9.999999999999998224, 1.224646799147352862E-15 ) ) ;
#27 = EDGE_CURVE ( 'NONE', #263, #144, #219, .T. ) ;
#28 = MANIFOLD_SOLID_BREP ( 'Révolution1', #267 ) ;
#29 = LOCAL_TIME ( 16, 9, 13.00000000000000000, #117 ) ;
#30 = APPROVAL_ROLE ( '' ) ;
#31 = CC_DESIGN_PERSON_AND_ORGANIZATION_ASSIGNMENT ( #312, #226, ( #84 ) ) ;
#32 = CIRCLE ( 'NONE', #191, 9.999999999999991118 ) ;
#33 = DATE_TIME_ROLE ( 'creation_date' ) ;
#34 = APPROVAL_PERSON_ORGANIZATION ( #221, #297, #307 ) ;
#35 = FACE_OUTER_BOUND ( 'NONE', #43, .T. ) ;
#36 = AXIS2_PLACEMENT_3D ( 'NONE', #272, #218, #134 ) ;
#37 = CARTESIAN_POINT ( 'NONE',  ( -2.999999999999998224, -9.999999999999991118, 1.224646799147352073E-15 ) ) ;
#38 = ADVANCED_FACE ( 'NONE', ( #275 ), #22, .T. ) ;
#39 = CARTESIAN_POINT ( 'NONE',  ( -92.00000000000001421, -9.000000000000008882, 1.163414459189985682E-15 ) ) ;
#40 = EDGE_LOOP ( 'NONE', ( #217, #119 ) ) ;
#41 = CYLINDRICAL_SURFACE ( 'NONE', #279, 9.999999999999991118 ) ;
#42 = EDGE_LOOP ( 'NONE', ( #75, #44, #187, #359 ) ) ;
#43 = EDGE_LOOP ( 'NONE', ( #73, #293, #125, #323 ) ) ;
#44 = ORIENTED_EDGE ( 'NONE', *, *, #118, .T. ) ;
#45 = EDGE_CURVE ( 'NONE', #97, #233, #16, .T. ) ;
#46 = VERTEX_POINT ( 'NONE', #166 ) ;
#47 = AXIS2_PLACEMENT_3D ( 'NONE', #317, #65, #174 ) ;
#48 = EDGE_CURVE ( 'NONE', #233, #97, #50, .T. ) ;
#49 = DIRECTION ( 'NONE',  ( 1.000000000000000000, 1.224646799147353207E-16, -0.000000000000000000 ) ) ;
#50 = CIRCLE ( 'NONE', #315, 9.000000000000001776 ) ;
#51 =( LENGTH_UNIT ( ) NAMED_UNIT ( * ) SI_UNIT ( .MILLI., .METRE. ) );
#52 = DIRECTION ( 'NONE',  ( 1.000000000000000000, 3.768143997376471359E-17, -0.000000000000000000 ) ) ;
#53 = CIRCLE ( 'NONE', #163, 9.999999999999992895 ) ;
#54 = PLANE ( 'NONE',  #236 ) ;
#55 = COORDINATED_UNIVERSAL_TIME_OFFSET ( 1, 0, .AHEAD. ) ;
#56 = LINE ( 'NONE', #26, #24 ) ;
#57 = PRODUCT_DEFINITION ( 'UNKNOWN', '', #84, #292 ) ;
#58 = DATE_AND_TIME ( #311, #238 ) ;
#59 = SECURITY_CLASSIFICATION_LEVEL ( 'unclassified' ) ;
#60 = CIRCLE ( 'NONE', #266, 9.999999999999992895 ) ;
#61 = CARTESIAN_POINT ( 'NONE',  ( 1.131131817804756068E-15, 4.262267569502528052E-32, 0.000000000000000000 ) ) ;
#62 = CIRCLE ( 'NONE', #250, 10.00000000000000178 ) ;
#63 = DATE_TIME_ROLE ( 'classification_date' ) ;
#64 = ORIENTED_EDGE ( 'NONE', *, *, #19, .F. ) ;
#65 = DIRECTION ( 'NONE',  ( 1.000000000000000000, 1.224646799147353207E-16, -0.000000000000000000 ) ) ;
#66 = COORDINATED_UNIVERSAL_TIME_OFFSET ( 1, 0, .AHEAD. ) ;
#67 = FACE_OUTER_BOUND ( 'NONE', #353, .T. ) ;
#68 = UNCERTAINTY_MEASURE_WITH_UNIT (LENGTH_MEASURE( 1.000000000000000082E-05 ), #51, 'distance_accuracy_value', 'NONE');
#69 = VERTEX_POINT ( 'NONE', #270 ) ;
#70 = EDGE_CURVE ( 'NONE', #180, #326, #62, .T. ) ;
#71 = SHAPE_DEFINITION_REPRESENTATION ( #183, #256 ) ;
#72 = CARTESIAN_POINT ( 'NONE',  ( -91.00000000000000000, -10.00000000000001066, 1.224646799147353454E-15 ) ) ;
#73 = ORIENTED_EDGE ( 'NONE', *, *, #339, .T. ) ;
#74 = CARTESIAN_POINT ( 'NONE',  ( -26.00000000000000000, -9.797174393178825657E-16, 0.000000000000000000 ) ) ;
#75 = ORIENTED_EDGE ( 'NONE', *, *, #357, .T. ) ;
#76 = ORIENTED_EDGE ( 'NONE', *, *, #186, .T. ) ;
#77 = LOCAL_TIME ( 16, 9, 13.00000000000000000, #66 ) ;
#78 = CARTESIAN_POINT ( 'NONE',  ( 1.131131817804756068E-15, 4.262267569502528052E-32, 0.000000000000000000 ) ) ;
#79 = FACE_OUTER_BOUND ( 'NONE', #42, .T. ) ;
#80 = DIRECTION ( 'NONE',  ( 0.000000000000000000, 1.000000000000000000, 0.000000000000000000 ) ) ;
#81 = CLOSED_SHELL ( 'NONE', ( #178, #223, #324, #246, #38, #110 ) ) ;
#82 = DIRECTION ( 'NONE',  ( 1.000000000000000000, 1.224646799147353207E-16, -0.000000000000000000 ) ) ;
#83 = DIRECTION ( 'NONE',  ( 1.000000000000000000, 3.768143997376470743E-17, -0.000000000000000000 ) ) ;
#84 = PRODUCT_DEFINITION_FORMATION_WITH_SPECIFIED_SOURCE ( 'ANY', '', #269, .NOT_KNOWN. ) ;
#85 = APPROVAL_STATUS ( 'not_yet_approved' ) ;
#86 = LINE ( 'NONE', #308, #284 ) ;
#87 = DIRECTION ( 'NONE',  ( 0.000000000000000000, 1.000000000000000000, 0.000000000000000000 ) ) ;
#88 = EDGE_CURVE ( 'NONE', #153, #210, #156, .T. ) ;
#89 = APPROVAL_DATE_TIME ( #123, #282 ) ;
#90 = DATE_AND_TIME ( #294, #77 ) ;
#91 = APPLICATION_CONTEXT ( 'configuration controlled 3d designs of mechanical parts and assemblies' ) ;
#92 = CIRCLE ( 'NONE', #300, 9.999999999999992895 ) ;
#93 = PLANE ( 'NONE',  #47 ) ;
#94 = ADVANCED_FACE ( 'NONE', ( #132 ), #106, .T. ) ;
#95 = ORIENTED_EDGE ( 'NONE', *, *, #48, .T. ) ;
#96 = CYLINDRICAL_SURFACE ( 'NONE', #213, 9.999999999999996447 ) ;
#97 = VERTEX_POINT ( 'NONE', #135 ) ;
#98 = DIRECTION ( 'NONE',  ( 1.000000000000000000, 1.224646799147353207E-16, -0.000000000000000000 ) ) ;
#99 = AXIS2_PLACEMENT_3D ( 'NONE', #131, #356, #80 ) ;
#100 = EDGE_LOOP ( 'NONE', ( #237, #148 ) ) ;
#101 = EDGE_CURVE ( 'NONE', #102, #263, #1, .T. ) ;
#102 = VERTEX_POINT ( 'NONE', #190 ) ;
#103 = EDGE_CURVE ( 'NONE', #299, #144, #32, .T. ) ;
#104 = DIRECTION ( 'NONE',  ( 1.000000000000000000, 1.224646799147353207E-16, -0.000000000000000000 ) ) ;
#105 = PERSON_AND_ORGANIZATION ( #228, #352 ) ;
#106 = PLANE ( 'NONE',  #351 ) ;
#107 =( NAMED_UNIT ( * ) SI_UNIT ( $, .STERADIAN. ) SOLID_ANGLE_UNIT ( ) );
#108 = DIRECTION ( 'NONE',  ( 1.000000000000000000, 1.224646799147353207E-16, -0.000000000000000000 ) ) ;
#109 = CIRCLE ( 'NONE', #314, 6.999999999999990230 ) ;
#110 = ADVANCED_FACE ( 'NONE', ( #335 ), #54, .T. ) ;
#111 = AXIS2_PLACEMENT_3D ( 'NONE', #18, #277, #113 ) ;
#112 = DIRECTION ( 'NONE',  ( 0.000000000000000000, 0.000000000000000000, 1.000000000000000000 ) ) ;
#113 = DIRECTION ( 'NONE',  ( 3.768143997376470743E-17, -1.000000000000000000, 0.000000000000000000 ) ) ;
#114 = CC_DESIGN_PERSON_AND_ORGANIZATION_ASSIGNMENT ( #285, #170, ( #13 ) ) ;
#115 = EDGE_CURVE ( 'NONE', #97, #326, #86, .T. ) ;
#116 = CYLINDRICAL_SURFACE ( 'NONE', #167, 9.999999999999991118 ) ;
#117 = COORDINATED_UNIVERSAL_TIME_OFFSET ( 1, 0, .AHEAD. ) ;
#118 = EDGE_CURVE ( 'NONE', #180, #46, #56, .T. ) ;
#119 = ORIENTED_EDGE ( 'NONE', *, *, #318, .T. ) ;
#120 = DIRECTION ( 'NONE',  ( 0.000000000000000000, 1.000000000000000000, 0.000000000000000000 ) ) ;
#121 = ORIENTED_EDGE ( 'NONE', *, *, #101, .F. ) ;
#122 = CIRCLE ( 'NONE', #360, 3.000000000000000888 ) ;
#123 = DATE_AND_TIME ( #141, #29 ) ;
#124 = DIRECTION ( 'NONE',  ( -1.000000000000000000, 0.000000000000000000, 0.000000000000000000 ) ) ;
#125 = ORIENTED_EDGE ( 'NONE', *, *, #278, .F. ) ;
#126 = DIRECTION ( 'NONE',  ( -3.768143997376471359E-17, 1.000000000000000000, 0.000000000000000000 ) ) ;
#127 = CC_DESIGN_DATE_AND_TIME_ASSIGNMENT ( #171, #33, ( #57 ) ) ;
#128 = ORIENTED_EDGE ( 'NONE', *, *, #70, .F. ) ;
#129 = EDGE_LOOP ( 'NONE', ( #301, #152 ) ) ;
#130 = CC_DESIGN_APPROVAL ( #160, ( #84 ) ) ;
#131 = CARTESIAN_POINT ( 'NONE',  ( -26.00000000000000000, -9.797174393178825657E-16, 0.000000000000000000 ) ) ;
#132 = FACE_OUTER_BOUND ( 'NONE', #100, .T. ) ;
#133 = DIRECTION ( 'NONE',  ( -3.768143997376471359E-17, 1.000000000000000000, 0.000000000000000000 ) ) ;
#134 = DIRECTION ( 'NONE',  ( -4.336808689942021434E-17, 1.000000000000000000, 0.000000000000000000 ) ) ;
#135 = CARTESIAN_POINT ( 'NONE',  ( -92.00000000000001421, 8.999999999999992895, 0.000000000000000000 ) ) ;
#136 = DIRECTION ( 'NONE',  ( -1.000000000000000000, -1.224646799147353207E-16, 0.000000000000000000 ) ) ;
#137 = CC_DESIGN_PERSON_AND_ORGANIZATION_ASSIGNMENT ( #319, #5, ( #84 ) ) ;
#138 = CC_DESIGN_APPROVAL ( #282, ( #13 ) ) ;
#139 = CYLINDRICAL_SURFACE ( 'NONE', #327, 9.999999999999996447 ) ;
#140 =( GEOMETRIC_REPRESENTATION_CONTEXT ( 3 ) GLOBAL_UNCERTAINTY_ASSIGNED_CONTEXT ( ( #68 ) ) GLOBAL_UNIT_ASSIGNED_CONTEXT ( ( #51, #247, #107 ) ) REPRESENTATION_CONTEXT ( 'NONE', 'WORKASPACE' ) );
#141 = CALENDAR_DATE ( 2022, 31, 5 ) ;
#142 = FACE_OUTER_BOUND ( 'NONE', #7, .T. ) ;
#143 = PERSON_AND_ORGANIZATION ( #228, #352 ) ;
#144 = VERTEX_POINT ( 'NONE', #341 ) ;
#145 = DIRECTION ( 'NONE',  ( 1.000000000000000000, 1.224646799147353207E-16, -0.000000000000000000 ) ) ;
#146 = PERSON_AND_ORGANIZATION ( #228, #352 ) ;
#147 = DIRECTION ( 'NONE',  ( 1.000000000000000000, 1.224646799147353207E-16, -0.000000000000000000 ) ) ;
#148 = ORIENTED_EDGE ( 'NONE', *, *, #48, .F. ) ;
#149 = CC_DESIGN_PERSON_AND_ORGANIZATION_ASSIGNMENT ( #146, #175, ( #57 ) ) ;
#150 = CARTESIAN_POINT ( 'NONE',  ( -91.00000000000000000, -8.939921633775678437E-15, 0.000000000000000000 ) ) ;
#151 = EDGE_LOOP ( 'NONE', ( #162, #121 ) ) ;
#152 = ORIENTED_EDGE ( 'NONE', *, *, #88, .T. ) ;
#153 = VERTEX_POINT ( 'NONE', #4 ) ;
#154 = MANIFOLD_SOLID_BREP ( 'Révolution2', #81 ) ;
#155 = AXIS2_PLACEMENT_3D ( 'NONE', #150, #147, #120 ) ;
#156 = CIRCLE ( 'NONE', #201, 6.999999999999990230 ) ;
#157 = ADVANCED_FACE ( 'NONE', ( #142 ), #253, .T. ) ;
#158 = DIRECTION ( 'NONE',  ( 0.000000000000000000, 1.000000000000000000, 0.000000000000000000 ) ) ;
#159 = CARTESIAN_POINT ( 'NONE',  ( -91.00000000000000000, -8.939921633775678437E-15, 0.000000000000000000 ) ) ;
#160 = APPROVAL ( #340, 'UNSPECIFIED' ) ;
#161 = APPLICATION_PROTOCOL_DEFINITION ( 'international standard', 'config_control_design', 1994, #271 ) ;
#162 = ORIENTED_EDGE ( 'NONE', *, *, #268, .F. ) ;
#163 = AXIS2_PLACEMENT_3D ( 'NONE', #274, #244, #165 ) ;
#164 = DIRECTION ( 'NONE',  ( 1.000000000000000000, 3.768143997376470743E-17, -0.000000000000000000 ) ) ;
#165 = DIRECTION ( 'NONE',  ( 0.000000000000000000, 1.000000000000000000, 0.000000000000000000 ) ) ;
#166 = CARTESIAN_POINT ( 'NONE',  ( -26.00000000000000000, -9.999999999999994671, 1.224646799147352665E-15 ) ) ;
#167 = AXIS2_PLACEMENT_3D ( 'NONE', #261, #176, #295 ) ;
#168 = CARTESIAN_POINT ( 'NONE',  ( -91.00000000000000000, -10.00000000000000888, 1.224646799147353256E-15 ) ) ;
#169 = CC_DESIGN_SECURITY_CLASSIFICATION ( #13, ( #84 ) ) ;
#170 = PERSON_AND_ORGANIZATION_ROLE ( 'classification_officer' ) ;
#171 = DATE_AND_TIME ( #283, #17 ) ;
#172 = DIRECTION ( 'NONE',  ( -3.768143997376471359E-17, 1.000000000000000000, 0.000000000000000000 ) ) ;
#173 = CC_DESIGN_APPROVAL ( #297, ( #57 ) ) ;
#174 = DIRECTION ( 'NONE',  ( -1.224646799147353207E-16, 1.000000000000000000, 0.000000000000000000 ) ) ;
#175 = PERSON_AND_ORGANIZATION_ROLE ( 'creator' ) ;
#176 = DIRECTION ( 'NONE',  ( 1.000000000000000000, 3.768143997376471359E-17, -0.000000000000000000 ) ) ;
#177 = ORIENTED_EDGE ( 'NONE', *, *, #115, .T. ) ;
#178 = ADVANCED_FACE ( 'NONE', ( #67 ), #41, .T. ) ;
#179 = CARTESIAN_POINT ( 'NONE',  ( -26.00000000000000000, 9.999999999999991118, 0.000000000000000000 ) ) ;
#180 = VERTEX_POINT ( 'NONE', #72 ) ;
#181 = DIRECTION ( 'NONE',  ( 1.000000000000000000, 3.768143997376471359E-17, -0.000000000000000000 ) ) ;
#182 = ORIENTED_EDGE ( 'NONE', *, *, #310, .F. ) ;
#183 = PRODUCT_DEFINITION_SHAPE ( 'NONE', 'NONE',  #57 ) ;
#184 = EDGE_LOOP ( 'NONE', ( #347, #208, #231, #296 ) ) ;
#185 = CONICAL_SURFACE ( 'NONE', #155, 10.00000000000000000, 0.7853981633974415066 ) ;
#186 = EDGE_CURVE ( 'NONE', #144, #210, #122, .T. ) ;
#187 = ORIENTED_EDGE ( 'NONE', *, *, #354, .F. ) ;
#188 = ADVANCED_FACE ( 'NONE', ( #199 ), #185, .T. ) ;
#189 = DIRECTION ( 'NONE',  ( 1.000000000000000000, 1.224646799147353207E-16, -0.000000000000000000 ) ) ;
#190 = CARTESIAN_POINT ( 'NONE',  ( -26.00000000000000000, -9.999999999999996447, 1.224646799147352862E-15 ) ) ;
#191 = AXIS2_PLACEMENT_3D ( 'NONE', #193, #245, #242 ) ;
#192 = AXIS2_PLACEMENT_3D ( 'NONE', #197, #112, #309 ) ;
#193 = CARTESIAN_POINT ( 'NONE',  ( -2.999999999999998668, -1.130443199212940853E-16, 0.000000000000000000 ) ) ;
#194 = AXIS2_PLACEMENT_3D ( 'NONE', #224, #241, #358 ) ;
#195 = MECHANICAL_CONTEXT ( 'NONE', #91, 'mechanical' ) ;
#196 = CARTESIAN_POINT ( 'NONE',  ( -92.00000000000001421, -9.062386313690415163E-15, 0.000000000000000000 ) ) ;
#197 = CARTESIAN_POINT ( 'NONE',  ( 0.000000000000000000, 0.000000000000000000, 0.000000000000000000 ) ) ;
#198 = COORDINATED_UNIVERSAL_TIME_OFFSET ( 1, 0, .AHEAD. ) ;
#199 = FACE_OUTER_BOUND ( 'NONE', #184, .T. ) ;
#200 = VECTOR ( 'NONE', #145, 1000.000000000000000 ) ;
#201 = AXIS2_PLACEMENT_3D ( 'NONE', #78, #52, #133 ) ;
#202 = CARTESIAN_POINT ( 'NONE',  ( 0.000000000000000000, 0.000000000000000000, 0.000000000000000000 ) ) ;
#203 = DATE_AND_TIME ( #316, #336 ) ;
#204 = FACE_OUTER_BOUND ( 'NONE', #258, .T. ) ;
#205 = CC_DESIGN_PERSON_AND_ORGANIZATION_ASSIGNMENT ( #105, #333, ( #269 ) ) ;
#206 = EDGE_LOOP ( 'NONE', ( #260, #235, #76, #350 ) ) ;
#207 = CARTESIAN_POINT ( 'NONE',  ( 8.673617379884034486E-16, 6.999999999999990230, 0.000000000000000000 ) ) ;
#208 = ORIENTED_EDGE ( 'NONE', *, *, #310, .T. ) ;
#209 = DIRECTION ( 'NONE',  ( -4.614645485113408287E-33, 1.224646799147353207E-16, 1.000000000000000000 ) ) ;
#210 = VERTEX_POINT ( 'NONE', #207 ) ;
#211 = CIRCLE ( 'NONE', #36, 9.999999999999991118 ) ;
#212 = ORIENTED_EDGE ( 'NONE', *, *, #27, .T. ) ;
#213 = AXIS2_PLACEMENT_3D ( 'NONE', #322, #98, #325 ) ;
#214 = CARTESIAN_POINT ( 'NONE',  ( -3.768143997376468031E-16, 9.999999999999991118, 0.000000000000000000 ) ) ;
#215 = PRODUCT_RELATED_PRODUCT_CATEGORY ( 'detail', '', ( #269 ) ) ;
#216 = DIRECTION ( 'NONE',  ( 0.000000000000000000, 1.000000000000000000, 0.000000000000000000 ) ) ;
#217 = ORIENTED_EDGE ( 'NONE', *, *, #354, .T. ) ;
#218 = DIRECTION ( 'NONE',  ( 1.000000000000000000, 3.768143997376471359E-17, -0.000000000000000000 ) ) ;
#219 = LINE ( 'NONE', #214, #361 ) ;
#220 = AXIS2_PLACEMENT_3D ( 'NONE', #196, #304, #23 ) ;
#221 = PERSON_AND_ORGANIZATION ( #228, #352 ) ;
#222 = DIRECTION ( 'NONE',  ( 0.000000000000000000, 1.000000000000000000, 0.000000000000000000 ) ) ;
#223 = ADVANCED_FACE ( 'NONE', ( #35 ), #330, .T. ) ;
#224 = CARTESIAN_POINT ( 'NONE',  ( -2.999999999999998668, 0.000000000000000000, 0.000000000000000000 ) ) ;
#225 = EDGE_CURVE ( 'NONE', #326, #69, #10, .T. ) ;
#226 = PERSON_AND_ORGANIZATION_ROLE ( 'design_supplier' ) ;
#227 = FACE_OUTER_BOUND ( 'NONE', #40, .T. ) ;
#228 = PERSON ( 'UNSPECIFIED', 'UNSPECIFIED', 'UNSPECIFIED', ('UNSPECIFIED'), ('UNSPECIFIED'), ('UNSPECIFIED') ) ;
#229 = COORDINATED_UNIVERSAL_TIME_OFFSET ( 1, 0, .AHEAD. ) ;
#230 = DIRECTION ( 'NONE',  ( 1.000000000000000000, 1.224646799147353207E-16, -0.000000000000000000 ) ) ;
#231 = ORIENTED_EDGE ( 'NONE', *, *, #357, .F. ) ;
#232 = CARTESIAN_POINT ( 'NONE',  ( -2.999999999999998224, -6.999999999999990230, 8.572527594031461357E-16 ) ) ;
#233 = VERTEX_POINT ( 'NONE', #39 ) ;
#234 = DIRECTION ( 'NONE',  ( -3.768143997376471359E-17, 1.000000000000000000, 0.000000000000000000 ) ) ;
#235 = ORIENTED_EDGE ( 'NONE', *, *, #103, .T. ) ;
#236 = AXIS2_PLACEMENT_3D ( 'NONE', #239, #164, #338 ) ;
#237 = ORIENTED_EDGE ( 'NONE', *, *, #45, .F. ) ;
#238 = LOCAL_TIME ( 16, 9, 13.00000000000000000, #198 ) ;
#239 = CARTESIAN_POINT ( 'NONE',  ( 3.017958290860255133E-16, 6.999999999999990230, 0.000000000000000000 ) ) ;
#240 = CARTESIAN_POINT ( 'NONE',  ( 3.768143997376468031E-16, -9.999999999999991118, 1.224646799147352270E-15 ) ) ;
#241 = DIRECTION ( 'NONE',  ( 1.000000000000000000, 3.768143997376471359E-17, -0.000000000000000000 ) ) ;
#242 = DIRECTION ( 'NONE',  ( -4.336808689942021434E-17, 1.000000000000000000, 0.000000000000000000 ) ) ;
#243 = VECTOR ( 'NONE', #364, 999.9999999999998863 ) ;
#244 = DIRECTION ( 'NONE',  ( 1.000000000000000000, 1.224646799147353207E-16, -0.000000000000000000 ) ) ;
#245 = DIRECTION ( 'NONE',  ( 1.000000000000000000, 3.768143997376471359E-17, -0.000000000000000000 ) ) ;
#246 = ADVANCED_FACE ( 'NONE', ( #204 ), #116, .T. ) ;
#247 =( NAMED_UNIT ( * ) PLANE_ANGLE_UNIT ( ) SI_UNIT ( $, .RADIAN. ) );
#248 = FACE_OUTER_BOUND ( 'NONE', #206, .T. ) ;
#249 = EDGE_CURVE ( 'NONE', #299, #153, #342, .T. ) ;
#250 = AXIS2_PLACEMENT_3D ( 'NONE', #159, #108, #222 ) ;
#251 = APPROVAL_DATE_TIME ( #58, #160 ) ;
#252 = CIRCLE ( 'NONE', #3, 10.00000000000000178 ) ;
#253 = CONICAL_SURFACE ( 'NONE', #329, 10.00000000000000000, 0.7853981633974415066 ) ;
#254 = DIRECTION ( 'NONE',  ( 1.000000000000000000, 3.768143997376471359E-17, -0.000000000000000000 ) ) ;
#255 = APPROVAL_ROLE ( '' ) ;
#256 = ADVANCED_BREP_SHAPE_REPRESENTATION ( '387472387489', ( #28, #154, #192 ), #140 ) ;
#257 = LINE ( 'NONE', #168, #243 ) ;
#258 = EDGE_LOOP ( 'NONE', ( #64, #11, #212, #262 ) ) ;
#259 = CARTESIAN_POINT ( 'NONE',  ( -91.00000000000000000, -8.939921633775678437E-15, 0.000000000000000000 ) ) ;
#260 = ORIENTED_EDGE ( 'NONE', *, *, #249, .F. ) ;
#261 = CARTESIAN_POINT ( 'NONE',  ( 0.000000000000000000, 0.000000000000000000, 0.000000000000000000 ) ) ;
#262 = ORIENTED_EDGE ( 'NONE', *, *, #103, .F. ) ;
#263 = VERTEX_POINT ( 'NONE', #179 ) ;
#264 = ADVANCED_FACE ( 'NONE', ( #348 ), #96, .T. ) ;
#265 = ORIENTED_EDGE ( 'NONE', *, *, #19, .T. ) ;
#266 = AXIS2_PLACEMENT_3D ( 'NONE', #74, #181, #313 ) ;
#267 = CLOSED_SHELL ( 'NONE', ( #349, #188, #94, #157, #264, #290 ) ) ;
#268 = EDGE_CURVE ( 'NONE', #263, #102, #60, .T. ) ;
#269 = PRODUCT ( '387472387489', '387472387489', '', ( #195 ) ) ;
#270 = CARTESIAN_POINT ( 'NONE',  ( -26.00000000000000000, 9.999999999999991118, 0.000000000000000000 ) ) ;
#271 = APPLICATION_CONTEXT ( 'configuration controlled 3d designs of mechanical parts and assemblies' ) ;
#272 = CARTESIAN_POINT ( 'NONE',  ( -2.999999999999998668, -1.130443199212940853E-16, 0.000000000000000000 ) ) ;
#273 = DIRECTION ( 'NONE',  ( 1.224646799147353207E-16, -1.000000000000000000, 0.000000000000000000 ) ) ;
#274 = CARTESIAN_POINT ( 'NONE',  ( -26.00000000000000000, -9.797174393178823685E-16, 0.000000000000000000 ) ) ;
#275 = FACE_OUTER_BOUND ( 'NONE', #151, .T. ) ;
#276 = CARTESIAN_POINT ( 'NONE',  ( -91.00000000000000000, 9.999999999999989342, 0.000000000000000000 ) ) ;
#277 = DIRECTION ( 'NONE',  ( -1.000000000000000000, -3.768143997376470743E-17, 0.000000000000000000 ) ) ;
#278 = EDGE_CURVE ( 'NONE', #210, #153, #109, .T. ) ;
#279 = AXIS2_PLACEMENT_3D ( 'NONE', #202, #289, #234 ) ;
#280 = CARTESIAN_POINT ( 'NONE',  ( -92.00000000000000000, -9.062386313690413585E-15, 0.000000000000000000 ) ) ;
#281 = DIRECTION ( 'NONE',  ( 0.000000000000000000, 1.000000000000000000, 0.000000000000000000 ) ) ;
#282 = APPROVAL ( #8, 'UNSPECIFIED' ) ;
#283 = CALENDAR_DATE ( 2022, 31, 5 ) ;
#284 = VECTOR ( 'NONE', #355, 1000.000000000000000 ) ;
#285 = PERSON_AND_ORGANIZATION ( #228, #352 ) ;
#286 = CARTESIAN_POINT ( 'NONE',  ( -26.00000000000000000, 9.999999999999994671, 0.000000000000000000 ) ) ;
#287 = APPROVAL_PERSON_ORGANIZATION ( #288, #160, #255 ) ;
#288 = PERSON_AND_ORGANIZATION ( #228, #352 ) ;
#289 = DIRECTION ( 'NONE',  ( 1.000000000000000000, 3.768143997376471359E-17, -0.000000000000000000 ) ) ;
#290 = ADVANCED_FACE ( 'NONE', ( #227 ), #93, .T. ) ;
#291 = CARTESIAN_POINT ( 'NONE',  ( -2.999999999999999112, 6.999999999999990230, 0.000000000000000000 ) ) ;
#292 = DESIGN_CONTEXT ( 'detailed design', #271, 'design' ) ;
#293 = ORIENTED_EDGE ( 'NONE', *, *, #249, .T. ) ;
#294 = CALENDAR_DATE ( 2022, 31, 5 ) ;
#295 = DIRECTION ( 'NONE',  ( -3.768143997376471359E-17, 1.000000000000000000, 0.000000000000000000 ) ) ;
#296 = ORIENTED_EDGE ( 'NONE', *, *, #115, .F. ) ;
#297 = APPROVAL ( #85, 'UNSPECIFIED' ) ;
#298 = ORIENTED_EDGE ( 'NONE', *, *, #268, .T. ) ;
#299 = VERTEX_POINT ( 'NONE', #37 ) ;
#300 = AXIS2_PLACEMENT_3D ( 'NONE', #337, #82, #281 ) ;
#301 = ORIENTED_EDGE ( 'NONE', *, *, #278, .T. ) ;
#302 = VECTOR ( 'NONE', #83, 1000.000000000000000 ) ;
#303 = CARTESIAN_POINT ( 'NONE',  ( -91.00000000000000000, -8.939921633775678437E-15, 0.000000000000000000 ) ) ;
#304 = DIRECTION ( 'NONE',  ( 1.000000000000000000, 1.224646799147353207E-16, -0.000000000000000000 ) ) ;
#305 = APPLICATION_PROTOCOL_DEFINITION ( 'international standard', 'config_control_design', 1994, #91 ) ;
#306 = ORIENTED_EDGE ( 'NONE', *, *, #118, .F. ) ;
#307 = APPROVAL_ROLE ( '' ) ;
#308 = CARTESIAN_POINT ( 'NONE',  ( -91.00000000000000000, 9.999999999999991118, 0.000000000000000000 ) ) ;
#309 = DIRECTION ( 'NONE',  ( 1.000000000000000000, 0.000000000000000000, 0.000000000000000000 ) ) ;
#310 = EDGE_CURVE ( 'NONE', #233, #180, #257, .T. ) ;
#311 = CALENDAR_DATE ( 2022, 31, 5 ) ;
#312 = PERSON_AND_ORGANIZATION ( #228, #352 ) ;
#313 = DIRECTION ( 'NONE',  ( 0.000000000000000000, 1.000000000000000000, 0.000000000000000000 ) ) ;
#314 = AXIS2_PLACEMENT_3D ( 'NONE', #61, #254, #172 ) ;
#315 = AXIS2_PLACEMENT_3D ( 'NONE', #20, #49, #158 ) ;
#316 = CALENDAR_DATE ( 2022, 31, 5 ) ;
#317 = CARTESIAN_POINT ( 'NONE',  ( -26.00000000000000000, -9.797174393178825657E-16, 0.000000000000000000 ) ) ;
#318 = EDGE_CURVE ( 'NONE', #46, #69, #92, .T. ) ;
#319 = PERSON_AND_ORGANIZATION ( #228, #352 ) ;
#320 = CARTESIAN_POINT ( 'NONE',  ( -2.999999999999998668, 0.000000000000000000, 0.000000000000000000 ) ) ;
#321 = ORIENTED_EDGE ( 'NONE', *, *, #318, .F. ) ;
#322 = CARTESIAN_POINT ( 'NONE',  ( -26.00000000000000000, -9.797174393178825657E-16, 0.000000000000000000 ) ) ;
#323 = ORIENTED_EDGE ( 'NONE', *, *, #186, .F. ) ;
#324 = ADVANCED_FACE ( 'NONE', ( #248 ), #365, .T. ) ;
#325 = DIRECTION ( 'NONE',  ( 0.000000000000000000, 1.000000000000000000, 0.000000000000000000 ) ) ;
#326 = VERTEX_POINT ( 'NONE', #276 ) ;
#327 = AXIS2_PLACEMENT_3D ( 'NONE', #362, #189, #216 ) ;
#328 = ORIENTED_EDGE ( 'NONE', *, *, #225, .T. ) ;
#329 = AXIS2_PLACEMENT_3D ( 'NONE', #259, #230, #343 ) ;
#330 = TOROIDAL_SURFACE ( 'NONE', #25, 6.999999999999990230, 3.000000000000000444 ) ;
#331 = DIRECTION ( 'NONE',  ( 1.000000000000000000, 3.768143997376470743E-17, -0.000000000000000000 ) ) ;
#332 = APPROVAL_PERSON_ORGANIZATION ( #143, #282, #30 ) ;
#333 = PERSON_AND_ORGANIZATION_ROLE ( 'design_owner' ) ;
#334 = LINE ( 'NONE', #240, #302 ) ;
#335 = FACE_OUTER_BOUND ( 'NONE', #129, .T. ) ;
#336 = LOCAL_TIME ( 16, 9, 13.00000000000000000, #55 ) ;
#337 = CARTESIAN_POINT ( 'NONE',  ( -26.00000000000000000, -9.797174393178823685E-16, 0.000000000000000000 ) ) ;
#338 = DIRECTION ( 'NONE',  ( -3.768143997376470743E-17, 1.000000000000000000, 0.000000000000000000 ) ) ;
#339 = EDGE_CURVE ( 'NONE', #144, #299, #211, .T. ) ;
#340 = APPROVAL_STATUS ( 'not_yet_approved' ) ;
#341 = CARTESIAN_POINT ( 'NONE',  ( -2.999999999999999112, 9.999999999999991118, 0.000000000000000000 ) ) ;
#342 = CIRCLE ( 'NONE', #9, 3.000000000000000888 ) ;
#343 = DIRECTION ( 'NONE',  ( 0.000000000000000000, 1.000000000000000000, 0.000000000000000000 ) ) ;
#344 = ORIENTED_EDGE ( 'NONE', *, *, #339, .F. ) ;
#345 = DIRECTION ( 'NONE',  ( 0.000000000000000000, -1.000000000000000000, 1.224646799147352714E-16 ) ) ;
#346 = CC_DESIGN_DATE_AND_TIME_ASSIGNMENT ( #90, #63, ( #13 ) ) ;
#347 = ORIENTED_EDGE ( 'NONE', *, *, #45, .T. ) ;
#348 = FACE_OUTER_BOUND ( 'NONE', #363, .T. ) ;
#349 = ADVANCED_FACE ( 'NONE', ( #79 ), #139, .T. ) ;
#350 = ORIENTED_EDGE ( 'NONE', *, *, #88, .F. ) ;
#351 = AXIS2_PLACEMENT_3D ( 'NONE', #280, #136, #273 ) ;
#352 = ORGANIZATION ( 'UNSPECIFIED', 'UNSPECIFIED', '' ) ;
#353 = EDGE_LOOP ( 'NONE', ( #298, #265, #344, #15 ) ) ;
#354 = EDGE_CURVE ( 'NONE', #69, #46, #53, .T. ) ;
#355 = DIRECTION ( 'NONE',  ( 0.7071067811865522357, 0.7071067811865427988, 0.000000000000000000 ) ) ;
#356 = DIRECTION ( 'NONE',  ( 1.000000000000000000, 3.768143997376471359E-17, -0.000000000000000000 ) ) ;
#357 = EDGE_CURVE ( 'NONE', #326, #180, #252, .T. ) ;
#358 = DIRECTION ( 'NONE',  ( -3.768143997376471359E-17, 1.000000000000000000, 0.000000000000000000 ) ) ;
#359 = ORIENTED_EDGE ( 'NONE', *, *, #225, .F. ) ;
#360 = AXIS2_PLACEMENT_3D ( 'NONE', #291, #6, #124 ) ;
#361 = VECTOR ( 'NONE', #331, 1000.000000000000000 ) ;
#362 = CARTESIAN_POINT ( 'NONE',  ( -26.00000000000000000, -9.797174393178825657E-16, 0.000000000000000000 ) ) ;
#363 = EDGE_LOOP ( 'NONE', ( #306, #14, #328, #321 ) ) ;
#364 = DIRECTION ( 'NONE',  ( 0.7071067811865525687, -0.7071067811865425767, 8.659560562354874926E-17 ) ) ;
#365 = TOROIDAL_SURFACE ( 'NONE', #194, 6.999999999999990230, 3.000000000000000444 ) ;
ENDSEC;
END-ISO-10303-21;
