ISO-10303-21;
HEADER;
FILE_DESCRIPTION (( 'STEP AP203' ),
    '1' );
FILE_NAME ('387472387488.step',
    '2022-05-31T14:09:12',
    ( '' ),
    ( '' ),
    'SwSTEP 2.0',
    'SolidWorks 2019',
    '' );
FILE_SCHEMA (( 'CONFIG_CONTROL_DESIGN' ));
ENDSEC;

DATA;
#1 = AXIS2_PLACEMENT_3D ( 'NONE', #317, #272, #238 ) ;
#2 = ORIENTED_EDGE ( 'NONE', *, *, #199, .T. ) ;
#3 = ORIENTED_EDGE ( 'NONE', *, *, #149, .T. ) ;
#4 = CC_DESIGN_PERSON_AND_ORGANIZATION_ASSIGNMENT ( #150, #213, ( #335 ) ) ;
#5 = APPROVAL_DATE_TIME ( #117, #35 ) ;
#6 = VERTEX_POINT ( 'NONE', #234 ) ;
#7 = MECHANICAL_CONTEXT ( 'NONE', #198, 'mechanical' ) ;
#8 = CALENDAR_DATE ( 2022, 31, 5 ) ;
#9 = ORIENTED_EDGE ( 'NONE', *, *, #310, .T. ) ;
#10 = CIRCLE ( 'NONE', #175, 1.999999999999998224 ) ;
#11 = PERSON_AND_ORGANIZATION ( #194, #359 ) ;
#12 = FACE_OUTER_BOUND ( 'NONE', #146, .T. ) ;
#13 =( NAMED_UNIT ( * ) SI_UNIT ( $, .STERADIAN. ) SOLID_ANGLE_UNIT ( ) );
#14 = VERTEX_POINT ( 'NONE', #341 ) ;
#15 = DIRECTION ( 'NONE',  ( 0.000000000000000000, 1.000000000000000000, 0.000000000000000000 ) ) ;
#16 = DIRECTION ( 'NONE',  ( 0.000000000000000000, 1.000000000000000000, 0.000000000000000000 ) ) ;
#17 = EDGE_LOOP ( 'NONE', ( #315, #102, #176, #49 ) ) ;
#18 = CARTESIAN_POINT ( 'NONE',  ( -26.00000000000000000, -9.999999999999989342, 1.224646799147351876E-15 ) ) ;
#19 = ORIENTED_EDGE ( 'NONE', *, *, #323, .F. ) ;
#20 = CC_DESIGN_APPROVAL ( #232, ( #335 ) ) ;
#21 = EDGE_CURVE ( 'NONE', #14, #325, #113, .T. ) ;
#22 = FACE_OUTER_BOUND ( 'NONE', #248, .T. ) ;
#23 = AXIS2_PLACEMENT_3D ( 'NONE', #308, #55, #336 ) ;
#24 = DIRECTION ( 'NONE',  ( -1.153661371278349506E-33, 1.224646799147353207E-16, 1.000000000000000000 ) ) ;
#25 = DIRECTION ( 'NONE',  ( 1.000000000000000000, 9.420359993441158369E-18, -0.000000000000000000 ) ) ;
#26 = CARTESIAN_POINT ( 'NONE',  ( -1.999999999999998224, -9.999999999999987566, 1.224646799147351679E-15 ) ) ;
#27 = ADVANCED_FACE ( 'NONE', ( #313 ), #128, .T. ) ;
#28 = CARTESIAN_POINT ( 'NONE',  ( -91.00000000000000000, -8.205133554287265970E-15, 0.000000000000000000 ) ) ;
#29 = MANIFOLD_SOLID_BREP ( 'Révolution2', #254 ) ;
#30 = ORIENTED_EDGE ( 'NONE', *, *, #223, .T. ) ;
#31 = DATE_TIME_ROLE ( 'classification_date' ) ;
#32 = CIRCLE ( 'NONE', #276, 1.999999999999998224 ) ;
#33 = ORIENTED_EDGE ( 'NONE', *, *, #329, .T. ) ;
#34 = APPROVAL_DATE_TIME ( #121, #211 ) ;
#35 = APPROVAL ( #189, 'UNSPECIFIED' ) ;
#36 = COORDINATED_UNIVERSAL_TIME_OFFSET ( 1, 0, .AHEAD. ) ;
#37 =( GEOMETRIC_REPRESENTATION_CONTEXT ( 3 ) GLOBAL_UNCERTAINTY_ASSIGNED_CONTEXT ( ( #120 ) ) GLOBAL_UNIT_ASSIGNED_CONTEXT ( ( #342, #262, #13 ) ) REPRESENTATION_CONTEXT ( 'NONE', 'WORKASPACE' ) );
#38 = APPROVAL_STATUS ( 'not_yet_approved' ) ;
#39 = CARTESIAN_POINT ( 'NONE',  ( -26.00000000000000000, -2.449293598294700991E-16, 0.000000000000000000 ) ) ;
#40 = COORDINATED_UNIVERSAL_TIME_OFFSET ( 1, 0, .AHEAD. ) ;
#41 = EDGE_LOOP ( 'NONE', ( #214, #2, #350, #116 ) ) ;
#42 = AXIS2_PLACEMENT_3D ( 'NONE', #365, #105, #309 ) ;
#43 = FACE_OUTER_BOUND ( 'NONE', #270, .T. ) ;
#44 = COORDINATED_UNIVERSAL_TIME_OFFSET ( 1, 0, .AHEAD. ) ;
#45 = ORIENTED_EDGE ( 'NONE', *, *, #144, .F. ) ;
#46 = LINE ( 'NONE', #124, #226 ) ;
#47 = PRODUCT_RELATED_PRODUCT_CATEGORY ( 'detail', '', ( #221 ) ) ;
#48 = DIRECTION ( 'NONE',  ( -9.420359993441158369E-18, 1.000000000000000000, 0.000000000000000000 ) ) ;
#49 = ORIENTED_EDGE ( 'NONE', *, *, #253, .F. ) ;
#50 = AXIS2_PLACEMENT_3D ( 'NONE', #69, #266, #119 ) ;
#51 = DIRECTION ( 'NONE',  ( 0.7071067811865483499, -0.7071067811865467956, 8.659560562354925463E-17 ) ) ;
#52 = LOCAL_TIME ( 16, 9, 12.00000000000000000, #260 ) ;
#53 = DIRECTION ( 'NONE',  ( 1.224646799147352961E-16, -1.000000000000000000, 0.000000000000000000 ) ) ;
#54 = DIRECTION ( 'NONE',  ( 0.000000000000000000, 1.000000000000000000, 0.000000000000000000 ) ) ;
#55 = DIRECTION ( 'NONE',  ( 1.000000000000000000, 9.420359993441158369E-18, -0.000000000000000000 ) ) ;
#56 = CIRCLE ( 'NONE', #42, 9.999999999999989342 ) ;
#57 = EDGE_CURVE ( 'NONE', #6, #325, #201, .T. ) ;
#58 = ORIENTED_EDGE ( 'NONE', *, *, #167, .T. ) ;
#59 = COORDINATED_UNIVERSAL_TIME_OFFSET ( 1, 0, .AHEAD. ) ;
#60 = VERTEX_POINT ( 'NONE', #18 ) ;
#61 = CIRCLE ( 'NONE', #364, 7.999999999999989342 ) ;
#62 = PERSON_AND_ORGANIZATION_ROLE ( 'design_owner' ) ;
#63 = CC_DESIGN_PERSON_AND_ORGANIZATION_ASSIGNMENT ( #235, #340, ( #67 ) ) ;
#64 = DIRECTION ( 'NONE',  ( -9.420359993441156828E-18, 1.000000000000000000, 0.000000000000000000 ) ) ;
#65 = CALENDAR_DATE ( 2022, 31, 5 ) ;
#66 = ORIENTED_EDGE ( 'NONE', *, *, #253, .T. ) ;
#67 = PRODUCT_DEFINITION_FORMATION_WITH_SPECIFIED_SOURCE ( 'ANY', '', #221, .NOT_KNOWN. ) ;
#68 = DIRECTION ( 'NONE',  ( -9.420359993441158369E-18, 1.000000000000000000, 0.000000000000000000 ) ) ;
#69 = CARTESIAN_POINT ( 'NONE',  ( -26.00000000000000000, -2.449293598294700005E-16, 0.000000000000000000 ) ) ;
#70 = ORIENTED_EDGE ( 'NONE', *, *, #310, .F. ) ;
#71 = AXIS2_PLACEMENT_3D ( 'NONE', #200, #306, #362 ) ;
#72 = CARTESIAN_POINT ( 'NONE',  ( 0.000000000000000000, 0.000000000000000000, 0.000000000000000000 ) ) ;
#73 = LINE ( 'NONE', #304, #353 ) ;
#74 = VERTEX_POINT ( 'NONE', #345 ) ;
#75 = CARTESIAN_POINT ( 'NONE',  ( -91.00000000000000000, -8.205133554287265970E-15, 0.000000000000000000 ) ) ;
#76 = DIRECTION ( 'NONE',  ( 0.000000000000000000, 1.000000000000000000, 0.000000000000000000 ) ) ;
#77 = CARTESIAN_POINT ( 'NONE',  ( -92.00000000000000000, -8.327598234201999541E-15, 0.000000000000000000 ) ) ;
#78 = FACE_OUTER_BOUND ( 'NONE', #267, .T. ) ;
#79 = AXIS2_PLACEMENT_3D ( 'NONE', #77, #171, #143 ) ;
#80 = ADVANCED_FACE ( 'NONE', ( #187 ), #274, .T. ) ;
#81 = AXIS2_PLACEMENT_3D ( 'NONE', #205, #256, #54 ) ;
#82 = EDGE_LOOP ( 'NONE', ( #70, #19 ) ) ;
#83 = VERTEX_POINT ( 'NONE', #101 ) ;
#84 = SHAPE_DEFINITION_REPRESENTATION ( #96, #140 ) ;
#85 = CARTESIAN_POINT ( 'NONE',  ( -26.00000000000000000, 9.999999999999994671, 0.000000000000000000 ) ) ;
#86 = CALENDAR_DATE ( 2022, 31, 5 ) ;
#87 = VECTOR ( 'NONE', #216, 1000.000000000000000 ) ;
#88 = DIRECTION ( 'NONE',  ( -9.420359993441158369E-18, 1.000000000000000000, 0.000000000000000000 ) ) ;
#89 = EDGE_CURVE ( 'NONE', #186, #123, #32, .T. ) ;
#90 = DIRECTION ( 'NONE',  ( 1.000000000000000000, 1.224646799147352961E-16, -0.000000000000000000 ) ) ;
#91 = CALENDAR_DATE ( 2022, 31, 5 ) ;
#92 = ORIENTED_EDGE ( 'NONE', *, *, #273, .F. ) ;
#93 = DIRECTION ( 'NONE',  ( -1.000000000000000000, -9.420359993441158369E-18, 0.000000000000000000 ) ) ;
#94 = EDGE_LOOP ( 'NONE', ( #278, #290, #297, #239 ) ) ;
#95 = ADVANCED_FACE ( 'NONE', ( #219 ), #196, .T. ) ;
#96 = PRODUCT_DEFINITION_SHAPE ( 'NONE', 'NONE',  #335 ) ;
#97 = DIRECTION ( 'NONE',  ( 1.000000000000000000, 1.224646799147352961E-16, -0.000000000000000000 ) ) ;
#98 = APPROVAL_PERSON_ORGANIZATION ( #314, #211, #264 ) ;
#99 = DIRECTION ( 'NONE',  ( 0.000000000000000000, 1.000000000000000000, 0.000000000000000000 ) ) ;
#100 = ORIENTED_EDGE ( 'NONE', *, *, #57, .F. ) ;
#101 = CARTESIAN_POINT ( 'NONE',  ( 1.018087497883461933E-15, -7.999999999999989342, 1.102182119232616531E-15 ) ) ;
#102 = ORIENTED_EDGE ( 'NONE', *, *, #57, .T. ) ;
#103 = CC_DESIGN_PERSON_AND_ORGANIZATION_ASSIGNMENT ( #344, #62, ( #221 ) ) ;
#104 = CIRCLE ( 'NONE', #311, 9.999999999999987566 ) ;
#105 = DIRECTION ( 'NONE',  ( 1.000000000000000000, 1.224646799147352961E-16, -0.000000000000000000 ) ) ;
#106 = CARTESIAN_POINT ( 'NONE',  ( -92.00000000000000000, -8.327598234201999541E-15, 0.000000000000000000 ) ) ;
#107 = CC_DESIGN_DATE_AND_TIME_ASSIGNMENT ( #210, #31, ( #168 ) ) ;
#108 = AXIS2_PLACEMENT_3D ( 'NONE', #349, #93, #324 ) ;
#109 = DIRECTION ( 'NONE',  ( 1.000000000000000000, 9.420359993441158369E-18, -0.000000000000000000 ) ) ;
#110 = DIRECTION ( 'NONE',  ( -9.420359993441156828E-18, 1.000000000000000000, 0.000000000000000000 ) ) ;
#111 = ADVANCED_FACE ( 'NONE', ( #43 ), #328, .T. ) ;
#112 = AXIS2_PLACEMENT_3D ( 'NONE', #129, #292, #88 ) ;
#113 = LINE ( 'NONE', #208, #130 ) ;
#114 = EDGE_CURVE ( 'NONE', #6, #197, #73, .T. ) ;
#115 = CIRCLE ( 'NONE', #282, 9.999999999999989342 ) ;
#116 = ORIENTED_EDGE ( 'NONE', *, *, #329, .F. ) ;
#117 = DATE_AND_TIME ( #348, #215 ) ;
#118 = DIRECTION ( 'NONE',  ( 1.000000000000000000, 1.224646799147352961E-16, -0.000000000000000000 ) ) ;
#119 = DIRECTION ( 'NONE',  ( -1.224646799147352961E-16, 1.000000000000000000, 0.000000000000000000 ) ) ;
#120 = UNCERTAINTY_MEASURE_WITH_UNIT (LENGTH_MEASURE( 1.000000000000000082E-05 ), #342, 'distance_accuracy_value', 'NONE');
#121 = DATE_AND_TIME ( #8, #354 ) ;
#122 = AXIS2_PLACEMENT_3D ( 'NONE', #75, #225, #145 ) ;
#123 = VERTEX_POINT ( 'NONE', #247 ) ;
#124 = CARTESIAN_POINT ( 'NONE',  ( 9.420359993441146659E-17, -9.999999999999987566, 1.224646799147351679E-15 ) ) ;
#125 = DATE_AND_TIME ( #91, #204 ) ;
#126 = ORIENTED_EDGE ( 'NONE', *, *, #323, .T. ) ;
#127 = ADVANCED_FACE ( 'NONE', ( #12 ), #246, .T. ) ;
#128 = CYLINDRICAL_SURFACE ( 'NONE', #333, 9.999999999999994671 ) ;
#129 = CARTESIAN_POINT ( 'NONE',  ( -1.999999999999998224, 0.000000000000000000, 0.000000000000000000 ) ) ;
#130 = VECTOR ( 'NONE', #230, 1000.000000000000000 ) ;
#131 = DIRECTION ( 'NONE',  ( -9.420359993441158369E-18, 1.000000000000000000, 0.000000000000000000 ) ) ;
#132 = CARTESIAN_POINT ( 'NONE',  ( -1.999999999999998224, 0.000000000000000000, 0.000000000000000000 ) ) ;
#133 = ORIENTED_EDGE ( 'NONE', *, *, #257, .T. ) ;
#134 = CC_DESIGN_DATE_AND_TIME_ASSIGNMENT ( #241, #153, ( #335 ) ) ;
#135 = CIRCLE ( 'NONE', #337, 7.999999999999989342 ) ;
#136 = CARTESIAN_POINT ( 'NONE',  ( -91.00000000000000000, -8.205133554287265970E-15, 0.000000000000000000 ) ) ;
#137 = CIRCLE ( 'NONE', #71, 9.999999999999989342 ) ;
#138 = DIRECTION ( 'NONE',  ( 0.000000000000000000, -1.000000000000000000, 1.224646799147353454E-16 ) ) ;
#139 = ADVANCED_FACE ( 'NONE', ( #319 ), #355, .T. ) ;
#140 = ADVANCED_BREP_SHAPE_REPRESENTATION ( '387472387488', ( #155, #29, #1 ), #37 ) ;
#141 = CARTESIAN_POINT ( 'NONE',  ( -1.999999999999998224, 9.999999999999987566, 0.000000000000000000 ) ) ;
#142 = AXIS2_PLACEMENT_3D ( 'NONE', #271, #97, #15 ) ;
#143 = DIRECTION ( 'NONE',  ( 0.000000000000000000, 1.000000000000000000, 0.000000000000000000 ) ) ;
#144 = EDGE_CURVE ( 'NONE', #60, #261, #46, .T. ) ;
#145 = DIRECTION ( 'NONE',  ( 0.000000000000000000, 1.000000000000000000, 0.000000000000000000 ) ) ;
#146 = EDGE_LOOP ( 'NONE', ( #45, #193, #58, #159 ) ) ;
#147 = CC_DESIGN_APPROVAL ( #211, ( #168 ) ) ;
#148 = EDGE_LOOP ( 'NONE', ( #154, #126, #190, #100 ) ) ;
#149 = EDGE_CURVE ( 'NONE', #123, #83, #61, .T. ) ;
#150 = PERSON_AND_ORGANIZATION ( #194, #359 ) ;
#151 = PERSON_AND_ORGANIZATION ( #194, #359 ) ;
#152 = APPROVAL_PERSON_ORGANIZATION ( #161, #232, #293 ) ;
#153 = DATE_TIME_ROLE ( 'creation_date' ) ;
#154 = ORIENTED_EDGE ( 'NONE', *, *, #223, .F. ) ;
#155 = MANIFOLD_SOLID_BREP ( 'Révolution1', #289 ) ;
#156 = PLANE ( 'NONE',  #108 ) ;
#157 = CONICAL_SURFACE ( 'NONE', #360, 9.999999999999998224, 0.7853981633974473908 ) ;
#158 = LINE ( 'NONE', #85, #258 ) ;
#159 = ORIENTED_EDGE ( 'NONE', *, *, #199, .F. ) ;
#160 = DIRECTION ( 'NONE',  ( -9.420359993441158369E-18, 1.000000000000000000, 0.000000000000000000 ) ) ;
#161 = PERSON_AND_ORGANIZATION ( #194, #359 ) ;
#162 = EDGE_LOOP ( 'NONE', ( #339, #302, #179, #166 ) ) ;
#163 = CARTESIAN_POINT ( 'NONE',  ( -9.420359993441146659E-17, 9.999999999999987566, 0.000000000000000000 ) ) ;
#164 = AXIS2_PLACEMENT_3D ( 'NONE', #72, #212, #68 ) ;
#165 = DIRECTION ( 'NONE',  ( 1.000000000000000000, 9.420359993441158369E-18, -0.000000000000000000 ) ) ;
#166 = ORIENTED_EDGE ( 'NONE', *, *, #167, .F. ) ;
#167 = EDGE_CURVE ( 'NONE', #209, #186, #184, .T. ) ;
#168 = SECURITY_CLASSIFICATION ( '', '', #180 ) ;
#169 = ADVANCED_FACE ( 'NONE', ( #277 ), #156, .T. ) ;
#170 = DIRECTION ( 'NONE',  ( 0.000000000000000000, 1.000000000000000000, 0.000000000000000000 ) ) ;
#171 = DIRECTION ( 'NONE',  ( 1.000000000000000000, 1.224646799147352961E-16, -0.000000000000000000 ) ) ;
#172 = DIRECTION ( 'NONE',  ( 0.000000000000000000, 1.000000000000000000, 0.000000000000000000 ) ) ;
#173 = EDGE_CURVE ( 'NONE', #261, #83, #10, .T. ) ;
#174 = FACE_OUTER_BOUND ( 'NONE', #82, .T. ) ;
#175 = AXIS2_PLACEMENT_3D ( 'NONE', #203, #24, #138 ) ;
#176 = ORIENTED_EDGE ( 'NONE', *, *, #351, .T. ) ;
#177 = EDGE_CURVE ( 'NONE', #325, #6, #268, .T. ) ;
#178 = AXIS2_PLACEMENT_3D ( 'NONE', #243, #191, #48 ) ;
#179 = ORIENTED_EDGE ( 'NONE', *, *, #195, .F. ) ;
#180 = SECURITY_CLASSIFICATION_LEVEL ( 'unclassified' ) ;
#181 = APPROVAL_DATE_TIME ( #125, #232 ) ;
#182 = PERSON_AND_ORGANIZATION_ROLE ( 'classification_officer' ) ;
#183 = APPLICATION_PROTOCOL_DEFINITION ( 'international standard', 'config_control_design', 1994, #198 ) ;
#184 = LINE ( 'NONE', #163, #87 ) ;
#185 = PERSON_AND_ORGANIZATION ( #194, #359 ) ;
#186 = VERTEX_POINT ( 'NONE', #141 ) ;
#187 = FACE_OUTER_BOUND ( 'NONE', #162, .T. ) ;
#188 = AXIS2_PLACEMENT_3D ( 'NONE', #136, #250, #202 ) ;
#189 = APPROVAL_STATUS ( 'not_yet_approved' ) ;
#190 = ORIENTED_EDGE ( 'NONE', *, *, #21, .T. ) ;
#191 = DIRECTION ( 'NONE',  ( 1.000000000000000000, 9.420359993441158369E-18, -0.000000000000000000 ) ) ;
#192 = DIRECTION ( 'NONE',  ( 1.000000000000000000, 9.420359993441158369E-18, -0.000000000000000000 ) ) ;
#193 = ORIENTED_EDGE ( 'NONE', *, *, #273, .T. ) ;
#194 = PERSON ( 'UNSPECIFIED', 'UNSPECIFIED', 'UNSPECIFIED', ('UNSPECIFIED'), ('UNSPECIFIED'), ('UNSPECIFIED') ) ;
#195 = EDGE_CURVE ( 'NONE', #186, #261, #104, .T. ) ;
#196 = TOROIDAL_SURFACE ( 'NONE', #343, 7.999999999999989342, 1.999999999999998668 ) ;
#197 = VERTEX_POINT ( 'NONE', #228 ) ;
#198 = APPLICATION_CONTEXT ( 'configuration controlled 3d designs of mechanical parts and assemblies' ) ;
#199 = EDGE_CURVE ( 'NONE', #261, #186, #338, .T. ) ;
#200 = CARTESIAN_POINT ( 'NONE',  ( -26.00000000000000000, -2.449293598294700991E-16, 0.000000000000000000 ) ) ;
#201 = CIRCLE ( 'NONE', #142, 9.999999999999998224 ) ;
#202 = DIRECTION ( 'NONE',  ( 0.000000000000000000, 1.000000000000000000, 0.000000000000000000 ) ) ;
#203 = CARTESIAN_POINT ( 'NONE',  ( -1.999999999999998224, -7.999999999999989342, 9.797174393178813824E-16 ) ) ;
#204 = LOCAL_TIME ( 16, 9, 12.00000000000000000, #40 ) ;
#205 = CARTESIAN_POINT ( 'NONE',  ( -92.00000000000000000, -8.327598234201999541E-15, 0.000000000000000000 ) ) ;
#206 = EDGE_CURVE ( 'NONE', #209, #60, #222, .T. ) ;
#207 = CIRCLE ( 'NONE', #81, 9.000000000000000000 ) ;
#208 = CARTESIAN_POINT ( 'NONE',  ( -91.00000000000000000, 9.999999999999989342, 0.000000000000000000 ) ) ;
#209 = VERTEX_POINT ( 'NONE', #363 ) ;
#210 = DATE_AND_TIME ( #86, #52 ) ;
#211 = APPROVAL ( #38, 'UNSPECIFIED' ) ;
#212 = DIRECTION ( 'NONE',  ( 1.000000000000000000, 9.420359993441158369E-18, -0.000000000000000000 ) ) ;
#213 = PERSON_AND_ORGANIZATION_ROLE ( 'creator' ) ;
#214 = ORIENTED_EDGE ( 'NONE', *, *, #173, .F. ) ;
#215 = LOCAL_TIME ( 16, 9, 12.00000000000000000, #44 ) ;
#216 = DIRECTION ( 'NONE',  ( 1.000000000000000000, 9.420359993441158369E-18, -0.000000000000000000 ) ) ;
#217 = ORIENTED_EDGE ( 'NONE', *, *, #195, .T. ) ;
#218 = DIRECTION ( 'NONE',  ( -0.000000000000000000, 0.000000000000000000, -1.000000000000000000 ) ) ;
#219 = FACE_OUTER_BOUND ( 'NONE', #41, .T. ) ;
#220 = ORIENTED_EDGE ( 'NONE', *, *, #149, .F. ) ;
#221 = PRODUCT ( '387472387488', '387472387488', '', ( #7 ) ) ;
#222 = CIRCLE ( 'NONE', #231, 9.999999999999989342 ) ;
#223 = EDGE_CURVE ( 'NONE', #305, #6, #224, .T. ) ;
#224 = LINE ( 'NONE', #330, #298 ) ;
#225 = DIRECTION ( 'NONE',  ( 1.000000000000000000, 1.224646799147352961E-16, -0.000000000000000000 ) ) ;
#226 = VECTOR ( 'NONE', #165, 1000.000000000000000 ) ;
#227 = DIRECTION ( 'NONE',  ( 1.000000000000000000, 1.224646799147352961E-16, -0.000000000000000000 ) ) ;
#228 = CARTESIAN_POINT ( 'NONE',  ( -26.00000000000000000, -9.999999999999989342, 1.224646799147352468E-15 ) ) ;
#229 = LOCAL_TIME ( 16, 9, 12.00000000000000000, #36 ) ;
#230 = DIRECTION ( 'NONE',  ( 0.7071067811865481278, 0.7071067811865470176, 0.000000000000000000 ) ) ;
#231 = AXIS2_PLACEMENT_3D ( 'NONE', #283, #109, #76 ) ;
#232 = APPROVAL ( #320, 'UNSPECIFIED' ) ;
#233 = CC_DESIGN_SECURITY_CLASSIFICATION ( #168, ( #67 ) ) ;
#234 = CARTESIAN_POINT ( 'NONE',  ( -91.00000000000000000, -10.00000000000000888, 1.224646799147353256E-15 ) ) ;
#235 = PERSON_AND_ORGANIZATION ( #194, #359 ) ;
#236 = APPLICATION_CONTEXT ( 'configuration controlled 3d designs of mechanical parts and assemblies' ) ;
#237 = PLANE ( 'NONE',  #50 ) ;
#238 = DIRECTION ( 'NONE',  ( 1.000000000000000000, 0.000000000000000000, 0.000000000000000000 ) ) ;
#239 = ORIENTED_EDGE ( 'NONE', *, *, #351, .F. ) ;
#240 = CARTESIAN_POINT ( 'NONE',  ( 9.427246179359326416E-16, 8.880805275635761480E-33, 0.000000000000000000 ) ) ;
#241 = DATE_AND_TIME ( #65, #229 ) ;
#242 = ORIENTED_EDGE ( 'NONE', *, *, #206, .F. ) ;
#243 = CARTESIAN_POINT ( 'NONE',  ( 0.000000000000000000, 0.000000000000000000, 0.000000000000000000 ) ) ;
#244 = AXIS2_PLACEMENT_3D ( 'NONE', #303, #357, #99 ) ;
#245 = CC_DESIGN_PERSON_AND_ORGANIZATION_ASSIGNMENT ( #11, #182, ( #168 ) ) ;
#246 = CYLINDRICAL_SURFACE ( 'NONE', #164, 9.999999999999987566 ) ;
#247 = CARTESIAN_POINT ( 'NONE',  ( 8.673617379884035472E-16, 7.999999999999989342, 0.000000000000000000 ) ) ;
#248 = EDGE_LOOP ( 'NONE', ( #133, #66 ) ) ;
#249 = AXIS2_PLACEMENT_3D ( 'NONE', #106, #287, #53 ) ;
#250 = DIRECTION ( 'NONE',  ( 1.000000000000000000, 1.224646799147352961E-16, -0.000000000000000000 ) ) ;
#251 = FACE_OUTER_BOUND ( 'NONE', #148, .T. ) ;
#252 = CARTESIAN_POINT ( 'NONE',  ( -1.999999999999998224, -1.884071998688230133E-17, 0.000000000000000000 ) ) ;
#253 = EDGE_CURVE ( 'NONE', #197, #74, #115, .T. ) ;
#254 = CLOSED_SHELL ( 'NONE', ( #80, #358, #95, #127, #169, #111 ) ) ;
#255 = CARTESIAN_POINT ( 'NONE',  ( 9.427246179359326416E-16, 8.880805275635761480E-33, 0.000000000000000000 ) ) ;
#256 = DIRECTION ( 'NONE',  ( 1.000000000000000000, 1.224646799147352961E-16, -0.000000000000000000 ) ) ;
#257 = EDGE_CURVE ( 'NONE', #74, #197, #56, .T. ) ;
#258 = VECTOR ( 'NONE', #118, 1000.000000000000000 ) ;
#259 = ORIENTED_EDGE ( 'NONE', *, *, #21, .F. ) ;
#260 = COORDINATED_UNIVERSAL_TIME_OFFSET ( 1, 0, .AHEAD. ) ;
#261 = VERTEX_POINT ( 'NONE', #26 ) ;
#262 =( NAMED_UNIT ( * ) PLANE_ANGLE_UNIT ( ) SI_UNIT ( $, .RADIAN. ) );
#263 = TOROIDAL_SURFACE ( 'NONE', #112, 7.999999999999989342, 1.999999999999998668 ) ;
#264 = APPROVAL_ROLE ( '' ) ;
#265 = ADVANCED_FACE ( 'NONE', ( #251 ), #286, .T. ) ;
#266 = DIRECTION ( 'NONE',  ( 1.000000000000000000, 1.224646799147352961E-16, -0.000000000000000000 ) ) ;
#267 = EDGE_LOOP ( 'NONE', ( #9, #30, #275, #259 ) ) ;
#268 = CIRCLE ( 'NONE', #188, 9.999999999999998224 ) ;
#269 = CARTESIAN_POINT ( 'NONE',  ( 3.959994290204371771E-16, 7.999999999999989342, 0.000000000000000000 ) ) ;
#270 = EDGE_LOOP ( 'NONE', ( #3, #33 ) ) ;
#271 = CARTESIAN_POINT ( 'NONE',  ( -91.00000000000000000, -8.205133554287265970E-15, 0.000000000000000000 ) ) ;
#272 = DIRECTION ( 'NONE',  ( 0.000000000000000000, 0.000000000000000000, 1.000000000000000000 ) ) ;
#273 = EDGE_CURVE ( 'NONE', #60, #209, #137, .T. ) ;
#274 = CYLINDRICAL_SURFACE ( 'NONE', #178, 9.999999999999987566 ) ;
#275 = ORIENTED_EDGE ( 'NONE', *, *, #177, .F. ) ;
#276 = AXIS2_PLACEMENT_3D ( 'NONE', #352, #218, #299 ) ;
#277 = FACE_OUTER_BOUND ( 'NONE', #288, .T. ) ;
#278 = ORIENTED_EDGE ( 'NONE', *, *, #177, .T. ) ;
#279 = CC_DESIGN_PERSON_AND_ORGANIZATION_ASSIGNMENT ( #151, #291, ( #67 ) ) ;
#280 = APPROVAL_PERSON_ORGANIZATION ( #185, #35, #301 ) ;
#281 = DIRECTION ( 'NONE',  ( 1.000000000000000000, 1.224646799147352961E-16, -0.000000000000000000 ) ) ;
#282 = AXIS2_PLACEMENT_3D ( 'NONE', #361, #281, #285 ) ;
#283 = CARTESIAN_POINT ( 'NONE',  ( -26.00000000000000000, -2.449293598294700991E-16, 0.000000000000000000 ) ) ;
#284 = CARTESIAN_POINT ( 'NONE',  ( -91.00000000000000000, 9.999999999999987566, 0.000000000000000000 ) ) ;
#285 = DIRECTION ( 'NONE',  ( 0.000000000000000000, 1.000000000000000000, 0.000000000000000000 ) ) ;
#286 = CONICAL_SURFACE ( 'NONE', #122, 9.999999999999998224, 0.7853981633974473908 ) ;
#287 = DIRECTION ( 'NONE',  ( -1.000000000000000000, -1.224646799147352961E-16, 0.000000000000000000 ) ) ;
#288 = EDGE_LOOP ( 'NONE', ( #242, #92 ) ) ;
#289 = CLOSED_SHELL ( 'NONE', ( #139, #300, #312, #265, #27, #331 ) ) ;
#290 = ORIENTED_EDGE ( 'NONE', *, *, #114, .T. ) ;
#291 = PERSON_AND_ORGANIZATION_ROLE ( 'design_supplier' ) ;
#292 = DIRECTION ( 'NONE',  ( 1.000000000000000000, 9.420359993441158369E-18, -0.000000000000000000 ) ) ;
#293 = APPROVAL_ROLE ( '' ) ;
#294 = DESIGN_CONTEXT ( 'detailed design', #236, 'design' ) ;
#295 = CIRCLE ( 'NONE', #79, 9.000000000000000000 ) ;
#296 = DIRECTION ( 'NONE',  ( 1.000000000000000000, 1.224646799147352961E-16, -0.000000000000000000 ) ) ;
#297 = ORIENTED_EDGE ( 'NONE', *, *, #257, .F. ) ;
#298 = VECTOR ( 'NONE', #51, 1000.000000000000000 ) ;
#299 = DIRECTION ( 'NONE',  ( -1.000000000000000000, 0.000000000000000000, 0.000000000000000000 ) ) ;
#300 = ADVANCED_FACE ( 'NONE', ( #78 ), #157, .T. ) ;
#301 = APPROVAL_ROLE ( '' ) ;
#302 = ORIENTED_EDGE ( 'NONE', *, *, #144, .T. ) ;
#303 = CARTESIAN_POINT ( 'NONE',  ( -26.00000000000000000, -2.449293598294700991E-16, 0.000000000000000000 ) ) ;
#304 = CARTESIAN_POINT ( 'NONE',  ( -26.00000000000000000, -9.999999999999994671, 1.224646799147352665E-15 ) ) ;
#305 = VERTEX_POINT ( 'NONE', #332 ) ;
#306 = DIRECTION ( 'NONE',  ( 1.000000000000000000, 9.420359993441158369E-18, -0.000000000000000000 ) ) ;
#307 = DIRECTION ( 'NONE',  ( 1.000000000000000000, 9.420359993441158369E-18, -0.000000000000000000 ) ) ;
#308 = CARTESIAN_POINT ( 'NONE',  ( -1.999999999999998224, -1.884071998688230133E-17, 0.000000000000000000 ) ) ;
#309 = DIRECTION ( 'NONE',  ( 0.000000000000000000, 1.000000000000000000, 0.000000000000000000 ) ) ;
#310 = EDGE_CURVE ( 'NONE', #14, #305, #207, .T. ) ;
#311 = AXIS2_PLACEMENT_3D ( 'NONE', #252, #307, #172 ) ;
#312 = ADVANCED_FACE ( 'NONE', ( #174 ), #334, .T. ) ;
#313 = FACE_OUTER_BOUND ( 'NONE', #17, .T. ) ;
#314 = PERSON_AND_ORGANIZATION ( #194, #359 ) ;
#315 = ORIENTED_EDGE ( 'NONE', *, *, #114, .F. ) ;
#316 = AXIS2_PLACEMENT_3D ( 'NONE', #269, #326, #131 ) ;
#317 = CARTESIAN_POINT ( 'NONE',  ( 0.000000000000000000, 0.000000000000000000, 0.000000000000000000 ) ) ;
#318 = FACE_OUTER_BOUND ( 'NONE', #347, .T. ) ;
#319 = FACE_OUTER_BOUND ( 'NONE', #94, .T. ) ;
#320 = APPROVAL_STATUS ( 'not_yet_approved' ) ;
#321 = ORIENTED_EDGE ( 'NONE', *, *, #89, .F. ) ;
#322 = CC_DESIGN_APPROVAL ( #35, ( #67 ) ) ;
#323 = EDGE_CURVE ( 'NONE', #305, #14, #295, .T. ) ;
#324 = DIRECTION ( 'NONE',  ( 9.420359993441158369E-18, -1.000000000000000000, 0.000000000000000000 ) ) ;
#325 = VERTEX_POINT ( 'NONE', #284 ) ;
#326 = DIRECTION ( 'NONE',  ( 1.000000000000000000, 9.420359993441158369E-18, -0.000000000000000000 ) ) ;
#327 = DIRECTION ( 'NONE',  ( 1.000000000000000000, 9.420359993441158369E-18, -0.000000000000000000 ) ) ;
#328 = PLANE ( 'NONE',  #316 ) ;
#329 = EDGE_CURVE ( 'NONE', #83, #123, #135, .T. ) ;
#330 = CARTESIAN_POINT ( 'NONE',  ( -91.00000000000000000, -10.00000000000000711, 1.224646799147353059E-15 ) ) ;
#331 = ADVANCED_FACE ( 'NONE', ( #22 ), #237, .T. ) ;
#332 = CARTESIAN_POINT ( 'NONE',  ( -92.00000000000000000, -9.000000000000007105, 1.163414459189985682E-15 ) ) ;
#333 = AXIS2_PLACEMENT_3D ( 'NONE', #39, #296, #16 ) ;
#334 = PLANE ( 'NONE',  #249 ) ;
#335 = PRODUCT_DEFINITION ( 'UNKNOWN', '', #67, #294 ) ;
#336 = DIRECTION ( 'NONE',  ( 0.000000000000000000, 1.000000000000000000, 0.000000000000000000 ) ) ;
#337 = AXIS2_PLACEMENT_3D ( 'NONE', #255, #25, #110 ) ;
#338 = CIRCLE ( 'NONE', #23, 9.999999999999987566 ) ;
#339 = ORIENTED_EDGE ( 'NONE', *, *, #206, .T. ) ;
#340 = PERSON_AND_ORGANIZATION_ROLE ( 'creator' ) ;
#341 = CARTESIAN_POINT ( 'NONE',  ( -92.00000000000000000, 8.999999999999991118, 0.000000000000000000 ) ) ;
#342 =( LENGTH_UNIT ( ) NAMED_UNIT ( * ) SI_UNIT ( .MILLI., .METRE. ) );
#343 = AXIS2_PLACEMENT_3D ( 'NONE', #132, #327, #160 ) ;
#344 = PERSON_AND_ORGANIZATION ( #194, #359 ) ;
#345 = CARTESIAN_POINT ( 'NONE',  ( -26.00000000000000000, 9.999999999999989342, 0.000000000000000000 ) ) ;
#346 = APPLICATION_PROTOCOL_DEFINITION ( 'international standard', 'config_control_design', 1994, #236 ) ;
#347 = EDGE_LOOP ( 'NONE', ( #217, #356, #220, #321 ) ) ;
#348 = CALENDAR_DATE ( 2022, 31, 5 ) ;
#349 = CARTESIAN_POINT ( 'NONE',  ( -26.00000000000000000, -2.449293598294700991E-16, 0.000000000000000000 ) ) ;
#350 = ORIENTED_EDGE ( 'NONE', *, *, #89, .T. ) ;
#351 = EDGE_CURVE ( 'NONE', #325, #74, #158, .T. ) ;
#352 = CARTESIAN_POINT ( 'NONE',  ( -1.999999999999998224, 7.999999999999989342, 0.000000000000000000 ) ) ;
#353 = VECTOR ( 'NONE', #90, 1000.000000000000000 ) ;
#354 = LOCAL_TIME ( 16, 9, 12.00000000000000000, #59 ) ;
#355 = CYLINDRICAL_SURFACE ( 'NONE', #244, 9.999999999999994671 ) ;
#356 = ORIENTED_EDGE ( 'NONE', *, *, #173, .T. ) ;
#357 = DIRECTION ( 'NONE',  ( 1.000000000000000000, 1.224646799147352961E-16, -0.000000000000000000 ) ) ;
#358 = ADVANCED_FACE ( 'NONE', ( #318 ), #263, .T. ) ;
#359 = ORGANIZATION ( 'UNSPECIFIED', 'UNSPECIFIED', '' ) ;
#360 = AXIS2_PLACEMENT_3D ( 'NONE', #28, #227, #170 ) ;
#361 = CARTESIAN_POINT ( 'NONE',  ( -26.00000000000000000, -2.449293598294699512E-16, 0.000000000000000000 ) ) ;
#362 = DIRECTION ( 'NONE',  ( 0.000000000000000000, 1.000000000000000000, 0.000000000000000000 ) ) ;
#363 = CARTESIAN_POINT ( 'NONE',  ( -26.00000000000000000, 9.999999999999989342, 0.000000000000000000 ) ) ;
#364 = AXIS2_PLACEMENT_3D ( 'NONE', #240, #192, #64 ) ;
#365 = CARTESIAN_POINT ( 'NONE',  ( -26.00000000000000000, -2.449293598294699512E-16, 0.000000000000000000 ) ) ;
ENDSEC;
END-ISO-10303-21;
