ISO-10303-21;
HEADER;
FILE_DESCRIPTION (( 'STEP AP203' ),
    '1' );
FILE_NAME ('387472387487.step',
    '2022-05-31T14:09:11',
    ( '' ),
    ( '' ),
    'SwSTEP 2.0',
    'SolidWorks 2019',
    '' );
FILE_SCHEMA (( 'CONFIG_CONTROL_DESIGN' ));
ENDSEC;

DATA;
#1 = EDGE_LOOP ( 'NONE', ( #274, #246 ) ) ;
#2 = CARTESIAN_POINT ( 'NONE',  ( -4.760724889646869262E-16, 8.999999999999991118, 0.000000000000000000 ) ) ;
#3 = CARTESIAN_POINT ( 'NONE',  ( -26.00000000000000000, -2.449293598294699512E-16, 0.000000000000000000 ) ) ;
#4 = DIRECTION ( 'NONE',  ( 1.000000000000000000, 1.224646799147352961E-16, -0.000000000000000000 ) ) ;
#5 = VECTOR ( 'NONE', #313, 1000.000000000000000 ) ;
#6 = ADVANCED_FACE ( 'NONE', ( #61 ), #92, .T. ) ;
#7 = CARTESIAN_POINT ( 'NONE',  ( -26.00000000000000000, 9.999999999999994671, 0.000000000000000000 ) ) ;
#8 = AXIS2_PLACEMENT_3D ( 'NONE', #9, #94, #66 ) ;
#9 = CARTESIAN_POINT ( 'NONE',  ( -91.00000000000000000, -8.205133554287265970E-15, 0.000000000000000000 ) ) ;
#10 = ADVANCED_FACE ( 'NONE', ( #177 ), #120, .T. ) ;
#11 = FACE_OUTER_BOUND ( 'NONE', #336, .T. ) ;
#12 = APPROVAL_PERSON_ORGANIZATION ( #359, #326, #279 ) ;
#13 = CIRCLE ( 'NONE', #228, 1.000000000000000888 ) ;
#14 = ORIENTED_EDGE ( 'NONE', *, *, #85, .F. ) ;
#15 = EDGE_CURVE ( 'NONE', #222, #83, #145, .T. ) ;
#16 = APPROVAL_DATE_TIME ( #112, #326 ) ;
#17 = CARTESIAN_POINT ( 'NONE',  ( -91.00000000000000000, -8.205133554287265970E-15, 0.000000000000000000 ) ) ;
#18 = EDGE_LOOP ( 'NONE', ( #221, #129, #226, #271 ) ) ;
#19 = DIRECTION ( 'NONE',  ( 1.000000000000000000, 9.420359993441158369E-18, -0.000000000000000000 ) ) ;
#20 = DATE_AND_TIME ( #364, #171 ) ;
#21 = PLANE ( 'NONE',  #324 ) ;
#22 = AXIS2_PLACEMENT_3D ( 'NONE', #259, #295, #68 ) ;
#23 = DIRECTION ( 'NONE',  ( 1.000000000000000000, 1.224646799147352961E-16, -0.000000000000000000 ) ) ;
#24 = ADVANCED_FACE ( 'NONE', ( #280 ), #62, .T. ) ;
#25 = CARTESIAN_POINT ( 'NONE',  ( -1.000000000000000888, 0.000000000000000000, 0.000000000000000000 ) ) ;
#26 = PERSON_AND_ORGANIZATION_ROLE ( 'classification_officer' ) ;
#27 = AXIS2_PLACEMENT_3D ( 'NONE', #227, #251, #189 ) ;
#28 = MANIFOLD_SOLID_BREP ( 'Révolution1', #282 ) ;
#29 = LOCAL_TIME ( 16, 9, 11.00000000000000000, #306 ) ;
#30 = LINE ( 'NONE', #122, #5 ) ;
#31 = FACE_OUTER_BOUND ( 'NONE', #267, .T. ) ;
#32 = DIRECTION ( 'NONE',  ( 1.000000000000000000, 1.224646799147352961E-16, -0.000000000000000000 ) ) ;
#33 = CC_DESIGN_PERSON_AND_ORGANIZATION_ASSIGNMENT ( #88, #139, ( #64 ) ) ;
#34 = CARTESIAN_POINT ( 'NONE',  ( -26.00000000000000000, -9.999999999999989342, 1.224646799147352468E-15 ) ) ;
#35 = VERTEX_POINT ( 'NONE', #255 ) ;
#36 = AXIS2_PLACEMENT_3D ( 'NONE', #316, #238, #341 ) ;
#37 = AXIS2_PLACEMENT_3D ( 'NONE', #100, #211, #286 ) ;
#38 = DESIGN_CONTEXT ( 'detailed design', #164, 'design' ) ;
#39 = CARTESIAN_POINT ( 'NONE',  ( -26.00000000000000000, -2.449293598294700005E-16, 0.000000000000000000 ) ) ;
#40 = ORIENTED_EDGE ( 'NONE', *, *, #15, .F. ) ;
#41 = ORIENTED_EDGE ( 'NONE', *, *, #243, .T. ) ;
#42 = ORIENTED_EDGE ( 'NONE', *, *, #315, .T. ) ;
#43 = DIRECTION ( 'NONE',  ( 1.224646799147352961E-16, -1.000000000000000000, 0.000000000000000000 ) ) ;
#44 = ADVANCED_FACE ( 'NONE', ( #203 ), #288, .T. ) ;
#45 = VECTOR ( 'NONE', #263, 1000.000000000000000 ) ;
#46 = CC_DESIGN_PERSON_AND_ORGANIZATION_ASSIGNMENT ( #137, #301, ( #201 ) ) ;
#47 = VERTEX_POINT ( 'NONE', #252 ) ;
#48 = LINE ( 'NONE', #361, #63 ) ;
#49 = ORIENTED_EDGE ( 'NONE', *, *, #320, .T. ) ;
#50 = COORDINATED_UNIVERSAL_TIME_OFFSET ( 1, 0, .AHEAD. ) ;
#51 = CARTESIAN_POINT ( 'NONE',  ( -92.00000000000000000, -8.327598234201999541E-15, 0.000000000000000000 ) ) ;
#52 = FACE_OUTER_BOUND ( 'NONE', #303, .T. ) ;
#53 = PERSON_AND_ORGANIZATION ( #55, #233 ) ;
#54 = CC_DESIGN_DATE_AND_TIME_ASSIGNMENT ( #108, #218, ( #64 ) ) ;
#55 = PERSON ( 'UNSPECIFIED', 'UNSPECIFIED', 'UNSPECIFIED', ('UNSPECIFIED'), ('UNSPECIFIED'), ('UNSPECIFIED') ) ;
#56 = PERSON_AND_ORGANIZATION ( #55, #233 ) ;
#57 = CALENDAR_DATE ( 2022, 31, 5 ) ;
#58 = EDGE_CURVE ( 'NONE', #75, #83, #310, .T. ) ;
#59 = AXIS2_PLACEMENT_3D ( 'NONE', #163, #273, #322 ) ;
#60 = CIRCLE ( 'NONE', #90, 9.999999999999991118 ) ;
#61 = FACE_OUTER_BOUND ( 'NONE', #241, .T. ) ;
#62 = TOROIDAL_SURFACE ( 'NONE', #210, 8.999999999999991118, 1.000000000000000444 ) ;
#63 = VECTOR ( 'NONE', #305, 1000.000000000000000 ) ;
#64 = PRODUCT_DEFINITION ( 'UNKNOWN', '', #350, #38 ) ;
#65 = DIRECTION ( 'NONE',  ( 0.000000000000000000, 1.000000000000000000, 0.000000000000000000 ) ) ;
#66 = DIRECTION ( 'NONE',  ( 0.000000000000000000, 1.000000000000000000, 0.000000000000000000 ) ) ;
#67 = APPLICATION_CONTEXT ( 'configuration controlled 3d designs of mechanical parts and assemblies' ) ;
#68 = DIRECTION ( 'NONE',  ( 0.000000000000000000, 1.000000000000000000, 0.000000000000000000 ) ) ;
#69 = ORIENTED_EDGE ( 'NONE', *, *, #225, .T. ) ;
#70 = CARTESIAN_POINT ( 'NONE',  ( 0.000000000000000000, 0.000000000000000000, 0.000000000000000000 ) ) ;
#71 = ORIENTED_EDGE ( 'NONE', *, *, #315, .F. ) ;
#72 = ORIENTED_EDGE ( 'NONE', *, *, #314, .F. ) ;
#73 = DIRECTION ( 'NONE',  ( 0.000000000000000000, -1.000000000000000000, 1.224646799147353454E-16 ) ) ;
#74 =( NAMED_UNIT ( * ) SI_UNIT ( $, .STERADIAN. ) SOLID_ANGLE_UNIT ( ) );
#75 = VERTEX_POINT ( 'NONE', #187 ) ;
#76 = VERTEX_POINT ( 'NONE', #209 ) ;
#77 = VECTOR ( 'NONE', #289, 1000.000000000000000 ) ;
#78 = AXIS2_PLACEMENT_3D ( 'NONE', #39, #4, #321 ) ;
#79 = DIRECTION ( 'NONE',  ( -9.420359993441162991E-18, 1.000000000000000000, 0.000000000000000000 ) ) ;
#80 = EDGE_CURVE ( 'NONE', #76, #35, #60, .T. ) ;
#81 = ORIENTED_EDGE ( 'NONE', *, *, #284, .T. ) ;
#82 = APPROVAL_ROLE ( '' ) ;
#83 = VERTEX_POINT ( 'NONE', #126 ) ;
#84 = DIRECTION ( 'NONE',  ( 1.000000000000000000, 9.420359993441158369E-18, -0.000000000000000000 ) ) ;
#85 = EDGE_CURVE ( 'NONE', #35, #76, #91, .T. ) ;
#86 = APPLICATION_PROTOCOL_DEFINITION ( 'international standard', 'config_control_design', 1994, #164 ) ;
#87 = AXIS2_PLACEMENT_3D ( 'NONE', #290, #32, #148 ) ;
#88 = PERSON_AND_ORGANIZATION ( #55, #233 ) ;
#89 = APPROVAL_STATUS ( 'not_yet_approved' ) ;
#90 = AXIS2_PLACEMENT_3D ( 'NONE', #104, #19, #217 ) ;
#91 = CIRCLE ( 'NONE', #198, 9.999999999999991118 ) ;
#92 = PLANE ( 'NONE',  #110 ) ;
#93 = AXIS2_PLACEMENT_3D ( 'NONE', #147, #95, #179 ) ;
#94 = DIRECTION ( 'NONE',  ( 1.000000000000000000, 1.224646799147352961E-16, -0.000000000000000000 ) ) ;
#95 = DIRECTION ( 'NONE',  ( 1.000000000000000000, 9.420359993441158369E-18, -0.000000000000000000 ) ) ;
#96 = CYLINDRICAL_SURFACE ( 'NONE', #149, 9.999999999999991118 ) ;
#97 = FACE_OUTER_BOUND ( 'NONE', #153, .T. ) ;
#98 = ORIENTED_EDGE ( 'NONE', *, *, #283, .T. ) ;
#99 = PRODUCT_DEFINITION_SHAPE ( 'NONE', 'NONE',  #64 ) ;
#100 = CARTESIAN_POINT ( 'NONE',  ( -7.825784980474331435E-16, -7.372171174733309618E-33, 0.000000000000000000 ) ) ;
#101 = VERTEX_POINT ( 'NONE', #269 ) ;
#102 = CC_DESIGN_DATE_AND_TIME_ASSIGNMENT ( #20, #165, ( #194 ) ) ;
#103 = ORIENTED_EDGE ( 'NONE', *, *, #155, .F. ) ;
#104 = CARTESIAN_POINT ( 'NONE',  ( -1.000000000000000888, -9.420359993441167613E-18, 0.000000000000000000 ) ) ;
#105 = APPROVAL_DATE_TIME ( #309, #121 ) ;
#106 = ORIENTED_EDGE ( 'NONE', *, *, #335, .F. ) ;
#107 = CARTESIAN_POINT ( 'NONE',  ( -26.00000000000000000, 9.999999999999989342, 0.000000000000000000 ) ) ;
#108 = DATE_AND_TIME ( #192, #262 ) ;
#109 = DIRECTION ( 'NONE',  ( -1.153661371278349506E-33, 1.224646799147353207E-16, 1.000000000000000000 ) ) ;
#110 = AXIS2_PLACEMENT_3D ( 'NONE', #2, #143, #258 ) ;
#111 = ADVANCED_FACE ( 'NONE', ( #232 ), #96, .T. ) ;
#112 = DATE_AND_TIME ( #162, #323 ) ;
#113 = PERSON_AND_ORGANIZATION ( #55, #233 ) ;
#114 = ORIENTED_EDGE ( 'NONE', *, *, #205, .T. ) ;
#115 = CIRCLE ( 'NONE', #188, 8.999999999999991118 ) ;
#116 = ADVANCED_FACE ( 'NONE', ( #11 ), #202, .T. ) ;
#117 = PERSON_AND_ORGANIZATION ( #55, #233 ) ;
#118 = CARTESIAN_POINT ( 'NONE',  ( -91.00000000000000000, -8.205133554287265970E-15, 0.000000000000000000 ) ) ;
#119 = ORIENTED_EDGE ( 'NONE', *, *, #335, .T. ) ;
#120 = PLANE ( 'NONE',  #152 ) ;
#121 = APPROVAL ( #89, 'UNSPECIFIED' ) ;
#122 = CARTESIAN_POINT ( 'NONE',  ( -91.00000000000000000, -10.00000000000000711, 1.224646799147353059E-15 ) ) ;
#123 = APPROVAL_PERSON_ORGANIZATION ( #117, #121, #82 ) ;
#124 = CARTESIAN_POINT ( 'NONE',  ( -26.00000000000000000, -2.449293598294699512E-16, 0.000000000000000000 ) ) ;
#125 = CARTESIAN_POINT ( 'NONE',  ( -9.420359993441150357E-17, 9.999999999999991118, 0.000000000000000000 ) ) ;
#126 = CARTESIAN_POINT ( 'NONE',  ( -91.00000000000000000, 9.999999999999987566, 0.000000000000000000 ) ) ;
#127 = ORIENTED_EDGE ( 'NONE', *, *, #308, .T. ) ;
#128 = DIRECTION ( 'NONE',  ( -9.420359993441158369E-18, 1.000000000000000000, 0.000000000000000000 ) ) ;
#129 = ORIENTED_EDGE ( 'NONE', *, *, #58, .T. ) ;
#130 = FACE_OUTER_BOUND ( 'NONE', #242, .T. ) ;
#131 = ORIENTED_EDGE ( 'NONE', *, *, #248, .F. ) ;
#132 = ORIENTED_EDGE ( 'NONE', *, *, #237, .F. ) ;
#133 = VERTEX_POINT ( 'NONE', #349 ) ;
#134 = SHAPE_DEFINITION_REPRESENTATION ( #99, #253 ) ;
#135 = DIRECTION ( 'NONE',  ( 1.000000000000000000, 9.420359993441158369E-18, -0.000000000000000000 ) ) ;
#136 = DIRECTION ( 'NONE',  ( -9.420359993441158369E-18, 1.000000000000000000, 0.000000000000000000 ) ) ;
#137 = PERSON_AND_ORGANIZATION ( #55, #233 ) ;
#138 = DIRECTION ( 'NONE',  ( -9.420359993441158369E-18, 1.000000000000000000, 0.000000000000000000 ) ) ;
#139 = PERSON_AND_ORGANIZATION_ROLE ( 'creator' ) ;
#140 = AXIS2_PLACEMENT_3D ( 'NONE', #124, #346, #65 ) ;
#141 = ORIENTED_EDGE ( 'NONE', *, *, #58, .F. ) ;
#142 = ADVANCED_FACE ( 'NONE', ( #130 ), #294, .T. ) ;
#143 = DIRECTION ( 'NONE',  ( 1.000000000000000000, 9.420359993441158369E-18, -0.000000000000000000 ) ) ;
#144 = ORIENTED_EDGE ( 'NONE', *, *, #80, .T. ) ;
#145 = LINE ( 'NONE', #287, #173 ) ;
#146 = DIRECTION ( 'NONE',  ( 0.000000000000000000, 1.000000000000000000, 0.000000000000000000 ) ) ;
#147 = CARTESIAN_POINT ( 'NONE',  ( -26.00000000000000000, -2.449293598294700991E-16, 0.000000000000000000 ) ) ;
#148 = DIRECTION ( 'NONE',  ( 0.000000000000000000, 1.000000000000000000, 0.000000000000000000 ) ) ;
#149 = AXIS2_PLACEMENT_3D ( 'NONE', #70, #234, #128 ) ;
#150 = ADVANCED_FACE ( 'NONE', ( #97 ), #265, .T. ) ;
#151 = CARTESIAN_POINT ( 'NONE',  ( 9.420359993441150357E-17, -9.999999999999991118, 1.224646799147352270E-15 ) ) ;
#152 = AXIS2_PLACEMENT_3D ( 'NONE', #312, #230, #199 ) ;
#153 = EDGE_LOOP ( 'NONE', ( #318, #244, #184, #141 ) ) ;
#154 = DIRECTION ( 'NONE',  ( 1.000000000000000000, 1.224646799147352961E-16, -0.000000000000000000 ) ) ;
#155 = EDGE_CURVE ( 'NONE', #83, #47, #182, .T. ) ;
#156 =( GEOMETRIC_REPRESENTATION_CONTEXT ( 3 ) GLOBAL_UNCERTAINTY_ASSIGNED_CONTEXT ( ( #352 ) ) GLOBAL_UNIT_ASSIGNED_CONTEXT ( ( #297, #325, #74 ) ) REPRESENTATION_CONTEXT ( 'NONE', 'WORKASPACE' ) );
#157 = VERTEX_POINT ( 'NONE', #206 ) ;
#158 = ORIENTED_EDGE ( 'NONE', *, *, #284, .F. ) ;
#159 = CARTESIAN_POINT ( 'NONE',  ( -26.00000000000000000, -2.449293598294700991E-16, 0.000000000000000000 ) ) ;
#160 = ORIENTED_EDGE ( 'NONE', *, *, #363, .F. ) ;
#161 = APPROVAL_ROLE ( '' ) ;
#162 = CALENDAR_DATE ( 2022, 31, 5 ) ;
#163 = CARTESIAN_POINT ( 'NONE',  ( -26.00000000000000000, -2.449293598294700991E-16, 0.000000000000000000 ) ) ;
#164 = APPLICATION_CONTEXT ( 'configuration controlled 3d designs of mechanical parts and assemblies' ) ;
#165 = DATE_TIME_ROLE ( 'classification_date' ) ;
#166 = AXIS2_PLACEMENT_3D ( 'NONE', #118, #23, #264 ) ;
#167 = DATE_AND_TIME ( #57, #29 ) ;
#168 = CC_DESIGN_PERSON_AND_ORGANIZATION_ASSIGNMENT ( #53, #304, ( #350 ) ) ;
#169 = APPROVAL_STATUS ( 'not_yet_approved' ) ;
#170 = AXIS2_PLACEMENT_3D ( 'NONE', #266, #176, #353 ) ;
#171 = LOCAL_TIME ( 16, 9, 11.00000000000000000, #245 ) ;
#172 = CC_DESIGN_APPROVAL ( #121, ( #64 ) ) ;
#173 = VECTOR ( 'NONE', #260, 1000.000000000000000 ) ;
#174 = CC_DESIGN_APPROVAL ( #326, ( #194 ) ) ;
#175 = AXIS2_PLACEMENT_3D ( 'NONE', #247, #191, #136 ) ;
#176 = DIRECTION ( 'NONE',  ( -0.000000000000000000, 0.000000000000000000, -1.000000000000000000 ) ) ;
#177 = FACE_OUTER_BOUND ( 'NONE', #256, .T. ) ;
#178 = LINE ( 'NONE', #125, #77 ) ;
#179 = DIRECTION ( 'NONE',  ( 0.000000000000000000, 1.000000000000000000, 0.000000000000000000 ) ) ;
#180 = DIRECTION ( 'NONE',  ( 1.000000000000000000, 1.224646799147352961E-16, -0.000000000000000000 ) ) ;
#181 = EDGE_CURVE ( 'NONE', #157, #222, #231, .T. ) ;
#182 = LINE ( 'NONE', #7, #224 ) ;
#183 = ORIENTED_EDGE ( 'NONE', *, *, #275, .T. ) ;
#184 = ORIENTED_EDGE ( 'NONE', *, *, #15, .T. ) ;
#185 = DIRECTION ( 'NONE',  ( 0.000000000000000000, 1.000000000000000000, 0.000000000000000000 ) ) ;
#186 = ORIENTED_EDGE ( 'NONE', *, *, #314, .T. ) ;
#187 = CARTESIAN_POINT ( 'NONE',  ( -91.00000000000000000, -10.00000000000000888, 1.224646799147353256E-15 ) ) ;
#188 = AXIS2_PLACEMENT_3D ( 'NONE', #302, #84, #79 ) ;
#189 = DIRECTION ( 'NONE',  ( 1.000000000000000000, 0.000000000000000000, 0.000000000000000000 ) ) ;
#190 = ORIENTED_EDGE ( 'NONE', *, *, #275, .F. ) ;
#191 = DIRECTION ( 'NONE',  ( 1.000000000000000000, 9.420359993441158369E-18, -0.000000000000000000 ) ) ;
#192 = CALENDAR_DATE ( 2022, 31, 5 ) ;
#193 = ORIENTED_EDGE ( 'NONE', *, *, #283, .F. ) ;
#194 = SECURITY_CLASSIFICATION ( '', '', #276 ) ;
#195 = APPROVAL_PERSON_ORGANIZATION ( #113, #351, #161 ) ;
#196 = PERSON_AND_ORGANIZATION_ROLE ( 'design_supplier' ) ;
#197 = ADVANCED_FACE ( 'NONE', ( #31 ), #317, .T. ) ;
#198 = AXIS2_PLACEMENT_3D ( 'NONE', #236, #208, #146 ) ;
#199 = DIRECTION ( 'NONE',  ( 9.420359993441158369E-18, -1.000000000000000000, 0.000000000000000000 ) ) ;
#200 = CIRCLE ( 'NONE', #270, 9.999999999999989342 ) ;
#201 = PRODUCT ( '387472387487', '387472387487', '', ( #357 ) ) ;
#202 = CYLINDRICAL_SURFACE ( 'NONE', #36, 9.999999999999991118 ) ;
#203 = FACE_OUTER_BOUND ( 'NONE', #18, .T. ) ;
#204 = LINE ( 'NONE', #151, #45 ) ;
#205 = EDGE_CURVE ( 'NONE', #212, #47, #293, .T. ) ;
#206 = CARTESIAN_POINT ( 'NONE',  ( -92.00000000000000000, -9.000000000000007105, 1.163414459189985682E-15 ) ) ;
#207 = ORIENTED_EDGE ( 'NONE', *, *, #225, .F. ) ;
#208 = DIRECTION ( 'NONE',  ( 1.000000000000000000, 9.420359993441158369E-18, -0.000000000000000000 ) ) ;
#209 = CARTESIAN_POINT ( 'NONE',  ( -1.000000000000000888, 9.999999999999991118, 0.000000000000000000 ) ) ;
#210 = AXIS2_PLACEMENT_3D ( 'NONE', #25, #332, #138 ) ;
#211 = DIRECTION ( 'NONE',  ( 1.000000000000000000, 9.420359993441158369E-18, -0.000000000000000000 ) ) ;
#212 = VERTEX_POINT ( 'NONE', #34 ) ;
#213 = DIRECTION ( 'NONE',  ( -1.000000000000000000, -1.224646799147352961E-16, 0.000000000000000000 ) ) ;
#214 = CC_DESIGN_PERSON_AND_ORGANIZATION_ASSIGNMENT ( #56, #196, ( #350 ) ) ;
#215 = EDGE_LOOP ( 'NONE', ( #131, #81, #98, #14 ) ) ;
#216 = CIRCLE ( 'NONE', #37, 8.999999999999991118 ) ;
#217 = DIRECTION ( 'NONE',  ( 0.000000000000000000, 1.000000000000000000, 0.000000000000000000 ) ) ;
#218 = DATE_TIME_ROLE ( 'creation_date' ) ;
#219 = CYLINDRICAL_SURFACE ( 'NONE', #59, 9.999999999999994671 ) ;
#220 = CIRCLE ( 'NONE', #140, 9.999999999999989342 ) ;
#221 = ORIENTED_EDGE ( 'NONE', *, *, #320, .F. ) ;
#222 = VERTEX_POINT ( 'NONE', #240 ) ;
#223 = DIRECTION ( 'NONE',  ( 0.000000000000000000, 1.000000000000000000, 0.000000000000000000 ) ) ;
#224 = VECTOR ( 'NONE', #347, 1000.000000000000000 ) ;
#225 = EDGE_CURVE ( 'NONE', #76, #355, #344, .T. ) ;
#226 = ORIENTED_EDGE ( 'NONE', *, *, #155, .T. ) ;
#227 = CARTESIAN_POINT ( 'NONE',  ( 0.000000000000000000, 0.000000000000000000, 0.000000000000000000 ) ) ;
#228 = AXIS2_PLACEMENT_3D ( 'NONE', #358, #109, #73 ) ;
#229 = CALENDAR_DATE ( 2022, 31, 5 ) ;
#230 = DIRECTION ( 'NONE',  ( -1.000000000000000000, -9.420359993441158369E-18, 0.000000000000000000 ) ) ;
#231 = CIRCLE ( 'NONE', #360, 9.000000000000000000 ) ;
#232 = FACE_OUTER_BOUND ( 'NONE', #215, .T. ) ;
#233 = ORGANIZATION ( 'UNSPECIFIED', 'UNSPECIFIED', '' ) ;
#234 = DIRECTION ( 'NONE',  ( 1.000000000000000000, 9.420359993441158369E-18, -0.000000000000000000 ) ) ;
#235 = FACE_OUTER_BOUND ( 'NONE', #1, .T. ) ;
#236 = CARTESIAN_POINT ( 'NONE',  ( -1.000000000000000888, -9.420359993441167613E-18, 0.000000000000000000 ) ) ;
#237 = EDGE_CURVE ( 'NONE', #355, #133, #216, .T. ) ;
#238 = DIRECTION ( 'NONE',  ( 1.000000000000000000, 9.420359993441158369E-18, -0.000000000000000000 ) ) ;
#239 = CIRCLE ( 'NONE', #93, 9.999999999999989342 ) ;
#240 = CARTESIAN_POINT ( 'NONE',  ( -92.00000000000000000, 8.999999999999991118, 0.000000000000000000 ) ) ;
#241 = EDGE_LOOP ( 'NONE', ( #354, #296 ) ) ;
#242 = EDGE_LOOP ( 'NONE', ( #127, #41, #106, #40 ) ) ;
#243 = EDGE_CURVE ( 'NONE', #157, #75, #30, .T. ) ;
#244 = ORIENTED_EDGE ( 'NONE', *, *, #181, .T. ) ;
#245 = COORDINATED_UNIVERSAL_TIME_OFFSET ( 1, 0, .AHEAD. ) ;
#246 = ORIENTED_EDGE ( 'NONE', *, *, #181, .F. ) ;
#247 = CARTESIAN_POINT ( 'NONE',  ( -1.000000000000000888, 0.000000000000000000, 0.000000000000000000 ) ) ;
#248 = EDGE_CURVE ( 'NONE', #101, #35, #204, .T. ) ;
#249 = AXIS2_PLACEMENT_3D ( 'NONE', #345, #285, #329 ) ;
#250 = APPROVAL_STATUS ( 'not_yet_approved' ) ;
#251 = DIRECTION ( 'NONE',  ( 0.000000000000000000, 0.000000000000000000, 1.000000000000000000 ) ) ;
#252 = CARTESIAN_POINT ( 'NONE',  ( -26.00000000000000000, 9.999999999999989342, 0.000000000000000000 ) ) ;
#253 = ADVANCED_BREP_SHAPE_REPRESENTATION ( '387472387487', ( #28, #278, #27 ), #156 ) ;
#254 = CIRCLE ( 'NONE', #298, 9.999999999999998224 ) ;
#255 = CARTESIAN_POINT ( 'NONE',  ( -1.000000000000000888, -9.999999999999991118, 1.224646799147352270E-15 ) ) ;
#256 = EDGE_LOOP ( 'NONE', ( #72, #158 ) ) ;
#257 = CC_DESIGN_PERSON_AND_ORGANIZATION_ASSIGNMENT ( #281, #26, ( #194 ) ) ;
#258 = DIRECTION ( 'NONE',  ( -9.420359993441158369E-18, 1.000000000000000000, 0.000000000000000000 ) ) ;
#259 = CARTESIAN_POINT ( 'NONE',  ( -91.00000000000000000, -8.205133554287265970E-15, 0.000000000000000000 ) ) ;
#260 = DIRECTION ( 'NONE',  ( 0.7071067811865481278, 0.7071067811865470176, 0.000000000000000000 ) ) ;
#261 = CARTESIAN_POINT ( 'NONE',  ( -92.00000000000000000, -8.327598234201999541E-15, 0.000000000000000000 ) ) ;
#262 = LOCAL_TIME ( 16, 9, 11.00000000000000000, #362 ) ;
#263 = DIRECTION ( 'NONE',  ( 1.000000000000000000, 9.420359993441158369E-18, -0.000000000000000000 ) ) ;
#264 = DIRECTION ( 'NONE',  ( 0.000000000000000000, 1.000000000000000000, 0.000000000000000000 ) ) ;
#265 = CONICAL_SURFACE ( 'NONE', #22, 9.999999999999998224, 0.7853981633974473908 ) ;
#266 = CARTESIAN_POINT ( 'NONE',  ( -1.000000000000000888, 8.999999999999991118, 0.000000000000000000 ) ) ;
#267 = EDGE_LOOP ( 'NONE', ( #183, #114 ) ) ;
#268 = ORIENTED_EDGE ( 'NONE', *, *, #80, .F. ) ;
#269 = CARTESIAN_POINT ( 'NONE',  ( -26.00000000000000000, -9.999999999999989342, 1.224646799147352073E-15 ) ) ;
#270 = AXIS2_PLACEMENT_3D ( 'NONE', #159, #135, #223 ) ;
#271 = ORIENTED_EDGE ( 'NONE', *, *, #205, .F. ) ;
#272 = EDGE_LOOP ( 'NONE', ( #71, #348, #69, #160 ) ) ;
#273 = DIRECTION ( 'NONE',  ( 1.000000000000000000, 1.224646799147352961E-16, -0.000000000000000000 ) ) ;
#274 = ORIENTED_EDGE ( 'NONE', *, *, #308, .F. ) ;
#275 = EDGE_CURVE ( 'NONE', #47, #212, #220, .T. ) ;
#276 = SECURITY_CLASSIFICATION_LEVEL ( 'unclassified' ) ;
#277 = FACE_OUTER_BOUND ( 'NONE', #356, .T. ) ;
#278 = MANIFOLD_SOLID_BREP ( 'Révolution2', #337 ) ;
#279 = APPROVAL_ROLE ( '' ) ;
#280 = FACE_OUTER_BOUND ( 'NONE', #272, .T. ) ;
#281 = PERSON_AND_ORGANIZATION ( #55, #233 ) ;
#282 = CLOSED_SHELL ( 'NONE', ( #334, #142, #311, #150, #44, #197 ) ) ;
#283 = EDGE_CURVE ( 'NONE', #327, #76, #178, .T. ) ;
#284 = EDGE_CURVE ( 'NONE', #101, #327, #239, .T. ) ;
#285 = DIRECTION ( 'NONE',  ( 1.000000000000000000, 1.224646799147352961E-16, -0.000000000000000000 ) ) ;
#286 = DIRECTION ( 'NONE',  ( -9.420359993441162991E-18, 1.000000000000000000, 0.000000000000000000 ) ) ;
#287 = CARTESIAN_POINT ( 'NONE',  ( -91.00000000000000000, 9.999999999999989342, 0.000000000000000000 ) ) ;
#288 = CYLINDRICAL_SURFACE ( 'NONE', #249, 9.999999999999994671 ) ;
#289 = DIRECTION ( 'NONE',  ( 1.000000000000000000, 9.420359993441158369E-18, -0.000000000000000000 ) ) ;
#290 = CARTESIAN_POINT ( 'NONE',  ( -92.00000000000000000, -8.327598234201999541E-15, 0.000000000000000000 ) ) ;
#291 = CC_DESIGN_SECURITY_CLASSIFICATION ( #194, ( #350 ) ) ;
#292 = DIRECTION ( 'NONE',  ( 0.000000000000000000, 1.000000000000000000, 0.000000000000000000 ) ) ;
#293 = CIRCLE ( 'NONE', #300, 9.999999999999989342 ) ;
#294 = CONICAL_SURFACE ( 'NONE', #8, 9.999999999999998224, 0.7853981633974473908 ) ;
#295 = DIRECTION ( 'NONE',  ( 1.000000000000000000, 1.224646799147352961E-16, -0.000000000000000000 ) ) ;
#296 = ORIENTED_EDGE ( 'NONE', *, *, #363, .T. ) ;
#297 =( LENGTH_UNIT ( ) NAMED_UNIT ( * ) SI_UNIT ( .MILLI., .METRE. ) );
#298 = AXIS2_PLACEMENT_3D ( 'NONE', #17, #299, #185 ) ;
#299 = DIRECTION ( 'NONE',  ( 1.000000000000000000, 1.224646799147352961E-16, -0.000000000000000000 ) ) ;
#300 = AXIS2_PLACEMENT_3D ( 'NONE', #3, #154, #319 ) ;
#301 = PERSON_AND_ORGANIZATION_ROLE ( 'design_owner' ) ;
#302 = CARTESIAN_POINT ( 'NONE',  ( -7.825784980474331435E-16, -7.372171174733309618E-33, 0.000000000000000000 ) ) ;
#303 = EDGE_LOOP ( 'NONE', ( #119, #49, #190, #103 ) ) ;
#304 = PERSON_AND_ORGANIZATION_ROLE ( 'creator' ) ;
#305 = DIRECTION ( 'NONE',  ( 1.000000000000000000, 1.224646799147352961E-16, -0.000000000000000000 ) ) ;
#306 = COORDINATED_UNIVERSAL_TIME_OFFSET ( 1, 0, .AHEAD. ) ;
#307 = APPLICATION_PROTOCOL_DEFINITION ( 'international standard', 'config_control_design', 1994, #67 ) ;
#308 = EDGE_CURVE ( 'NONE', #222, #157, #365, .T. ) ;
#309 = DATE_AND_TIME ( #229, #331 ) ;
#310 = CIRCLE ( 'NONE', #166, 9.999999999999998224 ) ;
#311 = ADVANCED_FACE ( 'NONE', ( #235 ), #21, .T. ) ;
#312 = CARTESIAN_POINT ( 'NONE',  ( -26.00000000000000000, -2.449293598294700991E-16, 0.000000000000000000 ) ) ;
#313 = DIRECTION ( 'NONE',  ( 0.7071067811865483499, -0.7071067811865467956, 8.659560562354925463E-17 ) ) ;
#314 = EDGE_CURVE ( 'NONE', #327, #101, #200, .T. ) ;
#315 = EDGE_CURVE ( 'NONE', #35, #133, #13, .T. ) ;
#316 = CARTESIAN_POINT ( 'NONE',  ( 0.000000000000000000, 0.000000000000000000, 0.000000000000000000 ) ) ;
#317 = PLANE ( 'NONE',  #78 ) ;
#318 = ORIENTED_EDGE ( 'NONE', *, *, #243, .F. ) ;
#319 = DIRECTION ( 'NONE',  ( 0.000000000000000000, 1.000000000000000000, 0.000000000000000000 ) ) ;
#320 = EDGE_CURVE ( 'NONE', #75, #212, #48, .T. ) ;
#321 = DIRECTION ( 'NONE',  ( -1.224646799147352961E-16, 1.000000000000000000, 0.000000000000000000 ) ) ;
#322 = DIRECTION ( 'NONE',  ( 0.000000000000000000, 1.000000000000000000, 0.000000000000000000 ) ) ;
#323 = LOCAL_TIME ( 16, 9, 11.00000000000000000, #333 ) ;
#324 = AXIS2_PLACEMENT_3D ( 'NONE', #51, #213, #43 ) ;
#325 =( NAMED_UNIT ( * ) PLANE_ANGLE_UNIT ( ) SI_UNIT ( $, .RADIAN. ) );
#326 = APPROVAL ( #169, 'UNSPECIFIED' ) ;
#327 = VERTEX_POINT ( 'NONE', #107 ) ;
#328 = CARTESIAN_POINT ( 'NONE',  ( -8.673617379884035472E-16, 8.999999999999991118, 0.000000000000000000 ) ) ;
#329 = DIRECTION ( 'NONE',  ( 0.000000000000000000, 1.000000000000000000, 0.000000000000000000 ) ) ;
#330 = APPROVAL_DATE_TIME ( #167, #351 ) ;
#331 = LOCAL_TIME ( 16, 9, 11.00000000000000000, #50 ) ;
#332 = DIRECTION ( 'NONE',  ( 1.000000000000000000, 9.420359993441158369E-18, -0.000000000000000000 ) ) ;
#333 = COORDINATED_UNIVERSAL_TIME_OFFSET ( 1, 0, .AHEAD. ) ;
#334 = ADVANCED_FACE ( 'NONE', ( #52 ), #219, .T. ) ;
#335 = EDGE_CURVE ( 'NONE', #83, #75, #254, .T. ) ;
#336 = EDGE_LOOP ( 'NONE', ( #186, #338, #268, #193 ) ) ;
#337 = CLOSED_SHELL ( 'NONE', ( #116, #339, #24, #111, #10, #6 ) ) ;
#338 = ORIENTED_EDGE ( 'NONE', *, *, #248, .T. ) ;
#339 = ADVANCED_FACE ( 'NONE', ( #277 ), #343, .T. ) ;
#340 = PRODUCT_RELATED_PRODUCT_CATEGORY ( 'detail', '', ( #201 ) ) ;
#341 = DIRECTION ( 'NONE',  ( -9.420359993441158369E-18, 1.000000000000000000, 0.000000000000000000 ) ) ;
#342 = CC_DESIGN_APPROVAL ( #351, ( #350 ) ) ;
#343 = TOROIDAL_SURFACE ( 'NONE', #175, 8.999999999999991118, 1.000000000000000444 ) ;
#344 = CIRCLE ( 'NONE', #170, 1.000000000000000444 ) ;
#345 = CARTESIAN_POINT ( 'NONE',  ( -26.00000000000000000, -2.449293598294700991E-16, 0.000000000000000000 ) ) ;
#346 = DIRECTION ( 'NONE',  ( 1.000000000000000000, 1.224646799147352961E-16, -0.000000000000000000 ) ) ;
#347 = DIRECTION ( 'NONE',  ( 1.000000000000000000, 1.224646799147352961E-16, -0.000000000000000000 ) ) ;
#348 = ORIENTED_EDGE ( 'NONE', *, *, #85, .T. ) ;
#349 = CARTESIAN_POINT ( 'NONE',  ( -6.977952581064628383E-16, -8.999999999999991118, 1.163414459189984499E-15 ) ) ;
#350 = PRODUCT_DEFINITION_FORMATION_WITH_SPECIFIED_SOURCE ( 'ANY', '', #201, .NOT_KNOWN. ) ;
#351 = APPROVAL ( #250, 'UNSPECIFIED' ) ;
#352 = UNCERTAINTY_MEASURE_WITH_UNIT (LENGTH_MEASURE( 1.000000000000000082E-05 ), #297, 'distance_accuracy_value', 'NONE');
#353 = DIRECTION ( 'NONE',  ( -1.000000000000000000, 0.000000000000000000, 0.000000000000000000 ) ) ;
#354 = ORIENTED_EDGE ( 'NONE', *, *, #237, .T. ) ;
#355 = VERTEX_POINT ( 'NONE', #328 ) ;
#356 = EDGE_LOOP ( 'NONE', ( #144, #42, #132, #207 ) ) ;
#357 = MECHANICAL_CONTEXT ( 'NONE', #67, 'mechanical' ) ;
#358 = CARTESIAN_POINT ( 'NONE',  ( -1.000000000000000888, -8.999999999999991118, 1.102182119232616728E-15 ) ) ;
#359 = PERSON_AND_ORGANIZATION ( #55, #233 ) ;
#360 = AXIS2_PLACEMENT_3D ( 'NONE', #261, #180, #292 ) ;
#361 = CARTESIAN_POINT ( 'NONE',  ( -26.00000000000000000, -9.999999999999994671, 1.224646799147352665E-15 ) ) ;
#362 = COORDINATED_UNIVERSAL_TIME_OFFSET ( 1, 0, .AHEAD. ) ;
#363 = EDGE_CURVE ( 'NONE', #133, #355, #115, .T. ) ;
#364 = CALENDAR_DATE ( 2022, 31, 5 ) ;
#365 = CIRCLE ( 'NONE', #87, 9.000000000000000000 ) ;
ENDSEC;
END-ISO-10303-21;
