ISO-10303-21;
HEADER;
FILE_DESCRIPTION (( 'STEP AP203' ),
    '1' );
FILE_NAME ('387472387486.step',
    '2022-05-31T14:09:10',
    ( '' ),
    ( '' ),
    'SwSTEP 2.0',
    'SolidWorks 2019',
    '' );
FILE_SCHEMA (( 'CONFIG_CONTROL_DESIGN' ));
ENDSEC;

DATA;
#1 = DIRECTION ( 'NONE',  ( -7.143772995026226836E-17, 1.000000000000000000, 0.000000000000000000 ) ) ;
#2 = CALENDAR_DATE ( 2022, 31, 5 ) ;
#3 = EDGE_LOOP ( 'NONE', ( #319, #103, #330, #93 ) ) ;
#4 = CLOSED_SHELL ( 'NONE', ( #72, #228, #11, #238, #277, #275 ) ) ;
#5 = CALENDAR_DATE ( 2022, 31, 5 ) ;
#6 = PRODUCT_DEFINITION_FORMATION_WITH_SPECIFIED_SOURCE ( 'ANY', '', #233, .NOT_KNOWN. ) ;
#7 = PERSON_AND_ORGANIZATION ( #261, #291 ) ;
#8 = DIRECTION ( 'NONE',  ( 1.000000000000000000, 7.143772995026226836E-17, -0.000000000000000000 ) ) ;
#9 = COORDINATED_UNIVERSAL_TIME_OFFSET ( 1, 0, .AHEAD. ) ;
#10 = CARTESIAN_POINT ( 'NONE',  ( -24.00000000000000000, -1.714505518806294638E-15, 0.000000000000000000 ) ) ;
#11 = ADVANCED_FACE ( 'NONE', ( #79 ), #53, .T. ) ;
#12 = CARTESIAN_POINT ( 'NONE',  ( -24.00000000000000000, -1.714505518806294441E-15, 0.000000000000000000 ) ) ;
#13 = DIRECTION ( 'NONE',  ( 1.000000000000000000, 7.143772995026226836E-17, -0.000000000000000000 ) ) ;
#14 = VERTEX_POINT ( 'NONE', #251 ) ;
#15 = EDGE_LOOP ( 'NONE', ( #234, #159 ) ) ;
#16 = DIRECTION ( 'NONE',  ( -7.143772995026226836E-17, 1.000000000000000000, 0.000000000000000000 ) ) ;
#17 = EDGE_CURVE ( 'NONE', #14, #174, #106, .T. ) ;
#18 = DIRECTION ( 'NONE',  ( -7.143772995026226836E-17, 1.000000000000000000, 0.000000000000000000 ) ) ;
#19 = LOCAL_TIME ( 16, 9, 10.00000000000000000, #9 ) ;
#20 = VERTEX_POINT ( 'NONE', #104 ) ;
#21 = CARTESIAN_POINT ( 'NONE',  ( -0.9999999999999991118, 8.999999999999992895, 0.000000000000000000 ) ) ;
#22 = CARTESIAN_POINT ( 'NONE',  ( -84.00000000000000000, -9.062386313690415163E-15, 0.000000000000000000 ) ) ;
#23 = CARTESIAN_POINT ( 'NONE',  ( -0.9999999999999985567, -7.143772995026215743E-17, 0.000000000000000000 ) ) ;
#24 = DIRECTION ( 'NONE',  ( 1.000000000000000000, 1.224646799147353207E-16, -0.000000000000000000 ) ) ;
#25 = CARTESIAN_POINT ( 'NONE',  ( -24.00000000000000000, -1.714505518806294638E-15, 0.000000000000000000 ) ) ;
#26 = DIRECTION ( 'NONE',  ( 1.000000000000000000, 1.224646799147353207E-16, -0.000000000000000000 ) ) ;
#27 = CIRCLE ( 'NONE', #341, 7.999999999999992895 ) ;
#28 = PERSON_AND_ORGANIZATION_ROLE ( 'design_owner' ) ;
#29 = PERSON_AND_ORGANIZATION ( #261, #291 ) ;
#30 = CARTESIAN_POINT ( 'NONE',  ( -24.00000000000000000, -1.714505518806294638E-15, 0.000000000000000000 ) ) ;
#31 = APPROVAL_STATUS ( 'not_yet_approved' ) ;
#32 = FACE_OUTER_BOUND ( 'NONE', #15, .T. ) ;
#33 = DIRECTION ( 'NONE',  ( 1.000000000000000000, 7.143772995026226836E-17, -0.000000000000000000 ) ) ;
#34 = ORIENTED_EDGE ( 'NONE', *, *, #299, .F. ) ;
#35 = AXIS2_PLACEMENT_3D ( 'NONE', #105, #308, #222 ) ;
#36 = LINE ( 'NONE', #118, #258 ) ;
#37 = CARTESIAN_POINT ( 'NONE',  ( -0.9999999999999978906, -7.999999999999992895, 9.797174393178817769E-16 ) ) ;
#38 = EDGE_LOOP ( 'NONE', ( #98, #151, #172, #184 ) ) ;
#39 = EDGE_CURVE ( 'NONE', #90, #119, #218, .T. ) ;
#40 = VERTEX_POINT ( 'NONE', #153 ) ;
#41 = CC_DESIGN_DATE_AND_TIME_ASSIGNMENT ( #347, #83, ( #194 ) ) ;
#42 = DIRECTION ( 'NONE',  ( 0.000000000000000000, 1.000000000000000000, 0.000000000000000000 ) ) ;
#43 = EDGE_LOOP ( 'NONE', ( #342, #208, #65, #337 ) ) ;
#44 = VERTEX_POINT ( 'NONE', #271 ) ;
#45 = LINE ( 'NONE', #358, #130 ) ;
#46 = ORIENTED_EDGE ( 'NONE', *, *, #309, .F. ) ;
#47 = ADVANCED_FACE ( 'NONE', ( #127 ), #334, .T. ) ;
#48 = VECTOR ( 'NONE', #26, 1000.000000000000000 ) ;
#49 = CC_DESIGN_APPROVAL ( #181, ( #6 ) ) ;
#50 = EDGE_CURVE ( 'NONE', #148, #90, #247, .T. ) ;
#51 = APPROVAL_DATE_TIME ( #333, #364 ) ;
#52 = AXIS2_PLACEMENT_3D ( 'NONE', #12, #137, #205 ) ;
#53 = PLANE ( 'NONE',  #290 ) ;
#54 = CIRCLE ( 'NONE', #167, 8.999999999999994671 ) ;
#55 = CIRCLE ( 'NONE', #245, 8.000000000000001776 ) ;
#56 = PERSON_AND_ORGANIZATION_ROLE ( 'design_supplier' ) ;
#57 = APPLICATION_PROTOCOL_DEFINITION ( 'international standard', 'config_control_design', 1994, #359 ) ;
#58 = PERSON_AND_ORGANIZATION_ROLE ( 'classification_officer' ) ;
#59 = AXIS2_PLACEMENT_3D ( 'NONE', #285, #262, #16 ) ;
#60 = FACE_OUTER_BOUND ( 'NONE', #176, .T. ) ;
#61 = COORDINATED_UNIVERSAL_TIME_OFFSET ( 1, 0, .AHEAD. ) ;
#62 = DIRECTION ( 'NONE',  ( -7.143772995026226836E-17, 1.000000000000000000, 0.000000000000000000 ) ) ;
#63 = FACE_OUTER_BOUND ( 'NONE', #164, .T. ) ;
#64 = AXIS2_PLACEMENT_3D ( 'NONE', #198, #161, #353 ) ;
#65 = ORIENTED_EDGE ( 'NONE', *, *, #278, .T. ) ;
#66 = CARTESIAN_POINT ( 'NONE',  ( -24.00000000000000000, 8.999999999999992895, 0.000000000000000000 ) ) ;
#67 = ORIENTED_EDGE ( 'NONE', *, *, #117, .F. ) ;
#68 = DIRECTION ( 'NONE',  ( 0.000000000000000000, 1.000000000000000000, 0.000000000000000000 ) ) ;
#69 = EDGE_LOOP ( 'NONE', ( #355, #270, #267, #356 ) ) ;
#70 = ORIENTED_EDGE ( 'NONE', *, *, #129, .F. ) ;
#71 =( LENGTH_UNIT ( ) NAMED_UNIT ( * ) SI_UNIT ( .MILLI., .METRE. ) );
#72 = ADVANCED_FACE ( 'NONE', ( #279 ), #193, .T. ) ;
#73 = DIRECTION ( 'NONE',  ( 1.000000000000000000, 1.224646799147353207E-16, -0.000000000000000000 ) ) ;
#74 = EDGE_LOOP ( 'NONE', ( #113, #170, #265, #232 ) ) ;
#75 = AXIS2_PLACEMENT_3D ( 'NONE', #95, #171, #295 ) ;
#76 = CARTESIAN_POINT ( 'NONE',  ( -0.9999999999999991118, 7.999999999999992895, 0.000000000000000000 ) ) ;
#77 = APPROVAL_DATE_TIME ( #253, #181 ) ;
#78 = AXIS2_PLACEMENT_3D ( 'NONE', #23, #236, #300 ) ;
#79 = FACE_OUTER_BOUND ( 'NONE', #199, .T. ) ;
#80 = PERSON_AND_ORGANIZATION ( #261, #291 ) ;
#81 = COORDINATED_UNIVERSAL_TIME_OFFSET ( 1, 0, .AHEAD. ) ;
#82 = DIRECTION ( 'NONE',  ( 1.000000000000000000, 1.224646799147353207E-16, -0.000000000000000000 ) ) ;
#83 = DATE_TIME_ROLE ( 'classification_date' ) ;
#84 = CARTESIAN_POINT ( 'NONE',  ( -83.00000000000000000, 8.999999999999991118, 0.000000000000000000 ) ) ;
#85 = DIRECTION ( 'NONE',  ( -7.228014483236701979E-17, 1.000000000000000000, 0.000000000000000000 ) ) ;
#86 = ORIENTED_EDGE ( 'NONE', *, *, #327, .F. ) ;
#87 = CARTESIAN_POINT ( 'NONE',  ( 6.429395695523600208E-16, -8.999999999999994671, 1.102182119232617122E-15 ) ) ;
#88 = AXIS2_PLACEMENT_3D ( 'NONE', #227, #13, #62 ) ;
#89 = DIRECTION ( 'NONE',  ( 0.7071067811865483499, -0.7071067811865467956, 8.659560562354925463E-17 ) ) ;
#90 = VERTEX_POINT ( 'NONE', #92 ) ;
#91 = VERTEX_POINT ( 'NONE', #21 ) ;
#92 = CARTESIAN_POINT ( 'NONE',  ( -83.00000000000000000, -9.000000000000010658, 1.102182119232618108E-15 ) ) ;
#93 = ORIENTED_EDGE ( 'NONE', *, *, #145, .F. ) ;
#94 =( NAMED_UNIT ( * ) SI_UNIT ( $, .STERADIAN. ) SOLID_ANGLE_UNIT ( ) );
#95 = CARTESIAN_POINT ( 'NONE',  ( -24.00000000000000000, -1.714505518806294638E-15, 0.000000000000000000 ) ) ;
#96 = VECTOR ( 'NONE', #143, 1000.000000000000000 ) ;
#97 =( GEOMETRIC_REPRESENTATION_CONTEXT ( 3 ) GLOBAL_UNCERTAINTY_ASSIGNED_CONTEXT ( ( #352 ) ) GLOBAL_UNIT_ASSIGNED_CONTEXT ( ( #71, #329, #94 ) ) REPRESENTATION_CONTEXT ( 'NONE', 'WORKASPACE' ) );
#98 = ORIENTED_EDGE ( 'NONE', *, *, #235, .F. ) ;
#99 = ADVANCED_FACE ( 'NONE', ( #210 ), #112, .T. ) ;
#100 = DIRECTION ( 'NONE',  ( 7.143772995026226836E-17, -1.000000000000000000, 0.000000000000000000 ) ) ;
#101 = CC_DESIGN_APPROVAL ( #221, ( #322 ) ) ;
#102 = AXIS2_PLACEMENT_3D ( 'NONE', #30, #252, #345 ) ;
#103 = ORIENTED_EDGE ( 'NONE', *, *, #327, .T. ) ;
#104 = CARTESIAN_POINT ( 'NONE',  ( -84.00000000000000000, -8.000000000000010658, 1.040949779275250534E-15 ) ) ;
#105 = CARTESIAN_POINT ( 'NONE',  ( 0.000000000000000000, 0.000000000000000000, 0.000000000000000000 ) ) ;
#106 = CIRCLE ( 'NONE', #304, 7.999999999999992895 ) ;
#107 = PERSON_AND_ORGANIZATION ( #261, #291 ) ;
#108 = PERSON_AND_ORGANIZATION_ROLE ( 'creator' ) ;
#109 = DIRECTION ( 'NONE',  ( 0.000000000000000000, 1.000000000000000000, 0.000000000000000000 ) ) ;
#110 = APPROVAL_DATE_TIME ( #162, #221 ) ;
#111 = CYLINDRICAL_SURFACE ( 'NONE', #348, 8.999999999999998224 ) ;
#112 = CYLINDRICAL_SURFACE ( 'NONE', #88, 8.999999999999994671 ) ;
#113 = ORIENTED_EDGE ( 'NONE', *, *, #50, .T. ) ;
#114 = CIRCLE ( 'NONE', #313, 0.9999999999999991118 ) ;
#115 = CARTESIAN_POINT ( 'NONE',  ( -6.429395695523600208E-16, 8.999999999999994671, 0.000000000000000000 ) ) ;
#116 = CARTESIAN_POINT ( 'NONE',  ( -0.9999999999999985567, -7.143772995026215743E-17, 0.000000000000000000 ) ) ;
#117 = EDGE_CURVE ( 'NONE', #149, #91, #328, .T. ) ;
#118 = CARTESIAN_POINT ( 'NONE',  ( -83.00000000000000000, -9.000000000000008882, 1.102182119232617911E-15 ) ) ;
#119 = VERTEX_POINT ( 'NONE', #163 ) ;
#120 = DIRECTION ( 'NONE',  ( -7.143772995026226836E-17, 1.000000000000000000, 0.000000000000000000 ) ) ;
#121 = DIRECTION ( 'NONE',  ( 0.000000000000000000, 1.000000000000000000, 0.000000000000000000 ) ) ;
#122 = CARTESIAN_POINT ( 'NONE',  ( -24.00000000000000000, 8.999999999999996447, 0.000000000000000000 ) ) ;
#123 = CLOSED_SHELL ( 'NONE', ( #99, #343, #335, #268, #47, #136 ) ) ;
#124 = DIRECTION ( 'NONE',  ( 0.7071067811865481278, 0.7071067811865470176, 0.000000000000000000 ) ) ;
#125 = AXIS2_PLACEMENT_3D ( 'NONE', #255, #173, #201 ) ;
#126 = AXIS2_PLACEMENT_3D ( 'NONE', #331, #326, #152 ) ;
#127 = FACE_OUTER_BOUND ( 'NONE', #207, .T. ) ;
#128 = EDGE_LOOP ( 'NONE', ( #132, #357, #318, #292 ) ) ;
#129 = EDGE_CURVE ( 'NONE', #44, #144, #54, .T. ) ;
#130 = VECTOR ( 'NONE', #124, 1000.000000000000000 ) ;
#131 = DIRECTION ( 'NONE',  ( 1.000000000000000000, 7.143772995026226836E-17, -0.000000000000000000 ) ) ;
#132 = ORIENTED_EDGE ( 'NONE', *, *, #299, .T. ) ;
#133 = APPROVAL_ROLE ( '' ) ;
#134 = DIRECTION ( 'NONE',  ( 1.224646799147353207E-16, -1.000000000000000000, 0.000000000000000000 ) ) ;
#135 = APPROVAL_STATUS ( 'not_yet_approved' ) ;
#136 = ADVANCED_FACE ( 'NONE', ( #287 ), #223, .T. ) ;
#137 = DIRECTION ( 'NONE',  ( 1.000000000000000000, 1.224646799147353207E-16, -0.000000000000000000 ) ) ;
#138 = DIRECTION ( 'NONE',  ( 0.000000000000000000, 1.000000000000000000, 0.000000000000000000 ) ) ;
#139 = LINE ( 'NONE', #87, #189 ) ;
#140 = EDGE_CURVE ( 'NONE', #144, #91, #229, .T. ) ;
#141 = APPROVAL_PERSON_ORGANIZATION ( #80, #221, #133 ) ;
#142 = CIRCLE ( 'NONE', #363, 0.9999999999999991118 ) ;
#143 = DIRECTION ( 'NONE',  ( 1.000000000000000000, 7.143772995026226836E-17, -0.000000000000000000 ) ) ;
#144 = VERTEX_POINT ( 'NONE', #66 ) ;
#145 = EDGE_CURVE ( 'NONE', #90, #148, #257, .T. ) ;
#146 = DIRECTION ( 'NONE',  ( 1.000000000000000000, 1.224646799147353207E-16, -0.000000000000000000 ) ) ;
#147 = CARTESIAN_POINT ( 'NONE',  ( 1.378209706078958556E-16, 9.845617279769897727E-33, 0.000000000000000000 ) ) ;
#148 = VERTEX_POINT ( 'NONE', #84 ) ;
#149 = VERTEX_POINT ( 'NONE', #209 ) ;
#150 = CIRCLE ( 'NONE', #75, 8.999999999999994671 ) ;
#151 = ORIENTED_EDGE ( 'NONE', *, *, #117, .T. ) ;
#152 = DIRECTION ( 'NONE',  ( -7.143772995026226836E-17, 1.000000000000000000, 0.000000000000000000 ) ) ;
#153 = CARTESIAN_POINT ( 'NONE',  ( -84.00000000000000000, 7.999999999999992895, 0.000000000000000000 ) ) ;
#154 = LOCAL_TIME ( 16, 9, 10.00000000000000000, #61 ) ;
#155 = CC_DESIGN_DATE_AND_TIME_ASSIGNMENT ( #286, #160, ( #322 ) ) ;
#156 = AXIS2_PLACEMENT_3D ( 'NONE', #214, #175, #18 ) ;
#157 = PERSON_AND_ORGANIZATION ( #261, #291 ) ;
#158 = EDGE_CURVE ( 'NONE', #119, #203, #186, .T. ) ;
#159 = ORIENTED_EDGE ( 'NONE', *, *, #158, .T. ) ;
#160 = DATE_TIME_ROLE ( 'creation_date' ) ;
#161 = DIRECTION ( 'NONE',  ( 1.000000000000000000, 1.224646799147353207E-16, -0.000000000000000000 ) ) ;
#162 = DATE_AND_TIME ( #344, #154 ) ;
#163 = CARTESIAN_POINT ( 'NONE',  ( -24.00000000000000000, -8.999999999999996447, 1.102182119232617319E-15 ) ) ;
#164 = EDGE_LOOP ( 'NONE', ( #211, #324, #246, #179 ) ) ;
#165 = FACE_OUTER_BOUND ( 'NONE', #3, .T. ) ;
#166 = CIRCLE ( 'NONE', #64, 8.999999999999994671 ) ;
#167 = AXIS2_PLACEMENT_3D ( 'NONE', #350, #230, #109 ) ;
#168 = ORIENTED_EDGE ( 'NONE', *, *, #311, .T. ) ;
#169 = DIRECTION ( 'NONE',  ( -8.748598732194169379E-33, 1.224646799147353207E-16, 1.000000000000000000 ) ) ;
#170 = ORIENTED_EDGE ( 'NONE', *, *, #39, .T. ) ;
#171 = DIRECTION ( 'NONE',  ( 1.000000000000000000, 7.143772995026226836E-17, -0.000000000000000000 ) ) ;
#172 = ORIENTED_EDGE ( 'NONE', *, *, #351, .T. ) ;
#173 = DIRECTION ( 'NONE',  ( 1.000000000000000000, 1.224646799147353207E-16, -0.000000000000000000 ) ) ;
#174 = VERTEX_POINT ( 'NONE', #317 ) ;
#175 = DIRECTION ( 'NONE',  ( 1.000000000000000000, 7.143772995026226836E-17, -0.000000000000000000 ) ) ;
#176 = EDGE_LOOP ( 'NONE', ( #215, #177, #202, #67 ) ) ;
#177 = ORIENTED_EDGE ( 'NONE', *, *, #129, .T. ) ;
#178 = CONICAL_SURFACE ( 'NONE', #239, 9.000000000000001776, 0.7853981633974473908 ) ;
#179 = ORIENTED_EDGE ( 'NONE', *, *, #336, .F. ) ;
#180 = DIRECTION ( 'NONE',  ( 1.000000000000000000, 1.224646799147353207E-16, -0.000000000000000000 ) ) ;
#181 = APPROVAL ( #31, 'UNSPECIFIED' ) ;
#182 = LOCAL_TIME ( 16, 9, 10.00000000000000000, #195 ) ;
#183 = APPLICATION_CONTEXT ( 'configuration controlled 3d designs of mechanical parts and assemblies' ) ;
#184 = ORIENTED_EDGE ( 'NONE', *, *, #311, .F. ) ;
#185 = LOCAL_TIME ( 16, 9, 10.00000000000000000, #219 ) ;
#186 = CIRCLE ( 'NONE', #52, 8.999999999999994671 ) ;
#187 = TOROIDAL_SURFACE ( 'NONE', #126, 7.999999999999992895, 0.9999999999999988898 ) ;
#188 = PERSON_AND_ORGANIZATION ( #261, #291 ) ;
#189 = VECTOR ( 'NONE', #325, 1000.000000000000000 ) ;
#190 = APPLICATION_PROTOCOL_DEFINITION ( 'international standard', 'config_control_design', 1994, #183 ) ;
#191 = PERSON_AND_ORGANIZATION_ROLE ( 'creator' ) ;
#192 = CYLINDRICAL_SURFACE ( 'NONE', #59, 8.999999999999994671 ) ;
#193 = CYLINDRICAL_SURFACE ( 'NONE', #125, 8.999999999999998224 ) ;
#194 = SECURITY_CLASSIFICATION ( '', '', #310 ) ;
#195 = COORDINATED_UNIVERSAL_TIME_OFFSET ( 1, 0, .AHEAD. ) ;
#196 = AXIS2_PLACEMENT_3D ( 'NONE', #321, #82, #314 ) ;
#197 = EDGE_CURVE ( 'NONE', #203, #119, #166, .T. ) ;
#198 = CARTESIAN_POINT ( 'NONE',  ( -24.00000000000000000, -1.714505518806294441E-15, 0.000000000000000000 ) ) ;
#199 = EDGE_LOOP ( 'NONE', ( #46, #86 ) ) ;
#200 = DIRECTION ( 'NONE',  ( 1.000000000000000000, 1.224646799147353207E-16, -0.000000000000000000 ) ) ;
#201 = DIRECTION ( 'NONE',  ( 0.000000000000000000, 1.000000000000000000, 0.000000000000000000 ) ) ;
#202 = ORIENTED_EDGE ( 'NONE', *, *, #140, .T. ) ;
#203 = VERTEX_POINT ( 'NONE', #354 ) ;
#204 = DESIGN_CONTEXT ( 'detailed design', #183, 'design' ) ;
#205 = DIRECTION ( 'NONE',  ( 0.000000000000000000, 1.000000000000000000, 0.000000000000000000 ) ) ;
#206 = APPROVAL_PERSON_ORGANIZATION ( #157, #181, #339 ) ;
#207 = EDGE_LOOP ( 'NONE', ( #34, #70 ) ) ;
#208 = ORIENTED_EDGE ( 'NONE', *, *, #145, .T. ) ;
#209 = CARTESIAN_POINT ( 'NONE',  ( -0.9999999999999978906, -8.999999999999992895, 1.102182119232616925E-15 ) ) ;
#210 = FACE_OUTER_BOUND ( 'NONE', #128, .T. ) ;
#211 = ORIENTED_EDGE ( 'NONE', *, *, #309, .T. ) ;
#212 = EDGE_CURVE ( 'NONE', #44, #149, #139, .T. ) ;
#213 = CIRCLE ( 'NONE', #78, 8.999999999999992895 ) ;
#214 = CARTESIAN_POINT ( 'NONE',  ( -0.9999999999999985567, 0.000000000000000000, 0.000000000000000000 ) ) ;
#215 = ORIENTED_EDGE ( 'NONE', *, *, #212, .F. ) ;
#216 = CC_DESIGN_APPROVAL ( #364, ( #194 ) ) ;
#217 = CC_DESIGN_PERSON_AND_ORGANIZATION_ASSIGNMENT ( #107, #58, ( #194 ) ) ;
#218 = LINE ( 'NONE', #243, #48 ) ;
#219 = COORDINATED_UNIVERSAL_TIME_OFFSET ( 1, 0, .AHEAD. ) ;
#220 = APPROVAL_STATUS ( 'not_yet_approved' ) ;
#221 = APPROVAL ( #220, 'UNSPECIFIED' ) ;
#222 = DIRECTION ( 'NONE',  ( 1.000000000000000000, 0.000000000000000000, 0.000000000000000000 ) ) ;
#223 = PLANE ( 'NONE',  #237 ) ;
#224 = MECHANICAL_CONTEXT ( 'NONE', #359, 'mechanical' ) ;
#225 = DIRECTION ( 'NONE',  ( 1.000000000000000000, 1.224646799147353207E-16, -0.000000000000000000 ) ) ;
#226 = VECTOR ( 'NONE', #180, 1000.000000000000000 ) ;
#227 = CARTESIAN_POINT ( 'NONE',  ( 0.000000000000000000, 0.000000000000000000, 0.000000000000000000 ) ) ;
#228 = ADVANCED_FACE ( 'NONE', ( #63 ), #272, .T. ) ;
#229 = LINE ( 'NONE', #115, #96 ) ;
#230 = DIRECTION ( 'NONE',  ( 1.000000000000000000, 7.143772995026226836E-17, -0.000000000000000000 ) ) ;
#231 = DIRECTION ( 'NONE',  ( -7.143772995026226836E-17, 1.000000000000000000, 0.000000000000000000 ) ) ;
#232 = ORIENTED_EDGE ( 'NONE', *, *, #278, .F. ) ;
#233 = PRODUCT ( '387472387486', '387472387486', '', ( #224 ) ) ;
#234 = ORIENTED_EDGE ( 'NONE', *, *, #197, .T. ) ;
#235 = EDGE_CURVE ( 'NONE', #149, #174, #142, .T. ) ;
#236 = DIRECTION ( 'NONE',  ( 1.000000000000000000, 7.143772995026226836E-17, -0.000000000000000000 ) ) ;
#237 = AXIS2_PLACEMENT_3D ( 'NONE', #259, #33, #231 ) ;
#238 = ADVANCED_FACE ( 'NONE', ( #165 ), #178, .T. ) ;
#239 = AXIS2_PLACEMENT_3D ( 'NONE', #289, #146, #68 ) ;
#240 = FACE_OUTER_BOUND ( 'NONE', #69, .T. ) ;
#241 = DIRECTION ( 'NONE',  ( -1.000000000000000000, -7.143772995026226836E-17, 0.000000000000000000 ) ) ;
#242 = ADVANCED_BREP_SHAPE_REPRESENTATION ( '387472387486', ( #263, #273, #35 ), #97 ) ;
#243 = CARTESIAN_POINT ( 'NONE',  ( -24.00000000000000000, -9.000000000000000000, 1.102182119232617517E-15 ) ) ;
#244 = PRODUCT_RELATED_PRODUCT_CATEGORY ( 'detail', '', ( #233 ) ) ;
#245 = AXIS2_PLACEMENT_3D ( 'NONE', #22, #24, #121 ) ;
#246 = ORIENTED_EDGE ( 'NONE', *, *, #50, .F. ) ;
#247 = CIRCLE ( 'NONE', #362, 9.000000000000001776 ) ;
#248 = CC_DESIGN_PERSON_AND_ORGANIZATION_ASSIGNMENT ( #7, #108, ( #322 ) ) ;
#249 = CARTESIAN_POINT ( 'NONE',  ( 1.378209706078958556E-16, 9.845617279769897727E-33, 0.000000000000000000 ) ) ;
#250 = APPROVAL_ROLE ( '' ) ;
#251 = CARTESIAN_POINT ( 'NONE',  ( -4.336808689942017736E-16, 7.999999999999992895, 0.000000000000000000 ) ) ;
#252 = DIRECTION ( 'NONE',  ( 1.000000000000000000, 1.224646799147353207E-16, -0.000000000000000000 ) ) ;
#253 = DATE_AND_TIME ( #2, #323 ) ;
#254 = FACE_OUTER_BOUND ( 'NONE', #43, .T. ) ;
#255 = CARTESIAN_POINT ( 'NONE',  ( -24.00000000000000000, -1.714505518806294638E-15, 0.000000000000000000 ) ) ;
#256 = CARTESIAN_POINT ( 'NONE',  ( -83.00000000000000000, -8.939921633775680015E-15, 0.000000000000000000 ) ) ;
#257 = CIRCLE ( 'NONE', #338, 9.000000000000001776 ) ;
#258 = VECTOR ( 'NONE', #89, 1000.000000000000000 ) ;
#259 = CARTESIAN_POINT ( 'NONE',  ( -5.025913542981496644E-16, 7.999999999999992895, 0.000000000000000000 ) ) ;
#260 = EDGE_LOOP ( 'NONE', ( #288, #168 ) ) ;
#261 = PERSON ( 'UNSPECIFIED', 'UNSPECIFIED', 'UNSPECIFIED', ('UNSPECIFIED'), ('UNSPECIFIED'), ('UNSPECIFIED') ) ;
#262 = DIRECTION ( 'NONE',  ( 1.000000000000000000, 7.143772995026226836E-17, -0.000000000000000000 ) ) ;
#263 = MANIFOLD_SOLID_BREP ( 'Révolution1', #4 ) ;
#264 = CARTESIAN_POINT ( 'NONE',  ( -84.00000000000000000, -9.062386313690415163E-15, 0.000000000000000000 ) ) ;
#265 = ORIENTED_EDGE ( 'NONE', *, *, #197, .F. ) ;
#266 = CIRCLE ( 'NONE', #276, 8.000000000000001776 ) ;
#267 = ORIENTED_EDGE ( 'NONE', *, *, #17, .F. ) ;
#268 = ADVANCED_FACE ( 'NONE', ( #60 ), #192, .T. ) ;
#269 = DIRECTION ( 'NONE',  ( -0.000000000000000000, 0.000000000000000000, -1.000000000000000000 ) ) ;
#270 = ORIENTED_EDGE ( 'NONE', *, *, #235, .T. ) ;
#271 = CARTESIAN_POINT ( 'NONE',  ( -24.00000000000000000, -8.999999999999996447, 1.102182119232617319E-15 ) ) ;
#272 = CONICAL_SURFACE ( 'NONE', #196, 9.000000000000001776, 0.7853981633974473908 ) ;
#273 = MANIFOLD_SOLID_BREP ( 'Révolution2', #123 ) ;
#274 = EDGE_CURVE ( 'NONE', #20, #90, #36, .T. ) ;
#275 = ADVANCED_FACE ( 'NONE', ( #32 ), #282, .T. ) ;
#276 = AXIS2_PLACEMENT_3D ( 'NONE', #264, #73, #42 ) ;
#277 = ADVANCED_FACE ( 'NONE', ( #254 ), #111, .T. ) ;
#278 = EDGE_CURVE ( 'NONE', #148, #203, #316, .T. ) ;
#279 = FACE_OUTER_BOUND ( 'NONE', #74, .T. ) ;
#280 = CALENDAR_DATE ( 2022, 31, 5 ) ;
#281 = CARTESIAN_POINT ( 'NONE',  ( -84.00000000000001421, -9.062386313690415163E-15, 0.000000000000000000 ) ) ;
#282 = PLANE ( 'NONE',  #102 ) ;
#283 = DIRECTION ( 'NONE',  ( 1.000000000000000000, 1.224646799147353207E-16, -0.000000000000000000 ) ) ;
#284 = PRODUCT_DEFINITION_SHAPE ( 'NONE', 'NONE',  #322 ) ;
#285 = CARTESIAN_POINT ( 'NONE',  ( 0.000000000000000000, 0.000000000000000000, 0.000000000000000000 ) ) ;
#286 = DATE_AND_TIME ( #5, #185 ) ;
#287 = FACE_OUTER_BOUND ( 'NONE', #260, .T. ) ;
#288 = ORIENTED_EDGE ( 'NONE', *, *, #17, .T. ) ;
#289 = CARTESIAN_POINT ( 'NONE',  ( -83.00000000000000000, -8.939921633775680015E-15, 0.000000000000000000 ) ) ;
#290 = AXIS2_PLACEMENT_3D ( 'NONE', #281, #307, #134 ) ;
#291 = ORGANIZATION ( 'UNSPECIFIED', 'UNSPECIFIED', '' ) ;
#292 = ORIENTED_EDGE ( 'NONE', *, *, #140, .F. ) ;
#293 = DIRECTION ( 'NONE',  ( 0.000000000000000000, -1.000000000000000000, 1.224646799147353454E-16 ) ) ;
#294 = CC_DESIGN_PERSON_AND_ORGANIZATION_ASSIGNMENT ( #188, #191, ( #6 ) ) ;
#295 = DIRECTION ( 'NONE',  ( 0.000000000000000000, 1.000000000000000000, 0.000000000000000000 ) ) ;
#296 = FACE_OUTER_BOUND ( 'NONE', #38, .T. ) ;
#297 = CC_DESIGN_SECURITY_CLASSIFICATION ( #194, ( #6 ) ) ;
#298 = TOROIDAL_SURFACE ( 'NONE', #156, 7.999999999999992895, 0.9999999999999988898 ) ;
#299 = EDGE_CURVE ( 'NONE', #144, #44, #150, .T. ) ;
#300 = DIRECTION ( 'NONE',  ( -7.228014483236701979E-17, 1.000000000000000000, 0.000000000000000000 ) ) ;
#301 = EDGE_CURVE ( 'NONE', #91, #149, #213, .T. ) ;
#302 = SHAPE_DEFINITION_REPRESENTATION ( #284, #242 ) ;
#303 = CC_DESIGN_PERSON_AND_ORGANIZATION_ASSIGNMENT ( #306, #56, ( #6 ) ) ;
#304 = AXIS2_PLACEMENT_3D ( 'NONE', #249, #131, #1 ) ;
#305 = CC_DESIGN_PERSON_AND_ORGANIZATION_ASSIGNMENT ( #315, #28, ( #233 ) ) ;
#306 = PERSON_AND_ORGANIZATION ( #261, #291 ) ;
#307 = DIRECTION ( 'NONE',  ( -1.000000000000000000, -1.224646799147353207E-16, 0.000000000000000000 ) ) ;
#308 = DIRECTION ( 'NONE',  ( 0.000000000000000000, 0.000000000000000000, 1.000000000000000000 ) ) ;
#309 = EDGE_CURVE ( 'NONE', #40, #20, #266, .T. ) ;
#310 = SECURITY_CLASSIFICATION_LEVEL ( 'unclassified' ) ;
#311 = EDGE_CURVE ( 'NONE', #174, #14, #27, .T. ) ;
#312 = APPROVAL_PERSON_ORGANIZATION ( #29, #364, #250 ) ;
#313 = AXIS2_PLACEMENT_3D ( 'NONE', #76, #269, #360 ) ;
#314 = DIRECTION ( 'NONE',  ( 0.000000000000000000, 1.000000000000000000, 0.000000000000000000 ) ) ;
#315 = PERSON_AND_ORGANIZATION ( #261, #291 ) ;
#316 = LINE ( 'NONE', #122, #226 ) ;
#317 = CARTESIAN_POINT ( 'NONE',  ( 7.093228102099935341E-16, -7.999999999999992895, 1.040949779275249548E-15 ) ) ;
#318 = ORIENTED_EDGE ( 'NONE', *, *, #301, .F. ) ;
#319 = ORIENTED_EDGE ( 'NONE', *, *, #274, .F. ) ;
#320 = AXIS2_PLACEMENT_3D ( 'NONE', #25, #241, #100 ) ;
#321 = CARTESIAN_POINT ( 'NONE',  ( -83.00000000000000000, -8.939921633775680015E-15, 0.000000000000000000 ) ) ;
#322 = PRODUCT_DEFINITION ( 'UNKNOWN', '', #6, #204 ) ;
#323 = LOCAL_TIME ( 16, 9, 10.00000000000000000, #81 ) ;
#324 = ORIENTED_EDGE ( 'NONE', *, *, #274, .T. ) ;
#325 = DIRECTION ( 'NONE',  ( 1.000000000000000000, 7.143772995026226836E-17, -0.000000000000000000 ) ) ;
#326 = DIRECTION ( 'NONE',  ( 1.000000000000000000, 7.143772995026226836E-17, -0.000000000000000000 ) ) ;
#327 = EDGE_CURVE ( 'NONE', #20, #40, #55, .T. ) ;
#328 = CIRCLE ( 'NONE', #340, 8.999999999999992895 ) ;
#329 =( NAMED_UNIT ( * ) PLANE_ANGLE_UNIT ( ) SI_UNIT ( $, .RADIAN. ) );
#330 = ORIENTED_EDGE ( 'NONE', *, *, #336, .T. ) ;
#331 = CARTESIAN_POINT ( 'NONE',  ( -0.9999999999999985567, 0.000000000000000000, 0.000000000000000000 ) ) ;
#332 = CARTESIAN_POINT ( 'NONE',  ( -83.00000000000000000, -8.939921633775680015E-15, 0.000000000000000000 ) ) ;
#333 = DATE_AND_TIME ( #365, #182 ) ;
#334 = PLANE ( 'NONE',  #320 ) ;
#335 = ADVANCED_FACE ( 'NONE', ( #296 ), #298, .T. ) ;
#336 = EDGE_CURVE ( 'NONE', #40, #148, #45, .T. ) ;
#337 = ORIENTED_EDGE ( 'NONE', *, *, #158, .F. ) ;
#338 = AXIS2_PLACEMENT_3D ( 'NONE', #256, #200, #138 ) ;
#339 = APPROVAL_ROLE ( '' ) ;
#340 = AXIS2_PLACEMENT_3D ( 'NONE', #116, #8, #85 ) ;
#341 = AXIS2_PLACEMENT_3D ( 'NONE', #147, #361, #120 ) ;
#342 = ORIENTED_EDGE ( 'NONE', *, *, #39, .F. ) ;
#343 = ADVANCED_FACE ( 'NONE', ( #240 ), #187, .T. ) ;
#344 = CALENDAR_DATE ( 2022, 31, 5 ) ;
#345 = DIRECTION ( 'NONE',  ( -1.224646799147353207E-16, 1.000000000000000000, 0.000000000000000000 ) ) ;
#346 = DIRECTION ( 'NONE',  ( 0.000000000000000000, 1.000000000000000000, 0.000000000000000000 ) ) ;
#347 = DATE_AND_TIME ( #280, #19 ) ;
#348 = AXIS2_PLACEMENT_3D ( 'NONE', #10, #225, #349 ) ;
#349 = DIRECTION ( 'NONE',  ( 0.000000000000000000, 1.000000000000000000, 0.000000000000000000 ) ) ;
#350 = CARTESIAN_POINT ( 'NONE',  ( -24.00000000000000000, -1.714505518806294638E-15, 0.000000000000000000 ) ) ;
#351 = EDGE_CURVE ( 'NONE', #91, #14, #114, .T. ) ;
#352 = UNCERTAINTY_MEASURE_WITH_UNIT (LENGTH_MEASURE( 1.000000000000000082E-05 ), #71, 'distance_accuracy_value', 'NONE');
#353 = DIRECTION ( 'NONE',  ( 0.000000000000000000, 1.000000000000000000, 0.000000000000000000 ) ) ;
#354 = CARTESIAN_POINT ( 'NONE',  ( -24.00000000000000000, 8.999999999999992895, 0.000000000000000000 ) ) ;
#355 = ORIENTED_EDGE ( 'NONE', *, *, #301, .T. ) ;
#356 = ORIENTED_EDGE ( 'NONE', *, *, #351, .F. ) ;
#357 = ORIENTED_EDGE ( 'NONE', *, *, #212, .T. ) ;
#358 = CARTESIAN_POINT ( 'NONE',  ( -83.00000000000000000, 8.999999999999992895, 0.000000000000000000 ) ) ;
#359 = APPLICATION_CONTEXT ( 'configuration controlled 3d designs of mechanical parts and assemblies' ) ;
#360 = DIRECTION ( 'NONE',  ( -1.000000000000000000, 0.000000000000000000, 0.000000000000000000 ) ) ;
#361 = DIRECTION ( 'NONE',  ( 1.000000000000000000, 7.143772995026226836E-17, -0.000000000000000000 ) ) ;
#362 = AXIS2_PLACEMENT_3D ( 'NONE', #332, #283, #346 ) ;
#363 = AXIS2_PLACEMENT_3D ( 'NONE', #37, #169, #293 ) ;
#364 = APPROVAL ( #135, 'UNSPECIFIED' ) ;
#365 = CALENDAR_DATE ( 2022, 31, 5 ) ;
ENDSEC;
END-ISO-10303-21;
