ISO-10303-21;
HEADER;
FILE_DESCRIPTION (( 'STEP AP203' ),
    '1' );
FILE_NAME ('387472387485.step',
    '2022-05-31T14:09:09',
    ( '' ),
    ( '' ),
    'SwSTEP 2.0',
    'SolidWorks 2019',
    '' );
FILE_SCHEMA (( 'CONFIG_CONTROL_DESIGN' ));
ENDSEC;

DATA;
#1 = DIRECTION ( 'NONE',  ( 1.000000000000000000, 1.224646799147353207E-16, -0.000000000000000000 ) ) ;
#2 = PLANE ( 'NONE',  #320 ) ;
#3 = DIRECTION ( 'NONE',  ( 1.000000000000000000, 1.224646799147353207E-16, -0.000000000000000000 ) ) ;
#4 = DIRECTION ( 'NONE',  ( 0.000000000000000000, 1.000000000000000000, 0.000000000000000000 ) ) ;
#5 = AXIS2_PLACEMENT_3D ( 'NONE', #243, #305, #191 ) ;
#6 = AXIS2_PLACEMENT_3D ( 'NONE', #148, #182, #121 ) ;
#7 = TOROIDAL_SURFACE ( 'NONE', #50, 4.999999999999989342, 3.000000000000000000 ) ;
#8 = EDGE_CURVE ( 'NONE', #167, #351, #252, .T. ) ;
#9 = ORIENTED_EDGE ( 'NONE', *, *, #129, .F. ) ;
#10 = CARTESIAN_POINT ( 'NONE',  ( -2.999999999999999112, -7.999999999999989342, 9.797174393178815797E-16 ) ) ;
#11 = CARTESIAN_POINT ( 'NONE',  ( -81.00000000000000000, 7.999999999999989342, 0.000000000000000000 ) ) ;
#12 = EDGE_LOOP ( 'NONE', ( #168, #87, #323, #169 ) ) ;
#13 = EDGE_CURVE ( 'NONE', #16, #90, #268, .T. ) ;
#14 = FACE_OUTER_BOUND ( 'NONE', #113, .T. ) ;
#15 = CIRCLE ( 'NONE', #265, 7.999999999999991118 ) ;
#16 = VERTEX_POINT ( 'NONE', #10 ) ;
#17 = DIRECTION ( 'NONE',  ( 0.000000000000000000, 1.000000000000000000, 0.000000000000000000 ) ) ;
#18 = PERSON_AND_ORGANIZATION ( #99, #360 ) ;
#19 = PERSON_AND_ORGANIZATION ( #99, #360 ) ;
#20 = PLANE ( 'NONE',  #359 ) ;
#21 = CC_DESIGN_PERSON_AND_ORGANIZATION_ASSIGNMENT ( #96, #272, ( #162 ) ) ;
#22 = DIRECTION ( 'NONE',  ( 1.000000000000000000, 2.226630543904279147E-17, -0.000000000000000000 ) ) ;
#23 = COORDINATED_UNIVERSAL_TIME_OFFSET ( 1, 0, .AHEAD. ) ;
#24 = CARTESIAN_POINT ( 'NONE',  ( -1.781304435123421099E-16, 7.999999999999989342, 0.000000000000000000 ) ) ;
#25 = APPLICATION_CONTEXT ( 'configuration controlled 3d designs of mechanical parts and assemblies' ) ;
#26 = CARTESIAN_POINT ( 'NONE',  ( -81.99999999999998579, -7.837739514543060526E-15, 0.000000000000000000 ) ) ;
#27 = PRODUCT_RELATED_PRODUCT_CATEGORY ( 'detail', '', ( #209 ) ) ;
#28 = CARTESIAN_POINT ( 'NONE',  ( -81.00000000000000000, -7.715274834628326955E-15, 0.000000000000000000 ) ) ;
#29 = SHAPE_DEFINITION_REPRESENTATION ( #314, #164 ) ;
#30 = DIRECTION ( 'NONE',  ( 1.000000000000000000, 2.226630543904279147E-17, -0.000000000000000000 ) ) ;
#31 = CIRCLE ( 'NONE', #156, 7.999999999999998224 ) ;
#32 = ORIENTED_EDGE ( 'NONE', *, *, #282, .T. ) ;
#33 = AXIS2_PLACEMENT_3D ( 'NONE', #193, #76, #334 ) ;
#34 = LOCAL_TIME ( 16, 9, 9.000000000000000000, #132 ) ;
#35 = CIRCLE ( 'NONE', #352, 4.999999999999989342 ) ;
#36 = EDGE_LOOP ( 'NONE', ( #294, #208, #259, #66 ) ) ;
#37 = ORIENTED_EDGE ( 'NONE', *, *, #13, .F. ) ;
#38 = LINE ( 'NONE', #43, #159 ) ;
#39 = EDGE_LOOP ( 'NONE', ( #199, #176 ) ) ;
#40 = EDGE_CURVE ( 'NONE', #16, #167, #342, .T. ) ;
#41 = VERTEX_POINT ( 'NONE', #171 ) ;
#42 = APPROVAL ( #300, 'UNSPECIFIED' ) ;
#43 = CARTESIAN_POINT ( 'NONE',  ( 1.781304435123421099E-16, -7.999999999999989342, 9.797174393178813824E-16 ) ) ;
#44 = CARTESIAN_POINT ( 'NONE',  ( -2.999999999999999112, 4.999999999999989342, 0.000000000000000000 ) ) ;
#45 = CC_DESIGN_APPROVAL ( #60, ( #189 ) ) ;
#46 = DIRECTION ( 'NONE',  ( -0.000000000000000000, 0.000000000000000000, -1.000000000000000000 ) ) ;
#47 = EDGE_CURVE ( 'NONE', #65, #16, #38, .T. ) ;
#48 = PERSON_AND_ORGANIZATION ( #99, #360 ) ;
#49 = LOCAL_TIME ( 16, 9, 9.000000000000000000, #326 ) ;
#50 = AXIS2_PLACEMENT_3D ( 'NONE', #273, #22, #124 ) ;
#51 = DIRECTION ( 'NONE',  ( 0.000000000000000000, 1.000000000000000000, 0.000000000000000000 ) ) ;
#52 = DATE_AND_TIME ( #185, #34 ) ;
#53 = EDGE_CURVE ( 'NONE', #139, #91, #214, .T. ) ;
#54 = DIRECTION ( 'NONE',  ( 0.000000000000000000, 1.000000000000000000, 0.000000000000000000 ) ) ;
#55 = DIRECTION ( 'NONE',  ( 1.000000000000000000, 1.224646799147353207E-16, -0.000000000000000000 ) ) ;
#56 = DIRECTION ( 'NONE',  ( 1.000000000000000000, 2.226630543904279147E-17, -0.000000000000000000 ) ) ;
#57 = APPROVAL_ROLE ( '' ) ;
#58 =( GEOMETRIC_REPRESENTATION_CONTEXT ( 3 ) GLOBAL_UNCERTAINTY_ASSIGNED_CONTEXT ( ( #349 ) ) GLOBAL_UNIT_ASSIGNED_CONTEXT ( ( #75, #216, #298 ) ) REPRESENTATION_CONTEXT ( 'NONE', 'WORKASPACE' ) );
#59 = CARTESIAN_POINT ( 'NONE',  ( -81.99999999999998579, 6.999999999999991118, 0.000000000000000000 ) ) ;
#60 = APPROVAL ( #242, 'UNSPECIFIED' ) ;
#61 = VECTOR ( 'NONE', #187, 999.9999999999998863 ) ;
#62 = ORIENTED_EDGE ( 'NONE', *, *, #357, .F. ) ;
#63 = ORIENTED_EDGE ( 'NONE', *, *, #40, .T. ) ;
#64 = CONICAL_SURFACE ( 'NONE', #122, 7.999999999999998224, 0.7853981633974543852 ) ;
#65 = VERTEX_POINT ( 'NONE', #210 ) ;
#66 = ORIENTED_EDGE ( 'NONE', *, *, #40, .F. ) ;
#67 = EDGE_LOOP ( 'NONE', ( #315, #83 ) ) ;
#68 = EDGE_LOOP ( 'NONE', ( #37, #63, #145, #9 ) ) ;
#69 = EDGE_CURVE ( 'NONE', #351, #90, #89, .T. ) ;
#70 = DIRECTION ( 'NONE',  ( -2.726835968476105457E-33, 1.224646799147353207E-16, 1.000000000000000000 ) ) ;
#71 = DATE_TIME_ROLE ( 'creation_date' ) ;
#72 = DIRECTION ( 'NONE',  ( 1.000000000000000000, 2.226630543904279147E-17, -0.000000000000000000 ) ) ;
#73 = DATE_AND_TIME ( #328, #149 ) ;
#74 = PERSON_AND_ORGANIZATION ( #99, #360 ) ;
#75 =( LENGTH_UNIT ( ) NAMED_UNIT ( * ) SI_UNIT ( .MILLI., .METRE. ) );
#76 = DIRECTION ( 'NONE',  ( 1.000000000000000000, 2.226630543904279147E-17, -0.000000000000000000 ) ) ;
#77 = CYLINDRICAL_SURFACE ( 'NONE', #166, 7.999999999999994671 ) ;
#78 = DIRECTION ( 'NONE',  ( 0.000000000000000000, 1.000000000000000000, 0.000000000000000000 ) ) ;
#79 = CONICAL_SURFACE ( 'NONE', #123, 7.999999999999998224, 0.7853981633974543852 ) ;
#80 = CARTESIAN_POINT ( 'NONE',  ( 0.000000000000000000, 0.000000000000000000, 0.000000000000000000 ) ) ;
#81 = CARTESIAN_POINT ( 'NONE',  ( -81.00000000000000000, -8.000000000000007105, 9.797174393178825657E-16 ) ) ;
#82 = ORIENTED_EDGE ( 'NONE', *, *, #290, .T. ) ;
#83 = ORIENTED_EDGE ( 'NONE', *, *, #197, .F. ) ;
#84 = DIRECTION ( 'NONE',  ( 1.000000000000000000, 2.226630543904279147E-17, -0.000000000000000000 ) ) ;
#85 = EDGE_LOOP ( 'NONE', ( #115, #200, #143, #150 ) ) ;
#86 = AXIS2_PLACEMENT_3D ( 'NONE', #28, #241, #184 ) ;
#87 = ORIENTED_EDGE ( 'NONE', *, *, #53, .T. ) ;
#88 = AXIS2_PLACEMENT_3D ( 'NONE', #280, #186, #337 ) ;
#89 = CIRCLE ( 'NONE', #276, 4.999999999999989342 ) ;
#90 = VERTEX_POINT ( 'NONE', #175 ) ;
#91 = VERTEX_POINT ( 'NONE', #135 ) ;
#92 = CARTESIAN_POINT ( 'NONE',  ( -81.99999999999998579, -7.837739514543060526E-15, 0.000000000000000000 ) ) ;
#93 = CARTESIAN_POINT ( 'NONE',  ( -81.00000000000000000, -7.715274834628326955E-15, 0.000000000000000000 ) ) ;
#94 = DIRECTION ( 'NONE',  ( -2.226630543904279147E-17, 1.000000000000000000, 0.000000000000000000 ) ) ;
#95 = DIRECTION ( 'NONE',  ( 0.000000000000000000, 1.000000000000000000, 0.000000000000000000 ) ) ;
#96 = PERSON_AND_ORGANIZATION ( #99, #360 ) ;
#97 = AXIS2_PLACEMENT_3D ( 'NONE', #160, #30, #78 ) ;
#98 = DIRECTION ( 'NONE',  ( 1.000000000000000000, 1.224646799147353207E-16, -0.000000000000000000 ) ) ;
#99 = PERSON ( 'UNSPECIFIED', 'UNSPECIFIED', 'UNSPECIFIED', ('UNSPECIFIED'), ('UNSPECIFIED'), ('UNSPECIFIED') ) ;
#100 = ADVANCED_FACE ( 'NONE', ( #128 ), #79, .T. ) ;
#101 = DIRECTION ( 'NONE',  ( -2.226630543904279147E-17, 1.000000000000000000, 0.000000000000000000 ) ) ;
#102 = CARTESIAN_POINT ( 'NONE',  ( -81.00000000000000000, -7.715274834628326955E-15, 0.000000000000000000 ) ) ;
#103 = PERSON_AND_ORGANIZATION ( #99, #360 ) ;
#104 = CIRCLE ( 'NONE', #6, 7.999999999999991118 ) ;
#105 = CARTESIAN_POINT ( 'NONE',  ( -22.00000000000000000, 7.999999999999994671, 0.000000000000000000 ) ) ;
#106 = DATE_AND_TIME ( #362, #195 ) ;
#107 = DIRECTION ( 'NONE',  ( 0.000000000000000000, 1.000000000000000000, 0.000000000000000000 ) ) ;
#108 = LINE ( 'NONE', #343, #295 ) ;
#109 = DIRECTION ( 'NONE',  ( 2.226630543904279147E-17, -1.000000000000000000, 0.000000000000000000 ) ) ;
#110 = CYLINDRICAL_SURFACE ( 'NONE', #257, 7.999999999999989342 ) ;
#111 = FACE_OUTER_BOUND ( 'NONE', #85, .T. ) ;
#112 = AXIS2_PLACEMENT_3D ( 'NONE', #44, #46, #147 ) ;
#113 = EDGE_LOOP ( 'NONE', ( #319, #119, #227, #228 ) ) ;
#114 = EDGE_CURVE ( 'NONE', #321, #116, #108, .T. ) ;
#115 = ORIENTED_EDGE ( 'NONE', *, *, #344, .T. ) ;
#116 = VERTEX_POINT ( 'NONE', #11 ) ;
#117 = MECHANICAL_CONTEXT ( 'NONE', #356, 'mechanical' ) ;
#118 = APPROVAL_PERSON_ORGANIZATION ( #230, #348, #153 ) ;
#119 = ORIENTED_EDGE ( 'NONE', *, *, #197, .T. ) ;
#120 = COORDINATED_UNIVERSAL_TIME_OFFSET ( 1, 0, .AHEAD. ) ;
#121 = DIRECTION ( 'NONE',  ( 0.000000000000000000, 1.000000000000000000, 0.000000000000000000 ) ) ;
#122 = AXIS2_PLACEMENT_3D ( 'NONE', #93, #304, #51 ) ;
#123 = AXIS2_PLACEMENT_3D ( 'NONE', #338, #98, #245 ) ;
#124 = DIRECTION ( 'NONE',  ( -2.226630543904279147E-17, 1.000000000000000000, 0.000000000000000000 ) ) ;
#125 = DATE_AND_TIME ( #152, #49 ) ;
#126 = DIRECTION ( 'NONE',  ( -1.000000000000000000, -1.224646799147353207E-16, 0.000000000000000000 ) ) ;
#127 = DIRECTION ( 'NONE',  ( 0.000000000000000000, 1.000000000000000000, 0.000000000000000000 ) ) ;
#128 = FACE_OUTER_BOUND ( 'NONE', #258, .T. ) ;
#129 = EDGE_CURVE ( 'NONE', #90, #351, #35, .T. ) ;
#130 = LINE ( 'NONE', #105, #219 ) ;
#131 = FACE_OUTER_BOUND ( 'NONE', #39, .T. ) ;
#132 = COORDINATED_UNIVERSAL_TIME_OFFSET ( 1, 0, .AHEAD. ) ;
#133 = CC_DESIGN_PERSON_AND_ORGANIZATION_ASSIGNMENT ( #18, #358, ( #144 ) ) ;
#134 = LINE ( 'NONE', #223, #61 ) ;
#135 = CARTESIAN_POINT ( 'NONE',  ( -22.00000000000000000, -7.999999999999991118, 9.797174393178817769E-16 ) ) ;
#136 = CYLINDRICAL_SURFACE ( 'NONE', #157, 7.999999999999994671 ) ;
#137 = AXIS2_PLACEMENT_3D ( 'NONE', #26, #365, #127 ) ;
#138 = ADVANCED_FACE ( 'NONE', ( #253 ), #136, .T. ) ;
#139 = VERTEX_POINT ( 'NONE', #81 ) ;
#140 = ADVANCED_FACE ( 'NONE', ( #131 ), #2, .T. ) ;
#141 = EDGE_LOOP ( 'NONE', ( #353, #296, #346, #62 ) ) ;
#142 = VERTEX_POINT ( 'NONE', #188 ) ;
#143 = ORIENTED_EDGE ( 'NONE', *, *, #317, .F. ) ;
#144 = PRODUCT_DEFINITION ( 'UNKNOWN', '', #162, #201 ) ;
#145 = ORIENTED_EDGE ( 'NONE', *, *, #8, .T. ) ;
#146 = DIRECTION ( 'NONE',  ( 1.000000000000000000, 1.224646799147353207E-16, -0.000000000000000000 ) ) ;
#147 = DIRECTION ( 'NONE',  ( -1.000000000000000000, 0.000000000000000000, 0.000000000000000000 ) ) ;
#148 = CARTESIAN_POINT ( 'NONE',  ( -22.00000000000000000, -4.898587196589412829E-16, 0.000000000000000000 ) ) ;
#149 = LOCAL_TIME ( 16, 9, 9.000000000000000000, #120 ) ;
#150 = ORIENTED_EDGE ( 'NONE', *, *, #266, .F. ) ;
#151 = AXIS2_PLACEMENT_3D ( 'NONE', #264, #70, #299 ) ;
#152 = CALENDAR_DATE ( 2022, 31, 5 ) ;
#153 = APPROVAL_ROLE ( '' ) ;
#154 = FACE_OUTER_BOUND ( 'NONE', #203, .T. ) ;
#155 = APPROVAL_STATUS ( 'not_yet_approved' ) ;
#156 = AXIS2_PLACEMENT_3D ( 'NONE', #102, #55, #54 ) ;
#157 = AXIS2_PLACEMENT_3D ( 'NONE', #287, #222, #4 ) ;
#158 = ADVANCED_FACE ( 'NONE', ( #154 ), #7, .T. ) ;
#159 = VECTOR ( 'NONE', #72, 1000.000000000000000 ) ;
#160 = CARTESIAN_POINT ( 'NONE',  ( -22.00000000000000000, -4.898587196589413815E-16, 0.000000000000000000 ) ) ;
#161 = FACE_OUTER_BOUND ( 'NONE', #261, .T. ) ;
#162 = PRODUCT_DEFINITION_FORMATION_WITH_SPECIFIED_SOURCE ( 'ANY', '', #209, .NOT_KNOWN. ) ;
#163 = FACE_OUTER_BOUND ( 'NONE', #36, .T. ) ;
#164 = ADVANCED_BREP_SHAPE_REPRESENTATION ( '387472387485', ( #274, #279, #318 ), #58 ) ;
#165 = DIRECTION ( 'NONE',  ( -2.226630543904279147E-17, 1.000000000000000000, 0.000000000000000000 ) ) ;
#166 = AXIS2_PLACEMENT_3D ( 'NONE', #281, #1, #107 ) ;
#167 = VERTEX_POINT ( 'NONE', #240 ) ;
#168 = ORIENTED_EDGE ( 'NONE', *, *, #233, .T. ) ;
#169 = ORIENTED_EDGE ( 'NONE', *, *, #302, .F. ) ;
#170 = ORIENTED_EDGE ( 'NONE', *, *, #233, .F. ) ;
#171 = CARTESIAN_POINT ( 'NONE',  ( -81.99999999999998579, -7.000000000000007105, 9.184850993605147944E-16 ) ) ;
#172 = DIRECTION ( 'NONE',  ( 1.000000000000000000, 1.224646799147353207E-16, -0.000000000000000000 ) ) ;
#173 = ORIENTED_EDGE ( 'NONE', *, *, #114, .F. ) ;
#174 = CARTESIAN_POINT ( 'NONE',  ( -22.00000000000000000, -4.898587196589413815E-16, 0.000000000000000000 ) ) ;
#175 = CARTESIAN_POINT ( 'NONE',  ( 6.563439233846292261E-16, -4.999999999999989342, 7.960204194457783644E-16 ) ) ;
#176 = ORIENTED_EDGE ( 'NONE', *, *, #262, .F. ) ;
#177 = PERSON_AND_ORGANIZATION ( #99, #360 ) ;
#178 = CARTESIAN_POINT ( 'NONE',  ( -22.00000000000000000, -7.999999999999994671, 9.797174393178819741E-16 ) ) ;
#179 = CLOSED_SHELL ( 'NONE', ( #211, #158, #192, #332, #140, #235 ) ) ;
#180 = DIRECTION ( 'NONE',  ( 1.000000000000000000, 2.226630543904279147E-17, -0.000000000000000000 ) ) ;
#181 = APPLICATION_PROTOCOL_DEFINITION ( 'international standard', 'config_control_design', 1994, #356 ) ;
#182 = DIRECTION ( 'NONE',  ( 1.000000000000000000, 1.224646799147353207E-16, -0.000000000000000000 ) ) ;
#183 = CC_DESIGN_APPROVAL ( #348, ( #144 ) ) ;
#184 = DIRECTION ( 'NONE',  ( 0.000000000000000000, 1.000000000000000000, 0.000000000000000000 ) ) ;
#185 = CALENDAR_DATE ( 2022, 31, 5 ) ;
#186 = DIRECTION ( 'NONE',  ( 1.000000000000000000, 1.224646799147353207E-16, -0.000000000000000000 ) ) ;
#187 = DIRECTION ( 'NONE',  ( 0.7071067811865434649, -0.7071067811865516806, 8.659560562354987092E-17 ) ) ;
#188 = CARTESIAN_POINT ( 'NONE',  ( -22.00000000000000000, 7.999999999999991118, 0.000000000000000000 ) ) ;
#189 = SECURITY_CLASSIFICATION ( '', '', #283 ) ;
#190 = AXIS2_PLACEMENT_3D ( 'NONE', #286, #239, #101 ) ;
#191 = DIRECTION ( 'NONE',  ( -2.226630543904279147E-17, 1.000000000000000000, 0.000000000000000000 ) ) ;
#192 = ADVANCED_FACE ( 'NONE', ( #288 ), #251, .T. ) ;
#193 = CARTESIAN_POINT ( 'NONE',  ( 0.000000000000000000, 0.000000000000000000, 0.000000000000000000 ) ) ;
#194 = ADVANCED_FACE ( 'NONE', ( #329 ), #20, .T. ) ;
#195 = LOCAL_TIME ( 16, 9, 9.000000000000000000, #246 ) ;
#196 = ORIENTED_EDGE ( 'NONE', *, *, #69, .T. ) ;
#197 = EDGE_CURVE ( 'NONE', #41, #321, #291, .T. ) ;
#198 = CARTESIAN_POINT ( 'NONE',  ( -22.00000000000000000, -4.898587196589412829E-16, 0.000000000000000000 ) ) ;
#199 = ORIENTED_EDGE ( 'NONE', *, *, #344, .F. ) ;
#200 = ORIENTED_EDGE ( 'NONE', *, *, #47, .T. ) ;
#201 = DESIGN_CONTEXT ( 'detailed design', #25, 'design' ) ;
#202 = ORIENTED_EDGE ( 'NONE', *, *, #311, .T. ) ;
#203 = EDGE_LOOP ( 'NONE', ( #325, #260, #269, #205 ) ) ;
#204 = CARTESIAN_POINT ( 'NONE',  ( 5.450123961894154998E-16, 1.213541248161812808E-32, 0.000000000000000000 ) ) ;
#205 = ORIENTED_EDGE ( 'NONE', *, *, #8, .F. ) ;
#206 = VECTOR ( 'NONE', #146, 1000.000000000000000 ) ;
#207 = DIRECTION ( 'NONE',  ( 1.000000000000000000, 1.224646799147353207E-16, -0.000000000000000000 ) ) ;
#208 = ORIENTED_EDGE ( 'NONE', *, *, #262, .T. ) ;
#209 = PRODUCT ( '387472387485', '387472387485', '', ( #117 ) ) ;
#210 = CARTESIAN_POINT ( 'NONE',  ( -22.00000000000000000, -7.999999999999991118, 9.797174393178815797E-16 ) ) ;
#211 = ADVANCED_FACE ( 'NONE', ( #111 ), #224, .T. ) ;
#212 = CIRCLE ( 'NONE', #88, 7.999999999999991118 ) ;
#213 = APPLICATION_PROTOCOL_DEFINITION ( 'international standard', 'config_control_design', 1994, #25 ) ;
#214 = LINE ( 'NONE', #178, #206 ) ;
#215 = CC_DESIGN_PERSON_AND_ORGANIZATION_ASSIGNMENT ( #48, #324, ( #209 ) ) ;
#216 =( NAMED_UNIT ( * ) PLANE_ANGLE_UNIT ( ) SI_UNIT ( $, .RADIAN. ) );
#217 = DIRECTION ( 'NONE',  ( 1.000000000000000000, 2.226630543904279147E-17, -0.000000000000000000 ) ) ;
#218 = PLANE ( 'NONE',  #5 ) ;
#219 = VECTOR ( 'NONE', #3, 1000.000000000000000 ) ;
#220 = FACE_OUTER_BOUND ( 'NONE', #12, .T. ) ;
#221 = DIRECTION ( 'NONE',  ( 1.000000000000000000, 2.226630543904279147E-17, -0.000000000000000000 ) ) ;
#222 = DIRECTION ( 'NONE',  ( 1.000000000000000000, 1.224646799147353207E-16, -0.000000000000000000 ) ) ;
#223 = CARTESIAN_POINT ( 'NONE',  ( -81.00000000000000000, -8.000000000000005329, 9.797174393178823685E-16 ) ) ;
#224 = CYLINDRICAL_SURFACE ( 'NONE', #33, 7.999999999999989342 ) ;
#225 = CARTESIAN_POINT ( 'NONE',  ( -2.999999999999999112, -6.679891631712834667E-17, 0.000000000000000000 ) ) ;
#226 = EDGE_LOOP ( 'NONE', ( #32, #347 ) ) ;
#227 = ORIENTED_EDGE ( 'NONE', *, *, #114, .T. ) ;
#228 = ORIENTED_EDGE ( 'NONE', *, *, #277, .F. ) ;
#229 = CIRCLE ( 'NONE', #137, 6.999999999999999112 ) ;
#230 = PERSON_AND_ORGANIZATION ( #99, #360 ) ;
#231 = CARTESIAN_POINT ( 'NONE',  ( 5.450123961894154998E-16, 1.213541248161812808E-32, 0.000000000000000000 ) ) ;
#232 = CALENDAR_DATE ( 2022, 31, 5 ) ;
#233 = EDGE_CURVE ( 'NONE', #116, #139, #316, .T. ) ;
#234 = APPROVAL_DATE_TIME ( #73, #42 ) ;
#235 = ADVANCED_FACE ( 'NONE', ( #161 ), #218, .T. ) ;
#236 = CC_DESIGN_SECURITY_CLASSIFICATION ( #189, ( #162 ) ) ;
#237 = PERSON_AND_ORGANIZATION_ROLE ( 'design_supplier' ) ;
#238 = CARTESIAN_POINT ( 'NONE',  ( 0.000000000000000000, 0.000000000000000000, 0.000000000000000000 ) ) ;
#239 = DIRECTION ( 'NONE',  ( 1.000000000000000000, 2.226630543904279147E-17, -0.000000000000000000 ) ) ;
#240 = CARTESIAN_POINT ( 'NONE',  ( -2.999999999999999112, 7.999999999999989342, 0.000000000000000000 ) ) ;
#241 = DIRECTION ( 'NONE',  ( 1.000000000000000000, 1.224646799147353207E-16, -0.000000000000000000 ) ) ;
#242 = APPROVAL_STATUS ( 'not_yet_approved' ) ;
#243 = CARTESIAN_POINT ( 'NONE',  ( 1.611746708994940237E-16, 4.999999999999989342, 0.000000000000000000 ) ) ;
#244 = PLANE ( 'NONE',  #333 ) ;
#245 = DIRECTION ( 'NONE',  ( 0.000000000000000000, 1.000000000000000000, 0.000000000000000000 ) ) ;
#246 = COORDINATED_UNIVERSAL_TIME_OFFSET ( 1, 0, .AHEAD. ) ;
#247 = FACE_OUTER_BOUND ( 'NONE', #67, .T. ) ;
#248 = CC_DESIGN_PERSON_AND_ORGANIZATION_ASSIGNMENT ( #19, #237, ( #162 ) ) ;
#249 = CARTESIAN_POINT ( 'NONE',  ( -22.00000000000000000, -4.898587196589413815E-16, 0.000000000000000000 ) ) ;
#250 = APPROVAL_PERSON_ORGANIZATION ( #177, #42, #270 ) ;
#251 = TOROIDAL_SURFACE ( 'NONE', #190, 4.999999999999989342, 3.000000000000000000 ) ;
#252 = CIRCLE ( 'NONE', #112, 3.000000000000000000 ) ;
#253 = FACE_OUTER_BOUND ( 'NONE', #141, .T. ) ;
#254 = CC_DESIGN_DATE_AND_TIME_ASSIGNMENT ( #106, #331, ( #189 ) ) ;
#255 = DIRECTION ( 'NONE',  ( -1.224646799147353207E-16, 1.000000000000000000, 0.000000000000000000 ) ) ;
#256 = VERTEX_POINT ( 'NONE', #284 ) ;
#257 = AXIS2_PLACEMENT_3D ( 'NONE', #80, #217, #361 ) ;
#258 = EDGE_LOOP ( 'NONE', ( #82, #202, #170, #173 ) ) ;
#259 = ORIENTED_EDGE ( 'NONE', *, *, #266, .T. ) ;
#260 = ORIENTED_EDGE ( 'NONE', *, *, #13, .T. ) ;
#261 = EDGE_LOOP ( 'NONE', ( #196, #292 ) ) ;
#262 = EDGE_CURVE ( 'NONE', #65, #142, #345, .T. ) ;
#263 = DIRECTION ( 'NONE',  ( 1.000000000000000000, 2.226630543904279147E-17, -0.000000000000000000 ) ) ;
#264 = CARTESIAN_POINT ( 'NONE',  ( -2.999999999999999112, -4.999999999999989342, 6.123233995736753463E-16 ) ) ;
#265 = AXIS2_PLACEMENT_3D ( 'NONE', #174, #180, #95 ) ;
#266 = EDGE_CURVE ( 'NONE', #142, #167, #278, .T. ) ;
#267 = DIRECTION ( 'NONE',  ( 0.000000000000000000, 0.000000000000000000, 1.000000000000000000 ) ) ;
#268 = CIRCLE ( 'NONE', #151, 3.000000000000000000 ) ;
#269 = ORIENTED_EDGE ( 'NONE', *, *, #69, .F. ) ;
#270 = APPROVAL_ROLE ( '' ) ;
#271 = ADVANCED_FACE ( 'NONE', ( #247 ), #244, .T. ) ;
#272 = PERSON_AND_ORGANIZATION_ROLE ( 'creator' ) ;
#273 = CARTESIAN_POINT ( 'NONE',  ( -2.999999999999999112, 0.000000000000000000, 0.000000000000000000 ) ) ;
#274 = MANIFOLD_SOLID_BREP ( 'Révolution1', #341 ) ;
#275 = DIRECTION ( 'NONE',  ( 1.000000000000000000, 0.000000000000000000, 0.000000000000000000 ) ) ;
#276 = AXIS2_PLACEMENT_3D ( 'NONE', #231, #263, #94 ) ;
#277 = EDGE_CURVE ( 'NONE', #139, #116, #31, .T. ) ;
#278 = LINE ( 'NONE', #24, #350 ) ;
#279 = MANIFOLD_SOLID_BREP ( 'Révolution2', #179 ) ;
#280 = CARTESIAN_POINT ( 'NONE',  ( -22.00000000000000000, -4.898587196589412829E-16, 0.000000000000000000 ) ) ;
#281 = CARTESIAN_POINT ( 'NONE',  ( -22.00000000000000000, -4.898587196589413815E-16, 0.000000000000000000 ) ) ;
#282 = EDGE_CURVE ( 'NONE', #256, #91, #212, .T. ) ;
#283 = SECURITY_CLASSIFICATION_LEVEL ( 'unclassified' ) ;
#284 = CARTESIAN_POINT ( 'NONE',  ( -22.00000000000000000, 7.999999999999991118, 0.000000000000000000 ) ) ;
#285 = CC_DESIGN_DATE_AND_TIME_ASSIGNMENT ( #125, #71, ( #144 ) ) ;
#286 = CARTESIAN_POINT ( 'NONE',  ( -2.999999999999999112, 0.000000000000000000, 0.000000000000000000 ) ) ;
#287 = CARTESIAN_POINT ( 'NONE',  ( -22.00000000000000000, -4.898587196589413815E-16, 0.000000000000000000 ) ) ;
#288 = FACE_OUTER_BOUND ( 'NONE', #68, .T. ) ;
#289 = AXIS2_PLACEMENT_3D ( 'NONE', #339, #340, #308 ) ;
#290 = EDGE_CURVE ( 'NONE', #321, #41, #229, .T. ) ;
#291 = CIRCLE ( 'NONE', #297, 6.999999999999999112 ) ;
#292 = ORIENTED_EDGE ( 'NONE', *, *, #129, .T. ) ;
#293 = APPROVAL_PERSON_ORGANIZATION ( #103, #60, #57 ) ;
#294 = ORIENTED_EDGE ( 'NONE', *, *, #47, .F. ) ;
#295 = VECTOR ( 'NONE', #354, 1000.000000000000000 ) ;
#296 = ORIENTED_EDGE ( 'NONE', *, *, #277, .T. ) ;
#297 = AXIS2_PLACEMENT_3D ( 'NONE', #92, #207, #17 ) ;
#298 =( NAMED_UNIT ( * ) SI_UNIT ( $, .STERADIAN. ) SOLID_ANGLE_UNIT ( ) );
#299 = DIRECTION ( 'NONE',  ( 0.000000000000000000, -1.000000000000000000, 1.224646799147353454E-16 ) ) ;
#300 = APPROVAL_STATUS ( 'not_yet_approved' ) ;
#301 = APPROVAL_DATE_TIME ( #355, #348 ) ;
#302 = EDGE_CURVE ( 'NONE', #116, #256, #130, .T. ) ;
#303 = CC_DESIGN_PERSON_AND_ORGANIZATION_ASSIGNMENT ( #74, #307, ( #189 ) ) ;
#304 = DIRECTION ( 'NONE',  ( 1.000000000000000000, 1.224646799147353207E-16, -0.000000000000000000 ) ) ;
#305 = DIRECTION ( 'NONE',  ( 1.000000000000000000, 2.226630543904279147E-17, -0.000000000000000000 ) ) ;
#306 = CARTESIAN_POINT ( 'NONE',  ( -81.99999999999998579, -7.837739514543058948E-15, 0.000000000000000000 ) ) ;
#307 = PERSON_AND_ORGANIZATION_ROLE ( 'classification_officer' ) ;
#308 = DIRECTION ( 'NONE',  ( 0.000000000000000000, 1.000000000000000000, 0.000000000000000000 ) ) ;
#309 = CIRCLE ( 'NONE', #289, 7.999999999999989342 ) ;
#310 = DIRECTION ( 'NONE',  ( -1.000000000000000000, -2.226630543904279147E-17, 0.000000000000000000 ) ) ;
#311 = EDGE_CURVE ( 'NONE', #41, #139, #134, .T. ) ;
#312 = ADVANCED_FACE ( 'NONE', ( #220 ), #77, .T. ) ;
#313 = LOCAL_TIME ( 16, 9, 9.000000000000000000, #23 ) ;
#314 = PRODUCT_DEFINITION_SHAPE ( 'NONE', 'NONE',  #144 ) ;
#315 = ORIENTED_EDGE ( 'NONE', *, *, #290, .F. ) ;
#316 = CIRCLE ( 'NONE', #86, 7.999999999999998224 ) ;
#317 = EDGE_CURVE ( 'NONE', #167, #16, #309, .T. ) ;
#318 = AXIS2_PLACEMENT_3D ( 'NONE', #238, #267, #275 ) ;
#319 = ORIENTED_EDGE ( 'NONE', *, *, #311, .F. ) ;
#320 = AXIS2_PLACEMENT_3D ( 'NONE', #249, #310, #109 ) ;
#321 = VERTEX_POINT ( 'NONE', #59 ) ;
#322 = AXIS2_PLACEMENT_3D ( 'NONE', #225, #84, #327 ) ;
#323 = ORIENTED_EDGE ( 'NONE', *, *, #282, .F. ) ;
#324 = PERSON_AND_ORGANIZATION_ROLE ( 'design_owner' ) ;
#325 = ORIENTED_EDGE ( 'NONE', *, *, #317, .T. ) ;
#326 = COORDINATED_UNIVERSAL_TIME_OFFSET ( 1, 0, .AHEAD. ) ;
#327 = DIRECTION ( 'NONE',  ( 0.000000000000000000, 1.000000000000000000, 0.000000000000000000 ) ) ;
#328 = CALENDAR_DATE ( 2022, 31, 5 ) ;
#329 = FACE_OUTER_BOUND ( 'NONE', #226, .T. ) ;
#330 = CARTESIAN_POINT ( 'NONE',  ( 4.336808689942017736E-16, 4.999999999999989342, 0.000000000000000000 ) ) ;
#331 = DATE_TIME_ROLE ( 'classification_date' ) ;
#332 = ADVANCED_FACE ( 'NONE', ( #163 ), #110, .T. ) ;
#333 = AXIS2_PLACEMENT_3D ( 'NONE', #306, #126, #363 ) ;
#334 = DIRECTION ( 'NONE',  ( -2.226630543904279455E-17, 1.000000000000000000, 0.000000000000000000 ) ) ;
#335 = APPROVAL_DATE_TIME ( #52, #60 ) ;
#336 = ADVANCED_FACE ( 'NONE', ( #14 ), #64, .T. ) ;
#337 = DIRECTION ( 'NONE',  ( 0.000000000000000000, 1.000000000000000000, 0.000000000000000000 ) ) ;
#338 = CARTESIAN_POINT ( 'NONE',  ( -81.00000000000000000, -7.715274834628326955E-15, 0.000000000000000000 ) ) ;
#339 = CARTESIAN_POINT ( 'NONE',  ( -2.999999999999999112, -6.679891631712834667E-17, 0.000000000000000000 ) ) ;
#340 = DIRECTION ( 'NONE',  ( 1.000000000000000000, 2.226630543904279147E-17, -0.000000000000000000 ) ) ;
#341 = CLOSED_SHELL ( 'NONE', ( #312, #100, #271, #336, #138, #194 ) ) ;
#342 = CIRCLE ( 'NONE', #322, 7.999999999999989342 ) ;
#343 = CARTESIAN_POINT ( 'NONE',  ( -81.00000000000000000, 7.999999999999991118, 0.000000000000000000 ) ) ;
#344 = EDGE_CURVE ( 'NONE', #142, #65, #15, .T. ) ;
#345 = CIRCLE ( 'NONE', #97, 7.999999999999991118 ) ;
#346 = ORIENTED_EDGE ( 'NONE', *, *, #302, .T. ) ;
#347 = ORIENTED_EDGE ( 'NONE', *, *, #357, .T. ) ;
#348 = APPROVAL ( #155, 'UNSPECIFIED' ) ;
#349 = UNCERTAINTY_MEASURE_WITH_UNIT (LENGTH_MEASURE( 1.000000000000000082E-05 ), #75, 'distance_accuracy_value', 'NONE');
#350 = VECTOR ( 'NONE', #221, 1000.000000000000000 ) ;
#351 = VERTEX_POINT ( 'NONE', #330 ) ;
#352 = AXIS2_PLACEMENT_3D ( 'NONE', #204, #56, #165 ) ;
#353 = ORIENTED_EDGE ( 'NONE', *, *, #53, .F. ) ;
#354 = DIRECTION ( 'NONE',  ( 0.7071067811865431318, 0.7071067811865519026, 0.000000000000000000 ) ) ;
#355 = DATE_AND_TIME ( #232, #313 ) ;
#356 = APPLICATION_CONTEXT ( 'configuration controlled 3d designs of mechanical parts and assemblies' ) ;
#357 = EDGE_CURVE ( 'NONE', #91, #256, #104, .T. ) ;
#358 = PERSON_AND_ORGANIZATION_ROLE ( 'creator' ) ;
#359 = AXIS2_PLACEMENT_3D ( 'NONE', #198, #172, #255 ) ;
#360 = ORGANIZATION ( 'UNSPECIFIED', 'UNSPECIFIED', '' ) ;
#361 = DIRECTION ( 'NONE',  ( -2.226630543904279455E-17, 1.000000000000000000, 0.000000000000000000 ) ) ;
#362 = CALENDAR_DATE ( 2022, 31, 5 ) ;
#363 = DIRECTION ( 'NONE',  ( 1.224646799147353207E-16, -1.000000000000000000, 0.000000000000000000 ) ) ;
#364 = CC_DESIGN_APPROVAL ( #42, ( #162 ) ) ;
#365 = DIRECTION ( 'NONE',  ( 1.000000000000000000, 1.224646799147353207E-16, -0.000000000000000000 ) ) ;
ENDSEC;
END-ISO-10303-21;
