ISO-10303-21;
HEADER;
FILE_DESCRIPTION (( 'STEP AP203' ),
    '1' );
FILE_NAME ('387472387483.step',
    '2022-05-31T14:09:08',
    ( '' ),
    ( '' ),
    'SwSTEP 2.0',
    'SolidWorks 2019',
    '' );
FILE_SCHEMA (( 'CONFIG_CONTROL_DESIGN' ));
ENDSEC;

DATA;
#1 = AXIS2_PLACEMENT_3D ( 'NONE', #167, #2, #280 ) ;
#2 = DIRECTION ( 'NONE',  ( 1.000000000000000000, 2.226630543904279147E-17, -0.000000000000000000 ) ) ;
#3 = EDGE_CURVE ( 'NONE', #360, #96, #148, .T. ) ;
#4 = CARTESIAN_POINT ( 'NONE',  ( -81.00000000000000000, 7.999999999999991118, 0.000000000000000000 ) ) ;
#5 = PERSON_AND_ORGANIZATION_ROLE ( 'creator' ) ;
#6 = AXIS2_PLACEMENT_3D ( 'NONE', #246, #339, #311 ) ;
#7 = DIRECTION ( 'NONE',  ( 1.000000000000000000, 2.226630543904279147E-17, -0.000000000000000000 ) ) ;
#8 = ADVANCED_FACE ( 'NONE', ( #296 ), #189, .T. ) ;
#9 = ORIENTED_EDGE ( 'NONE', *, *, #217, .F. ) ;
#10 = AXIS2_PLACEMENT_3D ( 'NONE', #348, #7, #199 ) ;
#11 = APPROVAL ( #117, 'UNSPECIFIED' ) ;
#12 = APPROVAL_ROLE ( '' ) ;
#13 = ORIENTED_EDGE ( 'NONE', *, *, #153, .T. ) ;
#14 = ORIENTED_EDGE ( 'NONE', *, *, #122, .T. ) ;
#15 = AXIS2_PLACEMENT_3D ( 'NONE', #226, #89, #283 ) ;
#16 = EDGE_LOOP ( 'NONE', ( #317, #121 ) ) ;
#17 = PERSON_AND_ORGANIZATION ( #41, #177 ) ;
#18 = DIRECTION ( 'NONE',  ( 1.000000000000000000, 2.226630543904279147E-17, -0.000000000000000000 ) ) ;
#19 = CARTESIAN_POINT ( 'NONE',  ( -81.00000000000000000, -7.715274834628326955E-15, 0.000000000000000000 ) ) ;
#20 = CARTESIAN_POINT ( 'NONE',  ( 1.558641380732993400E-16, 3.470518505333221395E-33, 0.000000000000000000 ) ) ;
#21 = APPROVAL ( #332, 'UNSPECIFIED' ) ;
#22 = CALENDAR_DATE ( 2022, 31, 5 ) ;
#23 = FACE_OUTER_BOUND ( 'NONE', #95, .T. ) ;
#24 = APPLICATION_PROTOCOL_DEFINITION ( 'international standard', 'config_control_design', 1994, #184 ) ;
#25 = AXIS2_PLACEMENT_3D ( 'NONE', #136, #181, #99 ) ;
#26 = CC_DESIGN_PERSON_AND_ORGANIZATION_ASSIGNMENT ( #115, #60, ( #76 ) ) ;
#27 = CARTESIAN_POINT ( 'NONE',  ( -22.00000000000000000, -4.898587196589413815E-16, 0.000000000000000000 ) ) ;
#28 = LOCAL_TIME ( 16, 9, 8.000000000000000000, #152 ) ;
#29 = DIRECTION ( 'NONE',  ( -2.226630543904279147E-17, 1.000000000000000000, 0.000000000000000000 ) ) ;
#30 = DIRECTION ( 'NONE',  ( 1.000000000000000000, 2.226630543904279147E-17, -0.000000000000000000 ) ) ;
#31 = AXIS2_PLACEMENT_3D ( 'NONE', #132, #78, #161 ) ;
#32 = CARTESIAN_POINT ( 'NONE',  ( -1.000000000000000888, 6.999999999999990230, 0.000000000000000000 ) ) ;
#33 = CC_DESIGN_APPROVAL ( #260, ( #143 ) ) ;
#34 = DIRECTION ( 'NONE',  ( 1.000000000000000000, 1.224646799147353207E-16, -0.000000000000000000 ) ) ;
#35 = ADVANCED_FACE ( 'NONE', ( #23 ), #304, .T. ) ;
#36 = CARTESIAN_POINT ( 'NONE',  ( -1.000000000000000666, 0.000000000000000000, 0.000000000000000000 ) ) ;
#37 = MANIFOLD_SOLID_BREP ( 'Révolution1', #68 ) ;
#38 = CONICAL_SURFACE ( 'NONE', #183, 7.999999999999998224, 0.7853981633974543852 ) ;
#39 = VERTEX_POINT ( 'NONE', #301 ) ;
#40 = EDGE_CURVE ( 'NONE', #96, #322, #306, .T. ) ;
#41 = PERSON ( 'UNSPECIFIED', 'UNSPECIFIED', 'UNSPECIFIED', ('UNSPECIFIED'), ('UNSPECIFIED'), ('UNSPECIFIED') ) ;
#42 = ORIENTED_EDGE ( 'NONE', *, *, #211, .F. ) ;
#43 = CARTESIAN_POINT ( 'NONE',  ( 0.000000000000000000, 0.000000000000000000, 0.000000000000000000 ) ) ;
#44 = PERSON_AND_ORGANIZATION_ROLE ( 'creator' ) ;
#45 = ADVANCED_FACE ( 'NONE', ( #356 ), #261, .T. ) ;
#46 = CIRCLE ( 'NONE', #352, 7.999999999999991118 ) ;
#47 = ORIENTED_EDGE ( 'NONE', *, *, #98, .T. ) ;
#48 = APPLICATION_PROTOCOL_DEFINITION ( 'international standard', 'config_control_design', 1994, #198 ) ;
#49 = PLANE ( 'NONE',  #361 ) ;
#50 = APPROVAL_ROLE ( '' ) ;
#51 = CARTESIAN_POINT ( 'NONE',  ( -81.00000000000000000, -8.000000000000005329, 9.797174393178823685E-16 ) ) ;
#52 = DIRECTION ( 'NONE',  ( -2.226630543904279147E-17, 1.000000000000000000, 0.000000000000000000 ) ) ;
#53 = CIRCLE ( 'NONE', #6, 6.999999999999999112 ) ;
#54 = MECHANICAL_CONTEXT ( 'NONE', #184, 'mechanical' ) ;
#55 = LINE ( 'NONE', #194, #125 ) ;
#56 = EDGE_CURVE ( 'NONE', #39, #259, #72, .T. ) ;
#57 = CARTESIAN_POINT ( 'NONE',  ( 0.000000000000000000, 6.999999999999990230, 0.000000000000000000 ) ) ;
#58 = EDGE_CURVE ( 'NONE', #288, #270, #86, .T. ) ;
#59 = CARTESIAN_POINT ( 'NONE',  ( -1.000000000000000444, -6.999999999999990230, 8.572527594031461357E-16 ) ) ;
#60 = PERSON_AND_ORGANIZATION_ROLE ( 'design_supplier' ) ;
#61 = CIRCLE ( 'NONE', #97, 7.999999999999991118 ) ;
#62 = DIRECTION ( 'NONE',  ( -2.710505431213764167E-17, 1.000000000000000000, 0.000000000000000000 ) ) ;
#63 = CARTESIAN_POINT ( 'NONE',  ( -81.00000000000000000, -7.715274834628326955E-15, 0.000000000000000000 ) ) ;
#64 = ADVANCED_FACE ( 'NONE', ( #213 ), #49, .T. ) ;
#65 = PLANE ( 'NONE',  #215 ) ;
#66 = ORIENTED_EDGE ( 'NONE', *, *, #224, .T. ) ;
#67 = ORIENTED_EDGE ( 'NONE', *, *, #40, .F. ) ;
#68 = CLOSED_SHELL ( 'NONE', ( #35, #342, #340, #295, #357, #312 ) ) ;
#69 = EDGE_LOOP ( 'NONE', ( #171, #14, #13, #292 ) ) ;
#70 = CARTESIAN_POINT ( 'NONE',  ( -81.99999999999998579, -7.837739514543060526E-15, 0.000000000000000000 ) ) ;
#71 = FACE_OUTER_BOUND ( 'NONE', #233, .T. ) ;
#72 = LINE ( 'NONE', #238, #111 ) ;
#73 = DIRECTION ( 'NONE',  ( 1.000000000000000000, 1.224646799147353207E-16, -0.000000000000000000 ) ) ;
#74 = EDGE_LOOP ( 'NONE', ( #231, #173 ) ) ;
#75 = DATE_AND_TIME ( #263, #28 ) ;
#76 = PRODUCT_DEFINITION_FORMATION_WITH_SPECIFIED_SOURCE ( 'ANY', '', #282, .NOT_KNOWN. ) ;
#77 = ORIENTED_EDGE ( 'NONE', *, *, #248, .T. ) ;
#78 = DIRECTION ( 'NONE',  ( 1.000000000000000000, 1.224646799147353207E-16, -0.000000000000000000 ) ) ;
#79 = EDGE_CURVE ( 'NONE', #229, #205, #82, .T. ) ;
#80 = ORIENTED_EDGE ( 'NONE', *, *, #3, .T. ) ;
#81 = CARTESIAN_POINT ( 'NONE',  ( -1.000000000000000888, 7.999999999999991118, 0.000000000000000000 ) ) ;
#82 = CIRCLE ( 'NONE', #25, 7.999999999999991118 ) ;
#83 = DIRECTION ( 'NONE',  ( 1.000000000000000000, 2.226630543904279147E-17, -0.000000000000000000 ) ) ;
#84 = DIRECTION ( 'NONE',  ( 0.000000000000000000, 1.000000000000000000, 0.000000000000000000 ) ) ;
#85 = CARTESIAN_POINT ( 'NONE',  ( -1.781304435123421345E-16, 7.999999999999991118, 0.000000000000000000 ) ) ;
#86 = CIRCLE ( 'NONE', #221, 6.999999999999990230 ) ;
#87 = DIRECTION ( 'NONE',  ( 0.000000000000000000, 1.000000000000000000, 0.000000000000000000 ) ) ;
#88 = PERSON_AND_ORGANIZATION ( #41, #177 ) ;
#89 = DIRECTION ( 'NONE',  ( 1.000000000000000000, 1.224646799147353207E-16, -0.000000000000000000 ) ) ;
#90 = ORIENTED_EDGE ( 'NONE', *, *, #351, .T. ) ;
#91 = UNCERTAINTY_MEASURE_WITH_UNIT (LENGTH_MEASURE( 1.000000000000000082E-05 ), #307, 'distance_accuracy_value', 'NONE');
#92 = AXIS2_PLACEMENT_3D ( 'NONE', #70, #187, #353 ) ;
#93 = CALENDAR_DATE ( 2022, 31, 5 ) ;
#94 = PRODUCT_DEFINITION_SHAPE ( 'NONE', 'NONE',  #143 ) ;
#95 = EDGE_LOOP ( 'NONE', ( #47, #323, #208, #218 ) ) ;
#96 = VERTEX_POINT ( 'NONE', #185 ) ;
#97 = AXIS2_PLACEMENT_3D ( 'NONE', #114, #197, #341 ) ;
#98 = EDGE_CURVE ( 'NONE', #39, #322, #252, .T. ) ;
#99 = DIRECTION ( 'NONE',  ( -2.710505431213764167E-17, 1.000000000000000000, 0.000000000000000000 ) ) ;
#100 = PERSON_AND_ORGANIZATION ( #41, #177 ) ;
#101 = ORIENTED_EDGE ( 'NONE', *, *, #98, .F. ) ;
#102 = DIRECTION ( 'NONE',  ( -2.226630543904279455E-17, 1.000000000000000000, 0.000000000000000000 ) ) ;
#103 = CARTESIAN_POINT ( 'NONE',  ( 0.000000000000000000, 0.000000000000000000, 0.000000000000000000 ) ) ;
#104 = AXIS2_PLACEMENT_3D ( 'NONE', #244, #110, #222 ) ;
#105 = ORIENTED_EDGE ( 'NONE', *, *, #303, .F. ) ;
#106 = CC_DESIGN_PERSON_AND_ORGANIZATION_ASSIGNMENT ( #326, #299, ( #282 ) ) ;
#107 = CARTESIAN_POINT ( 'NONE',  ( 0.000000000000000000, 0.000000000000000000, 0.000000000000000000 ) ) ;
#108 = FACE_OUTER_BOUND ( 'NONE', #147, .T. ) ;
#109 = DIRECTION ( 'NONE',  ( -2.726835968476105457E-33, 1.224646799147353207E-16, 1.000000000000000000 ) ) ;
#110 = DIRECTION ( 'NONE',  ( 1.000000000000000000, 1.224646799147353207E-16, -0.000000000000000000 ) ) ;
#111 = VECTOR ( 'NONE', #158, 1000.000000000000000 ) ;
#112 = PERSON_AND_ORGANIZATION ( #41, #177 ) ;
#113 = CARTESIAN_POINT ( 'NONE',  ( -22.00000000000000000, -7.999999999999994671, 9.797174393178819741E-16 ) ) ;
#114 = CARTESIAN_POINT ( 'NONE',  ( -22.00000000000000000, -4.898587196589413815E-16, 0.000000000000000000 ) ) ;
#115 = PERSON_AND_ORGANIZATION ( #41, #177 ) ;
#116 = CARTESIAN_POINT ( 'NONE',  ( -81.00000000000000000, -8.000000000000007105, 9.797174393178825657E-16 ) ) ;
#117 = APPROVAL_STATUS ( 'not_yet_approved' ) ;
#118 = ORIENTED_EDGE ( 'NONE', *, *, #153, .F. ) ;
#119 = ORIENTED_EDGE ( 'NONE', *, *, #349, .F. ) ;
#120 = AXIS2_PLACEMENT_3D ( 'NONE', #157, #34, #84 ) ;
#121 = ORIENTED_EDGE ( 'NONE', *, *, #122, .F. ) ;
#122 = EDGE_CURVE ( 'NONE', #255, #126, #61, .T. ) ;
#123 = LOCAL_TIME ( 16, 9, 8.000000000000000000, #290 ) ;
#124 = COORDINATED_UNIVERSAL_TIME_OFFSET ( 1, 0, .AHEAD. ) ;
#125 = VECTOR ( 'NONE', #249, 1000.000000000000000 ) ;
#126 = VERTEX_POINT ( 'NONE', #281 ) ;
#127 = CARTESIAN_POINT ( 'NONE',  ( -22.00000000000000000, -4.898587196589413815E-16, 0.000000000000000000 ) ) ;
#128 = LOCAL_TIME ( 16, 9, 8.000000000000000000, #124 ) ;
#129 = ORIENTED_EDGE ( 'NONE', *, *, #58, .F. ) ;
#130 = APPROVAL_STATUS ( 'not_yet_approved' ) ;
#131 = ORIENTED_EDGE ( 'NONE', *, *, #289, .T. ) ;
#132 = CARTESIAN_POINT ( 'NONE',  ( -81.00000000000000000, -7.715274834628326955E-15, 0.000000000000000000 ) ) ;
#133 = CIRCLE ( 'NONE', #175, 7.999999999999991118 ) ;
#134 = DIRECTION ( 'NONE',  ( 1.000000000000000000, 2.226630543904279147E-17, -0.000000000000000000 ) ) ;
#135 = CALENDAR_DATE ( 2022, 31, 5 ) ;
#136 = CARTESIAN_POINT ( 'NONE',  ( -1.000000000000000666, -2.226630543904280688E-17, 0.000000000000000000 ) ) ;
#137 = CC_DESIGN_DATE_AND_TIME_ASSIGNMENT ( #328, #239, ( #143 ) ) ;
#138 = FACE_OUTER_BOUND ( 'NONE', #74, .T. ) ;
#139 = LINE ( 'NONE', #113, #166 ) ;
#140 = VECTOR ( 'NONE', #274, 1000.000000000000000 ) ;
#141 = DIRECTION ( 'NONE',  ( 1.000000000000000000, 2.226630543904279147E-17, -0.000000000000000000 ) ) ;
#142 = PLANE ( 'NONE',  #329 ) ;
#143 = PRODUCT_DEFINITION ( 'UNKNOWN', '', #76, #228 ) ;
#144 = DIRECTION ( 'NONE',  ( -1.000000000000000000, -1.224646799147353207E-16, 0.000000000000000000 ) ) ;
#145 = VECTOR ( 'NONE', #325, 999.9999999999998863 ) ;
#146 = APPROVAL_DATE_TIME ( #320, #11 ) ;
#147 = EDGE_LOOP ( 'NONE', ( #9, #154, #354, #257 ) ) ;
#148 = CIRCLE ( 'NONE', #92, 6.999999999999999112 ) ;
#149 = ORIENTED_EDGE ( 'NONE', *, *, #224, .F. ) ;
#150 = ORIENTED_EDGE ( 'NONE', *, *, #256, .T. ) ;
#151 = DIRECTION ( 'NONE',  ( 1.000000000000000000, 1.224646799147353207E-16, -0.000000000000000000 ) ) ;
#152 = COORDINATED_UNIVERSAL_TIME_OFFSET ( 1, 0, .AHEAD. ) ;
#153 = EDGE_CURVE ( 'NONE', #126, #205, #335, .T. ) ;
#154 = ORIENTED_EDGE ( 'NONE', *, *, #349, .T. ) ;
#155 = DATE_AND_TIME ( #135, #128 ) ;
#156 = APPROVAL_PERSON_ORGANIZATION ( #100, #21, #324 ) ;
#157 = CARTESIAN_POINT ( 'NONE',  ( -81.00000000000000000, -7.715274834628326955E-15, 0.000000000000000000 ) ) ;
#158 = DIRECTION ( 'NONE',  ( 1.000000000000000000, 1.224646799147353207E-16, -0.000000000000000000 ) ) ;
#159 = AXIS2_PLACEMENT_3D ( 'NONE', #127, #269, #305 ) ;
#160 = ORIENTED_EDGE ( 'NONE', *, *, #330, .F. ) ;
#161 = DIRECTION ( 'NONE',  ( 0.000000000000000000, 1.000000000000000000, 0.000000000000000000 ) ) ;
#162 = PLANE ( 'NONE',  #15 ) ;
#163 = CC_DESIGN_APPROVAL ( #11, ( #267 ) ) ;
#164 = CARTESIAN_POINT ( 'NONE',  ( -22.00000000000000000, 7.999999999999991118, 0.000000000000000000 ) ) ;
#165 = DIRECTION ( 'NONE',  ( 1.000000000000000000, 1.224646799147353207E-16, -0.000000000000000000 ) ) ;
#166 = VECTOR ( 'NONE', #165, 1000.000000000000000 ) ;
#167 = CARTESIAN_POINT ( 'NONE',  ( -1.000000000000000666, 0.000000000000000000, 0.000000000000000000 ) ) ;
#168 = FACE_OUTER_BOUND ( 'NONE', #333, .T. ) ;
#169 = ADVANCED_FACE ( 'NONE', ( #138 ), #142, .T. ) ;
#170 = CARTESIAN_POINT ( 'NONE',  ( -81.99999999999998579, -7.837739514543058948E-15, 0.000000000000000000 ) ) ;
#171 = ORIENTED_EDGE ( 'NONE', *, *, #248, .F. ) ;
#172 = CONICAL_SURFACE ( 'NONE', #313, 7.999999999999998224, 0.7853981633974543852 ) ;
#173 = ORIENTED_EDGE ( 'NONE', *, *, #58, .T. ) ;
#174 = COORDINATED_UNIVERSAL_TIME_OFFSET ( 1, 0, .AHEAD. ) ;
#175 = AXIS2_PLACEMENT_3D ( 'NONE', #334, #358, #219 ) ;
#176 = ORIENTED_EDGE ( 'NONE', *, *, #211, .T. ) ;
#177 = ORGANIZATION ( 'UNSPECIFIED', 'UNSPECIFIED', '' ) ;
#178 = EDGE_LOOP ( 'NONE', ( #286, #77, #149, #118 ) ) ;
#179 = APPROVAL_DATE_TIME ( #155, #260 ) ;
#180 = ADVANCED_FACE ( 'NONE', ( #220 ), #284, .T. ) ;
#181 = DIRECTION ( 'NONE',  ( 1.000000000000000000, 2.226630543904279147E-17, -0.000000000000000000 ) ) ;
#182 =( NAMED_UNIT ( * ) SI_UNIT ( $, .STERADIAN. ) SOLID_ANGLE_UNIT ( ) );
#183 = AXIS2_PLACEMENT_3D ( 'NONE', #19, #73, #363 ) ;
#184 = APPLICATION_CONTEXT ( 'configuration controlled 3d designs of mechanical parts and assemblies' ) ;
#185 = CARTESIAN_POINT ( 'NONE',  ( -81.99999999999998579, -7.000000000000007105, 9.184850993605147944E-16 ) ) ;
#186 = DIRECTION ( 'NONE',  ( 1.224646799147353207E-16, -1.000000000000000000, 0.000000000000000000 ) ) ;
#187 = DIRECTION ( 'NONE',  ( 1.000000000000000000, 1.224646799147353207E-16, -0.000000000000000000 ) ) ;
#188 = ADVANCED_BREP_SHAPE_REPRESENTATION ( '387472387483', ( #37, #262, #346 ), #192 ) ;
#189 = CYLINDRICAL_SURFACE ( 'NONE', #202, 7.999999999999991118 ) ;
#190 = DIRECTION ( 'NONE',  ( 1.000000000000000000, 0.000000000000000000, 0.000000000000000000 ) ) ;
#191 = AXIS2_PLACEMENT_3D ( 'NONE', #59, #109, #193 ) ;
#192 =( GEOMETRIC_REPRESENTATION_CONTEXT ( 3 ) GLOBAL_UNCERTAINTY_ASSIGNED_CONTEXT ( ( #91 ) ) GLOBAL_UNIT_ASSIGNED_CONTEXT ( ( #307, #266, #182 ) ) REPRESENTATION_CONTEXT ( 'NONE', 'WORKASPACE' ) );
#193 = DIRECTION ( 'NONE',  ( 0.000000000000000000, -1.000000000000000000, 1.224646799147353454E-16 ) ) ;
#194 = CARTESIAN_POINT ( 'NONE',  ( 1.781304435123421345E-16, -7.999999999999991118, 9.797174393178815797E-16 ) ) ;
#195 = DIRECTION ( 'NONE',  ( -2.226630543904279147E-17, 1.000000000000000000, 0.000000000000000000 ) ) ;
#196 = DIRECTION ( 'NONE',  ( 1.000000000000000000, 2.226630543904279147E-17, -0.000000000000000000 ) ) ;
#197 = DIRECTION ( 'NONE',  ( 1.000000000000000000, 2.226630543904279147E-17, -0.000000000000000000 ) ) ;
#198 = APPLICATION_CONTEXT ( 'configuration controlled 3d designs of mechanical parts and assemblies' ) ;
#199 = DIRECTION ( 'NONE',  ( -2.226630543904279455E-17, 1.000000000000000000, 0.000000000000000000 ) ) ;
#200 = CC_DESIGN_PERSON_AND_ORGANIZATION_ASSIGNMENT ( #297, #44, ( #143 ) ) ;
#201 = EDGE_LOOP ( 'NONE', ( #298, #210 ) ) ;
#202 = AXIS2_PLACEMENT_3D ( 'NONE', #43, #134, #216 ) ;
#203 = DATE_AND_TIME ( #93, #123 ) ;
#204 = PERSON_AND_ORGANIZATION ( #41, #177 ) ;
#205 = VERTEX_POINT ( 'NONE', #81 ) ;
#206 = EDGE_CURVE ( 'NONE', #259, #321, #230, .T. ) ;
#207 = EDGE_LOOP ( 'NONE', ( #268, #90 ) ) ;
#208 = ORIENTED_EDGE ( 'NONE', *, *, #206, .F. ) ;
#209 = LOCAL_TIME ( 16, 9, 8.000000000000000000, #234 ) ;
#210 = ORIENTED_EDGE ( 'NONE', *, *, #289, .F. ) ;
#211 = EDGE_CURVE ( 'NONE', #360, #39, #337, .T. ) ;
#212 = CC_DESIGN_PERSON_AND_ORGANIZATION_ASSIGNMENT ( #88, #285, ( #267 ) ) ;
#213 = FACE_OUTER_BOUND ( 'NONE', #16, .T. ) ;
#214 = DIRECTION ( 'NONE',  ( 0.000000000000000000, 0.000000000000000000, 1.000000000000000000 ) ) ;
#215 = AXIS2_PLACEMENT_3D ( 'NONE', #170, #144, #186 ) ;
#216 = DIRECTION ( 'NONE',  ( -2.226630543904279147E-17, 1.000000000000000000, 0.000000000000000000 ) ) ;
#217 = EDGE_CURVE ( 'NONE', #322, #321, #139, .T. ) ;
#218 = ORIENTED_EDGE ( 'NONE', *, *, #56, .F. ) ;
#219 = DIRECTION ( 'NONE',  ( 0.000000000000000000, 1.000000000000000000, 0.000000000000000000 ) ) ;
#220 = FACE_OUTER_BOUND ( 'NONE', #240, .T. ) ;
#221 = AXIS2_PLACEMENT_3D ( 'NONE', #20, #273, #102 ) ;
#222 = DIRECTION ( 'NONE',  ( 0.000000000000000000, 1.000000000000000000, 0.000000000000000000 ) ) ;
#223 = CARTESIAN_POINT ( 'NONE',  ( 3.117282761465986800E-16, -6.999999999999990230, 9.184850993605138084E-16 ) ) ;
#224 = EDGE_CURVE ( 'NONE', #205, #229, #46, .T. ) ;
#225 = DIRECTION ( 'NONE',  ( -1.000000000000000000, 0.000000000000000000, 0.000000000000000000 ) ) ;
#226 = CARTESIAN_POINT ( 'NONE',  ( -22.00000000000000000, -4.898587196589412829E-16, 0.000000000000000000 ) ) ;
#227 = ORIENTED_EDGE ( 'NONE', *, *, #256, .F. ) ;
#228 = DESIGN_CONTEXT ( 'detailed design', #198, 'design' ) ;
#229 = VERTEX_POINT ( 'NONE', #314 ) ;
#230 = CIRCLE ( 'NONE', #104, 7.999999999999991118 ) ;
#231 = ORIENTED_EDGE ( 'NONE', *, *, #330, .T. ) ;
#232 = SHAPE_DEFINITION_REPRESENTATION ( #94, #188 ) ;
#233 = EDGE_LOOP ( 'NONE', ( #80, #236, #101, #42 ) ) ;
#234 = COORDINATED_UNIVERSAL_TIME_OFFSET ( 1, 0, .AHEAD. ) ;
#235 = AXIS2_PLACEMENT_3D ( 'NONE', #107, #18, #52 ) ;
#236 = ORIENTED_EDGE ( 'NONE', *, *, #40, .T. ) ;
#237 = CARTESIAN_POINT ( 'NONE',  ( -81.99999999999998579, 6.999999999999991118, 0.000000000000000000 ) ) ;
#238 = CARTESIAN_POINT ( 'NONE',  ( -22.00000000000000000, 7.999999999999994671, 0.000000000000000000 ) ) ;
#239 = DATE_TIME_ROLE ( 'creation_date' ) ;
#240 = EDGE_LOOP ( 'NONE', ( #66, #294, #160, #227 ) ) ;
#241 = ADVANCED_FACE ( 'NONE', ( #168 ), #300, .T. ) ;
#242 = DIRECTION ( 'NONE',  ( -1.000000000000000000, -2.226630543904279147E-17, 0.000000000000000000 ) ) ;
#243 = DIRECTION ( 'NONE',  ( 1.000000000000000000, 1.224646799147353207E-16, -0.000000000000000000 ) ) ;
#244 = CARTESIAN_POINT ( 'NONE',  ( -22.00000000000000000, -4.898587196589412829E-16, 0.000000000000000000 ) ) ;
#245 = AXIS2_PLACEMENT_3D ( 'NONE', #32, #276, #225 ) ;
#246 = CARTESIAN_POINT ( 'NONE',  ( -81.99999999999998579, -7.837739514543060526E-15, 0.000000000000000000 ) ) ;
#247 = CARTESIAN_POINT ( 'NONE',  ( -7.793206903664966999E-17, 6.999999999999990230, 0.000000000000000000 ) ) ;
#248 = EDGE_CURVE ( 'NONE', #255, #229, #55, .T. ) ;
#249 = DIRECTION ( 'NONE',  ( 1.000000000000000000, 2.226630543904279147E-17, -0.000000000000000000 ) ) ;
#250 = PRODUCT_RELATED_PRODUCT_CATEGORY ( 'detail', '', ( #282 ) ) ;
#251 = CARTESIAN_POINT ( 'NONE',  ( -22.00000000000000000, -7.999999999999991118, 9.797174393178817769E-16 ) ) ;
#252 = CIRCLE ( 'NONE', #120, 7.999999999999998224 ) ;
#253 = CLOSED_SHELL ( 'NONE', ( #8, #180, #241, #45, #64, #169 ) ) ;
#254 = DATE_TIME_ROLE ( 'classification_date' ) ;
#255 = VERTEX_POINT ( 'NONE', #310 ) ;
#256 = EDGE_CURVE ( 'NONE', #205, #270, #272, .T. ) ;
#257 = ORIENTED_EDGE ( 'NONE', *, *, #351, .F. ) ;
#258 = AXIS2_PLACEMENT_3D ( 'NONE', #36, #196, #195 ) ;
#259 = VERTEX_POINT ( 'NONE', #164 ) ;
#260 = APPROVAL ( #130, 'UNSPECIFIED' ) ;
#261 = CYLINDRICAL_SURFACE ( 'NONE', #235, 7.999999999999991118 ) ;
#262 = MANIFOLD_SOLID_BREP ( 'Révolution2', #253 ) ;
#263 = CALENDAR_DATE ( 2022, 31, 5 ) ;
#264 = AXIS2_PLACEMENT_3D ( 'NONE', #265, #151, #331 ) ;
#265 = CARTESIAN_POINT ( 'NONE',  ( -22.00000000000000000, -4.898587196589413815E-16, 0.000000000000000000 ) ) ;
#266 =( NAMED_UNIT ( * ) PLANE_ANGLE_UNIT ( ) SI_UNIT ( $, .RADIAN. ) );
#267 = SECURITY_CLASSIFICATION ( '', '', #345 ) ;
#268 = ORIENTED_EDGE ( 'NONE', *, *, #206, .T. ) ;
#269 = DIRECTION ( 'NONE',  ( 1.000000000000000000, 1.224646799147353207E-16, -0.000000000000000000 ) ) ;
#270 = VERTEX_POINT ( 'NONE', #57 ) ;
#271 = EDGE_CURVE ( 'NONE', #126, #255, #336, .T. ) ;
#272 = CIRCLE ( 'NONE', #245, 1.000000000000000888 ) ;
#273 = DIRECTION ( 'NONE',  ( 1.000000000000000000, 2.226630543904279147E-17, -0.000000000000000000 ) ) ;
#274 = DIRECTION ( 'NONE',  ( 0.7071067811865431318, 0.7071067811865519026, 0.000000000000000000 ) ) ;
#275 = CC_DESIGN_PERSON_AND_ORGANIZATION_ASSIGNMENT ( #112, #5, ( #76 ) ) ;
#276 = DIRECTION ( 'NONE',  ( -0.000000000000000000, 0.000000000000000000, -1.000000000000000000 ) ) ;
#277 = CIRCLE ( 'NONE', #31, 7.999999999999998224 ) ;
#278 = CARTESIAN_POINT ( 'NONE',  ( -1.000000000000000666, -2.226630543904280688E-17, 0.000000000000000000 ) ) ;
#279 = APPROVAL_PERSON_ORGANIZATION ( #204, #11, #12 ) ;
#280 = DIRECTION ( 'NONE',  ( -2.226630543904279147E-17, 1.000000000000000000, 0.000000000000000000 ) ) ;
#281 = CARTESIAN_POINT ( 'NONE',  ( -22.00000000000000000, 7.999999999999991118, 0.000000000000000000 ) ) ;
#282 = PRODUCT ( '387472387483', '387472387483', '', ( #54 ) ) ;
#283 = DIRECTION ( 'NONE',  ( -1.224646799147353207E-16, 1.000000000000000000, 0.000000000000000000 ) ) ;
#284 = TOROIDAL_SURFACE ( 'NONE', #258, 6.999999999999990230, 1.000000000000000888 ) ;
#285 = PERSON_AND_ORGANIZATION_ROLE ( 'classification_officer' ) ;
#286 = ORIENTED_EDGE ( 'NONE', *, *, #271, .T. ) ;
#287 = APPROVAL_PERSON_ORGANIZATION ( #17, #260, #50 ) ;
#288 = VERTEX_POINT ( 'NONE', #223 ) ;
#289 = EDGE_CURVE ( 'NONE', #96, #360, #53, .T. ) ;
#290 = COORDINATED_UNIVERSAL_TIME_OFFSET ( 1, 0, .AHEAD. ) ;
#291 = EDGE_LOOP ( 'NONE', ( #67, #131, #176, #119 ) ) ;
#292 = ORIENTED_EDGE ( 'NONE', *, *, #79, .F. ) ;
#293 = CIRCLE ( 'NONE', #10, 6.999999999999990230 ) ;
#294 = ORIENTED_EDGE ( 'NONE', *, *, #303, .T. ) ;
#295 = ADVANCED_FACE ( 'NONE', ( #315 ), #172, .T. ) ;
#296 = FACE_OUTER_BOUND ( 'NONE', #178, .T. ) ;
#297 = PERSON_AND_ORGANIZATION ( #41, #177 ) ;
#298 = ORIENTED_EDGE ( 'NONE', *, *, #3, .F. ) ;
#299 = PERSON_AND_ORGANIZATION_ROLE ( 'design_owner' ) ;
#300 = TOROIDAL_SURFACE ( 'NONE', #1, 6.999999999999990230, 1.000000000000000888 ) ;
#301 = CARTESIAN_POINT ( 'NONE',  ( -81.00000000000000000, 7.999999999999989342, 0.000000000000000000 ) ) ;
#302 = APPROVAL_DATE_TIME ( #75, #21 ) ;
#303 = EDGE_CURVE ( 'NONE', #229, #288, #308, .T. ) ;
#304 = CYLINDRICAL_SURFACE ( 'NONE', #264, 7.999999999999994671 ) ;
#305 = DIRECTION ( 'NONE',  ( 0.000000000000000000, 1.000000000000000000, 0.000000000000000000 ) ) ;
#306 = LINE ( 'NONE', #51, #145 ) ;
#307 =( LENGTH_UNIT ( ) NAMED_UNIT ( * ) SI_UNIT ( .MILLI., .METRE. ) );
#308 = CIRCLE ( 'NONE', #191, 1.000000000000000888 ) ;
#309 = FACE_OUTER_BOUND ( 'NONE', #207, .T. ) ;
#310 = CARTESIAN_POINT ( 'NONE',  ( -22.00000000000000000, -7.999999999999991118, 9.797174393178815797E-16 ) ) ;
#311 = DIRECTION ( 'NONE',  ( 0.000000000000000000, 1.000000000000000000, 0.000000000000000000 ) ) ;
#312 = ADVANCED_FACE ( 'NONE', ( #309 ), #162, .T. ) ;
#313 = AXIS2_PLACEMENT_3D ( 'NONE', #63, #243, #364 ) ;
#314 = CARTESIAN_POINT ( 'NONE',  ( -1.000000000000000444, -7.999999999999991118, 9.797174393178815797E-16 ) ) ;
#315 = FACE_OUTER_BOUND ( 'NONE', #291, .T. ) ;
#316 = FACE_OUTER_BOUND ( 'NONE', #201, .T. ) ;
#317 = ORIENTED_EDGE ( 'NONE', *, *, #271, .F. ) ;
#318 = VECTOR ( 'NONE', #141, 1000.000000000000000 ) ;
#319 = LOCAL_TIME ( 16, 9, 8.000000000000000000, #174 ) ;
#320 = DATE_AND_TIME ( #350, #319 ) ;
#321 = VERTEX_POINT ( 'NONE', #251 ) ;
#322 = VERTEX_POINT ( 'NONE', #116 ) ;
#323 = ORIENTED_EDGE ( 'NONE', *, *, #217, .T. ) ;
#324 = APPROVAL_ROLE ( '' ) ;
#325 = DIRECTION ( 'NONE',  ( 0.7071067811865434649, -0.7071067811865516806, 8.659560562354987092E-17 ) ) ;
#326 = PERSON_AND_ORGANIZATION ( #41, #177 ) ;
#327 = ORIENTED_EDGE ( 'NONE', *, *, #79, .T. ) ;
#328 = DATE_AND_TIME ( #22, #209 ) ;
#329 = AXIS2_PLACEMENT_3D ( 'NONE', #247, #365, #29 ) ;
#330 = EDGE_CURVE ( 'NONE', #270, #288, #293, .T. ) ;
#331 = DIRECTION ( 'NONE',  ( 0.000000000000000000, 1.000000000000000000, 0.000000000000000000 ) ) ;
#332 = APPROVAL_STATUS ( 'not_yet_approved' ) ;
#333 = EDGE_LOOP ( 'NONE', ( #105, #327, #150, #129 ) ) ;
#334 = CARTESIAN_POINT ( 'NONE',  ( -22.00000000000000000, -4.898587196589412829E-16, 0.000000000000000000 ) ) ;
#335 = LINE ( 'NONE', #85, #318 ) ;
#336 = CIRCLE ( 'NONE', #343, 7.999999999999991118 ) ;
#337 = LINE ( 'NONE', #4, #140 ) ;
#338 = CC_DESIGN_APPROVAL ( #21, ( #76 ) ) ;
#339 = DIRECTION ( 'NONE',  ( 1.000000000000000000, 1.224646799147353207E-16, -0.000000000000000000 ) ) ;
#340 = ADVANCED_FACE ( 'NONE', ( #316 ), #65, .T. ) ;
#341 = DIRECTION ( 'NONE',  ( 0.000000000000000000, 1.000000000000000000, 0.000000000000000000 ) ) ;
#342 = ADVANCED_FACE ( 'NONE', ( #71 ), #38, .T. ) ;
#343 = AXIS2_PLACEMENT_3D ( 'NONE', #344, #30, #87 ) ;
#344 = CARTESIAN_POINT ( 'NONE',  ( -22.00000000000000000, -4.898587196589413815E-16, 0.000000000000000000 ) ) ;
#345 = SECURITY_CLASSIFICATION_LEVEL ( 'unclassified' ) ;
#346 = AXIS2_PLACEMENT_3D ( 'NONE', #103, #214, #190 ) ;
#347 = CC_DESIGN_SECURITY_CLASSIFICATION ( #267, ( #76 ) ) ;
#348 = CARTESIAN_POINT ( 'NONE',  ( 1.558641380732993400E-16, 3.470518505333221395E-33, 0.000000000000000000 ) ) ;
#349 = EDGE_CURVE ( 'NONE', #322, #39, #277, .T. ) ;
#350 = CALENDAR_DATE ( 2022, 31, 5 ) ;
#351 = EDGE_CURVE ( 'NONE', #321, #259, #133, .T. ) ;
#352 = AXIS2_PLACEMENT_3D ( 'NONE', #278, #83, #62 ) ;
#353 = DIRECTION ( 'NONE',  ( 0.000000000000000000, 1.000000000000000000, 0.000000000000000000 ) ) ;
#354 = ORIENTED_EDGE ( 'NONE', *, *, #56, .T. ) ;
#355 = CYLINDRICAL_SURFACE ( 'NONE', #159, 7.999999999999994671 ) ;
#356 = FACE_OUTER_BOUND ( 'NONE', #69, .T. ) ;
#357 = ADVANCED_FACE ( 'NONE', ( #108 ), #355, .T. ) ;
#358 = DIRECTION ( 'NONE',  ( 1.000000000000000000, 1.224646799147353207E-16, -0.000000000000000000 ) ) ;
#359 = CC_DESIGN_DATE_AND_TIME_ASSIGNMENT ( #203, #254, ( #267 ) ) ;
#360 = VERTEX_POINT ( 'NONE', #237 ) ;
#361 = AXIS2_PLACEMENT_3D ( 'NONE', #27, #242, #362 ) ;
#362 = DIRECTION ( 'NONE',  ( 2.226630543904279147E-17, -1.000000000000000000, 0.000000000000000000 ) ) ;
#363 = DIRECTION ( 'NONE',  ( 0.000000000000000000, 1.000000000000000000, 0.000000000000000000 ) ) ;
#364 = DIRECTION ( 'NONE',  ( 0.000000000000000000, 1.000000000000000000, 0.000000000000000000 ) ) ;
#365 = DIRECTION ( 'NONE',  ( 1.000000000000000000, 2.226630543904279147E-17, -0.000000000000000000 ) ) ;
ENDSEC;
END-ISO-10303-21;
