ISO-10303-21;
HEADER;
FILE_DESCRIPTION (( 'STEP AP203' ),
    '1' );
FILE_NAME ('387472387482.step',
    '2022-05-31T14:09:07',
    ( '' ),
    ( '' ),
    'SwSTEP 2.0',
    'SolidWorks 2019',
    '' );
FILE_SCHEMA (( 'CONFIG_CONTROL_DESIGN' ));
ENDSEC;

DATA;
#1 = DIRECTION ( 'NONE',  ( 0.000000000000000000, 1.000000000000000000, 0.000000000000000000 ) ) ;
#2 = APPROVAL_PERSON_ORGANIZATION ( #363, #139, #169 ) ;
#3 = CARTESIAN_POINT ( 'NONE',  ( -0.5000000000000007772, 2.041077998578924991E-17, 0.000000000000000000 ) ) ;
#4 = CIRCLE ( 'NONE', #258, 6.999999999999990230 ) ;
#5 = VECTOR ( 'NONE', #328, 1000.000000000000000 ) ;
#6 = CC_DESIGN_SECURITY_CLASSIFICATION ( #141, ( #285 ) ) ;
#7 = ADVANCED_FACE ( 'NONE', ( #38 ), #237, .T. ) ;
#8 = PERSON ( 'UNSPECIFIED', 'UNSPECIFIED', 'UNSPECIFIED', ('UNSPECIFIED'), ('UNSPECIFIED'), ('UNSPECIFIED') ) ;
#9 = VERTEX_POINT ( 'NONE', #91 ) ;
#10 = DIRECTION ( 'NONE',  ( 1.000000000000000000, 1.224646799147352714E-16, -0.000000000000000000 ) ) ;
#11 = VERTEX_POINT ( 'NONE', #71 ) ;
#12 = CARTESIAN_POINT ( 'NONE',  ( -18.00000000000000000, 7.347880794884118750E-16, 0.000000000000000000 ) ) ;
#13 = PRODUCT_DEFINITION_SHAPE ( 'NONE', 'NONE',  #203 ) ;
#14 = DIRECTION ( 'NONE',  ( 1.000000000000000000, -4.082155997157843818E-17, -0.000000000000000000 ) ) ;
#15 = EDGE_LOOP ( 'NONE', ( #150, #62, #238, #296 ) ) ;
#16 = EDGE_CURVE ( 'NONE', #262, #9, #215, .T. ) ;
#17 = ADVANCED_FACE ( 'NONE', ( #272 ), #19, .T. ) ;
#18 = CARTESIAN_POINT ( 'NONE',  ( -74.00000000000000000, -6.123233995736762141E-15, 0.000000000000000000 ) ) ;
#19 = CYLINDRICAL_SURFACE ( 'NONE', #173, 6.999999999999993783 ) ;
#20 = LINE ( 'NONE', #100, #191 ) ;
#21 = AXIS2_PLACEMENT_3D ( 'NONE', #112, #140, #105 ) ;
#22 = DIRECTION ( 'NONE',  ( 1.000000000000000000, 1.224646799147352714E-16, -0.000000000000000000 ) ) ;
#23 = CARTESIAN_POINT ( 'NONE',  ( -0.5000000000000006661, 0.000000000000000000, 0.000000000000000000 ) ) ;
#24 = CARTESIAN_POINT ( 'NONE',  ( -4.222600623819684333E-16, -6.499999999999990230, 8.266365894244622500E-16 ) ) ;
#25 = LINE ( 'NONE', #65, #68 ) ;
#26 = APPROVAL ( #136, 'UNSPECIFIED' ) ;
#27 = CARTESIAN_POINT ( 'NONE',  ( -18.00000000000000000, 7.347880794884119736E-16, 0.000000000000000000 ) ) ;
#28 = APPROVAL_STATUS ( 'not_yet_approved' ) ;
#29 = DATE_AND_TIME ( #111, #160 ) ;
#30 = DATE_AND_TIME ( #289, #324 ) ;
#31 = CARTESIAN_POINT ( 'NONE',  ( -0.5000000000000007772, 2.041077998578924991E-17, 0.000000000000000000 ) ) ;
#32 = CIRCLE ( 'NONE', #82, 6.499999999999990230 ) ;
#33 = EDGE_LOOP ( 'NONE', ( #346, #177, #63, #347 ) ) ;
#34 = VERTEX_POINT ( 'NONE', #42 ) ;
#35 = CARTESIAN_POINT ( 'NONE',  ( -74.00000000000000000, -6.123233995736762141E-15, 0.000000000000000000 ) ) ;
#36 = EDGE_LOOP ( 'NONE', ( #41, #295, #59, #299 ) ) ;
#37 = EDGE_CURVE ( 'NONE', #316, #262, #157, .T. ) ;
#38 = FACE_OUTER_BOUND ( 'NONE', #207, .T. ) ;
#39 = DIRECTION ( 'NONE',  ( 0.000000000000000000, 1.000000000000000000, 0.000000000000000000 ) ) ;
#40 = CARTESIAN_POINT ( 'NONE',  ( -1.569199225667089950E-16, 6.405716029792356553E-33, 0.000000000000000000 ) ) ;
#41 = ORIENTED_EDGE ( 'NONE', *, *, #135, .T. ) ;
#42 = CARTESIAN_POINT ( 'NONE',  ( -18.00000000000000000, 6.999999999999991118, 0.000000000000000000 ) ) ;
#43 = TOROIDAL_SURFACE ( 'NONE', #56, 6.499999999999990230, 0.5000000000000004441 ) ;
#44 = DIRECTION ( 'NONE',  ( 4.082155997157843818E-17, 1.000000000000000000, 0.000000000000000000 ) ) ;
#45 = LINE ( 'NONE', #266, #212 ) ;
#46 = APPROVAL_DATE_TIME ( #305, #139 ) ;
#47 = CIRCLE ( 'NONE', #96, 6.999999999999996447 ) ;
#48 = AXIS2_PLACEMENT_3D ( 'NONE', #3, #83, #142 ) ;
#49 = PERSON_AND_ORGANIZATION_ROLE ( 'creator' ) ;
#50 = ADVANCED_FACE ( 'NONE', ( #134 ), #336, .T. ) ;
#51 = CC_DESIGN_DATE_AND_TIME_ASSIGNMENT ( #30, #138, ( #141 ) ) ;
#52 = CARTESIAN_POINT ( 'NONE',  ( 0.000000000000000000, 0.000000000000000000, 0.000000000000000000 ) ) ;
#53 = APPROVAL_PERSON_ORGANIZATION ( #228, #26, #253 ) ;
#54 = CARTESIAN_POINT ( 'NONE',  ( -74.00000000000000000, -6.123233995736762141E-15, 0.000000000000000000 ) ) ;
#55 = PERSON_AND_ORGANIZATION_ROLE ( 'design_supplier' ) ;
#56 = AXIS2_PLACEMENT_3D ( 'NONE', #233, #345, #200 ) ;
#57 = CC_DESIGN_PERSON_AND_ORGANIZATION_ASSIGNMENT ( #75, #168, ( #205 ) ) ;
#58 = CARTESIAN_POINT ( 'NONE',  ( -74.99999999999998579, -6.000000000000003553, 7.960204194457791533E-16 ) ) ;
#59 = ORIENTED_EDGE ( 'NONE', *, *, #335, .F. ) ;
#60 = ORIENTED_EDGE ( 'NONE', *, *, #236, .T. ) ;
#61 = DIRECTION ( 'NONE',  ( 4.082155997157843818E-17, 1.000000000000000000, 0.000000000000000000 ) ) ;
#62 = ORIENTED_EDGE ( 'NONE', *, *, #95, .T. ) ;
#63 = ORIENTED_EDGE ( 'NONE', *, *, #304, .T. ) ;
#64 = CONICAL_SURFACE ( 'NONE', #282, 6.999999999999996447, 0.7853981633974543852 ) ;
#65 = CARTESIAN_POINT ( 'NONE',  ( -18.00000000000000000, -6.999999999999992895, 8.572527594031465301E-16 ) ) ;
#66 = ORIENTED_EDGE ( 'NONE', *, *, #288, .F. ) ;
#67 = ORIENTED_EDGE ( 'NONE', *, *, #37, .T. ) ;
#68 = VECTOR ( 'NONE', #217, 1000.000000000000000 ) ;
#69 = CARTESIAN_POINT ( 'NONE',  ( -0.5000000000000004441, 6.999999999999990230, 0.000000000000000000 ) ) ;
#70 = ADVANCED_FACE ( 'NONE', ( #341 ), #355, .T. ) ;
#71 = CARTESIAN_POINT ( 'NONE',  ( -18.00000000000000000, -6.999999999999989342, 8.572527594031463329E-16 ) ) ;
#72 = CYLINDRICAL_SURFACE ( 'NONE', #147, 6.999999999999990230 ) ;
#73 = DIRECTION ( 'NONE',  ( 1.000000000000000000, 1.224646799147352714E-16, -0.000000000000000000 ) ) ;
#74 = CC_DESIGN_DATE_AND_TIME_ASSIGNMENT ( #29, #334, ( #203 ) ) ;
#75 = PERSON_AND_ORGANIZATION ( #8, #290 ) ;
#76 = SHAPE_DEFINITION_REPRESENTATION ( #13, #310 ) ;
#77 = VECTOR ( 'NONE', #255, 1000.000000000000000 ) ;
#78 = APPLICATION_CONTEXT ( 'configuration controlled 3d designs of mechanical parts and assemblies' ) ;
#79 = PERSON_AND_ORGANIZATION ( #8, #290 ) ;
#80 = DATE_AND_TIME ( #337, #218 ) ;
#81 = APPLICATION_CONTEXT ( 'configuration controlled 3d designs of mechanical parts and assemblies' ) ;
#82 = AXIS2_PLACEMENT_3D ( 'NONE', #278, #187, #102 ) ;
#83 = DIRECTION ( 'NONE',  ( 1.000000000000000000, -4.082155997157843818E-17, -0.000000000000000000 ) ) ;
#84 = CC_DESIGN_PERSON_AND_ORGANIZATION_ASSIGNMENT ( #252, #227, ( #141 ) ) ;
#85 = AXIS2_PLACEMENT_3D ( 'NONE', #12, #211, #220 ) ;
#86 = LINE ( 'NONE', #251, #329 ) ;
#87 = CC_DESIGN_PERSON_AND_ORGANIZATION_ASSIGNMENT ( #79, #55, ( #285 ) ) ;
#88 = EDGE_LOOP ( 'NONE', ( #98, #352 ) ) ;
#89 = AXIS2_PLACEMENT_3D ( 'NONE', #182, #243, #39 ) ;
#90 = ORIENTED_EDGE ( 'NONE', *, *, #335, .T. ) ;
#91 = CARTESIAN_POINT ( 'NONE',  ( 1.084202172485504434E-16, 6.499999999999990230, 0.000000000000000000 ) ) ;
#92 = VERTEX_POINT ( 'NONE', #326 ) ;
#93 = AXIS2_PLACEMENT_3D ( 'NONE', #97, #271, #125 ) ;
#94 = ORIENTED_EDGE ( 'NONE', *, *, #124, .T. ) ;
#95 = EDGE_CURVE ( 'NONE', #180, #92, #274, .T. ) ;
#96 = AXIS2_PLACEMENT_3D ( 'NONE', #18, #356, #128 ) ;
#97 = CARTESIAN_POINT ( 'NONE',  ( 0.000000000000000000, 0.000000000000000000, 0.000000000000000000 ) ) ;
#98 = ORIENTED_EDGE ( 'NONE', *, *, #124, .F. ) ;
#99 = AXIS2_PLACEMENT_3D ( 'NONE', #292, #230, #293 ) ;
#100 = CARTESIAN_POINT ( 'NONE',  ( -74.00000000000000000, 6.999999999999990230, 0.000000000000000000 ) ) ;
#101 = DIRECTION ( 'NONE',  ( 1.000000000000000000, -4.082155997157843818E-17, -0.000000000000000000 ) ) ;
#102 = DIRECTION ( 'NONE',  ( 4.082155997157843818E-17, 1.000000000000000000, 0.000000000000000000 ) ) ;
#103 = CC_DESIGN_PERSON_AND_ORGANIZATION_ASSIGNMENT ( #133, #49, ( #285 ) ) ;
#104 = DIRECTION ( 'NONE',  ( 0.000000000000000000, 1.000000000000000000, 0.000000000000000000 ) ) ;
#105 = DIRECTION ( 'NONE',  ( 0.000000000000000000, 1.000000000000000000, 0.000000000000000000 ) ) ;
#106 = DIRECTION ( 'NONE',  ( 1.000000000000000000, 1.224646799147352714E-16, -0.000000000000000000 ) ) ;
#107 = ADVANCED_FACE ( 'NONE', ( #152 ), #72, .T. ) ;
#108 = CARTESIAN_POINT ( 'NONE',  ( -2.857509198010486790E-16, -6.999999999999990230, 8.572527594031461357E-16 ) ) ;
#109 = CC_DESIGN_APPROVAL ( #139, ( #203 ) ) ;
#110 = APPLICATION_PROTOCOL_DEFINITION ( 'international standard', 'config_control_design', 1994, #78 ) ;
#111 = CALENDAR_DATE ( 2022, 31, 5 ) ;
#112 = CARTESIAN_POINT ( 'NONE',  ( -18.00000000000000000, 7.347880794884118750E-16, 0.000000000000000000 ) ) ;
#113 = DIRECTION ( 'NONE',  ( 1.000000000000000000, -4.082155997157843818E-17, -0.000000000000000000 ) ) ;
#114 = AXIS2_PLACEMENT_3D ( 'NONE', #52, #331, #333 ) ;
#115 = APPROVAL ( #28, 'UNSPECIFIED' ) ;
#116 = CIRCLE ( 'NONE', #322, 6.999999999999990230 ) ;
#117 = FACE_OUTER_BOUND ( 'NONE', #36, .T. ) ;
#118 = DIRECTION ( 'NONE',  ( 1.000000000000000000, -4.082155997157843818E-17, -0.000000000000000000 ) ) ;
#119 = ORIENTED_EDGE ( 'NONE', *, *, #37, .F. ) ;
#120 = AXIS2_PLACEMENT_3D ( 'NONE', #188, #151, #154 ) ;
#121 = ORIENTED_EDGE ( 'NONE', *, *, #311, .T. ) ;
#122 = ORIENTED_EDGE ( 'NONE', *, *, #315, .T. ) ;
#123 = ORIENTED_EDGE ( 'NONE', *, *, #135, .F. ) ;
#124 = EDGE_CURVE ( 'NONE', #316, #209, #224, .T. ) ;
#125 = DIRECTION ( 'NONE',  ( 4.082155997157843818E-17, 1.000000000000000000, 0.000000000000000000 ) ) ;
#126 = ORIENTED_EDGE ( 'NONE', *, *, #170, .T. ) ;
#127 = ORIENTED_EDGE ( 'NONE', *, *, #306, .F. ) ;
#128 = DIRECTION ( 'NONE',  ( 0.000000000000000000, 1.000000000000000000, 0.000000000000000000 ) ) ;
#129 = CARTESIAN_POINT ( 'NONE',  ( -18.00000000000000000, 7.347880794884118750E-16, 0.000000000000000000 ) ) ;
#130 = DIRECTION ( 'NONE',  ( -1.224646799147352714E-16, 1.000000000000000000, 0.000000000000000000 ) ) ;
#131 = DIRECTION ( 'NONE',  ( 0.000000000000000000, 1.000000000000000000, 0.000000000000000000 ) ) ;
#132 = PERSON_AND_ORGANIZATION ( #8, #290 ) ;
#133 = PERSON_AND_ORGANIZATION ( #8, #290 ) ;
#134 = FACE_OUTER_BOUND ( 'NONE', #242, .T. ) ;
#135 = EDGE_CURVE ( 'NONE', #262, #264, #339, .T. ) ;
#136 = APPROVAL_STATUS ( 'not_yet_approved' ) ;
#137 = DIRECTION ( 'NONE',  ( 1.000000000000000000, 1.224646799147352714E-16, -0.000000000000000000 ) ) ;
#138 = DATE_TIME_ROLE ( 'classification_date' ) ;
#139 = APPROVAL ( #193, 'UNSPECIFIED' ) ;
#140 = DIRECTION ( 'NONE',  ( 1.000000000000000000, 1.224646799147352714E-16, -0.000000000000000000 ) ) ;
#141 = SECURITY_CLASSIFICATION ( '', '', #361 ) ;
#142 = DIRECTION ( 'NONE',  ( 4.646580739223597035E-17, 1.000000000000000000, 0.000000000000000000 ) ) ;
#143 = ORIENTED_EDGE ( 'NONE', *, *, #95, .F. ) ;
#144 = EDGE_CURVE ( 'NONE', #263, #181, #202, .T. ) ;
#145 = EDGE_LOOP ( 'NONE', ( #275, #319, #127, #321 ) ) ;
#146 = DIRECTION ( 'NONE',  ( -1.000000000000000000, -1.224646799147352714E-16, 0.000000000000000000 ) ) ;
#147 = AXIS2_PLACEMENT_3D ( 'NONE', #270, #101, #186 ) ;
#148 = ORIENTED_EDGE ( 'NONE', *, *, #311, .F. ) ;
#149 = DIRECTION ( 'NONE',  ( 1.000000000000000000, 1.224646799147352714E-16, -0.000000000000000000 ) ) ;
#150 = ORIENTED_EDGE ( 'NONE', *, *, #201, .F. ) ;
#151 = DIRECTION ( 'NONE',  ( 0.000000000000000000, 0.000000000000000000, -1.000000000000000000 ) ) ;
#152 = FACE_OUTER_BOUND ( 'NONE', #261, .T. ) ;
#153 =( NAMED_UNIT ( * ) SI_UNIT ( $, .STERADIAN. ) SOLID_ANGLE_UNIT ( ) );
#154 = DIRECTION ( 'NONE',  ( -1.000000000000000000, 0.000000000000000000, 0.000000000000000000 ) ) ;
#155 = CC_DESIGN_PERSON_AND_ORGANIZATION_ASSIGNMENT ( #132, #163, ( #203 ) ) ;
#156 = CARTESIAN_POINT ( 'NONE',  ( -18.00000000000000000, 7.347880794884119736E-16, 0.000000000000000000 ) ) ;
#157 = LINE ( 'NONE', #348, #77 ) ;
#158 = AXIS2_PLACEMENT_3D ( 'NONE', #260, #118, #234 ) ;
#159 = FACE_OUTER_BOUND ( 'NONE', #354, .T. ) ;
#160 = LOCAL_TIME ( 16, 9, 7.000000000000000000, #194 ) ;
#161 = DIRECTION ( 'NONE',  ( 0.000000000000000000, -1.000000000000000000, 1.224646799147353454E-16 ) ) ;
#162 = DIRECTION ( 'NONE',  ( 0.7071067811865434649, -0.7071067811865516806, 8.659560562354987092E-17 ) ) ;
#163 = PERSON_AND_ORGANIZATION_ROLE ( 'creator' ) ;
#164 = CIRCLE ( 'NONE', #199, 5.999999999999997335 ) ;
#165 = ADVANCED_FACE ( 'NONE', ( #259 ), #64, .T. ) ;
#166 = AXIS2_PLACEMENT_3D ( 'NONE', #27, #332, #131 ) ;
#167 = AXIS2_PLACEMENT_3D ( 'NONE', #325, #146, #268 ) ;
#168 = PERSON_AND_ORGANIZATION_ROLE ( 'design_owner' ) ;
#169 = APPROVAL_ROLE ( '' ) ;
#170 = EDGE_CURVE ( 'NONE', #209, #316, #231, .T. ) ;
#171 = APPROVAL_DATE_TIME ( #80, #26 ) ;
#172 = DIRECTION ( 'NONE',  ( 0.000000000000000000, 1.000000000000000000, 0.000000000000000000 ) ) ;
#173 = AXIS2_PLACEMENT_3D ( 'NONE', #129, #10, #302 ) ;
#174 = ORIENTED_EDGE ( 'NONE', *, *, #196, .F. ) ;
#175 = ADVANCED_FACE ( 'NONE', ( #117 ), #43, .T. ) ;
#176 = ORIENTED_EDGE ( 'NONE', *, *, #222, .T. ) ;
#177 = ORIENTED_EDGE ( 'NONE', *, *, #144, .T. ) ;
#178 = CYLINDRICAL_SURFACE ( 'NONE', #93, 6.999999999999990230 ) ;
#179 = AXIS2_PLACEMENT_3D ( 'NONE', #54, #137, #198 ) ;
#180 = VERTEX_POINT ( 'NONE', #58 ) ;
#181 = VERTEX_POINT ( 'NONE', #291 ) ;
#182 = CARTESIAN_POINT ( 'NONE',  ( -74.99999999999998579, -6.245698675651496500E-15, 0.000000000000000000 ) ) ;
#183 = FACE_OUTER_BOUND ( 'NONE', #239, .T. ) ;
#184 = CC_DESIGN_APPROVAL ( #26, ( #141 ) ) ;
#185 = ORIENTED_EDGE ( 'NONE', *, *, #16, .T. ) ;
#186 = DIRECTION ( 'NONE',  ( 4.082155997157843818E-17, 1.000000000000000000, 0.000000000000000000 ) ) ;
#187 = DIRECTION ( 'NONE',  ( 1.000000000000000000, -4.082155997157843818E-17, -0.000000000000000000 ) ) ;
#188 = CARTESIAN_POINT ( 'NONE',  ( -0.5000000000000004441, 6.499999999999990230, 0.000000000000000000 ) ) ;
#189 = CARTESIAN_POINT ( 'NONE',  ( -18.00000000000000000, 7.347880794884118750E-16, 0.000000000000000000 ) ) ;
#190 = DIRECTION ( 'NONE',  ( 4.999199275539525359E-33, 1.224646799147353207E-16, 1.000000000000000000 ) ) ;
#191 = VECTOR ( 'NONE', #216, 1000.000000000000000 ) ;
#192 = APPLICATION_PROTOCOL_DEFINITION ( 'international standard', 'config_control_design', 1994, #81 ) ;
#193 = APPROVAL_STATUS ( 'not_yet_approved' ) ;
#194 = COORDINATED_UNIVERSAL_TIME_OFFSET ( 1, 0, .AHEAD. ) ;
#195 = APPROVAL_DATE_TIME ( #308, #115 ) ;
#196 = EDGE_CURVE ( 'NONE', #264, #262, #116, .T. ) ;
#197 = APPROVAL_ROLE ( '' ) ;
#198 = DIRECTION ( 'NONE',  ( 0.000000000000000000, 1.000000000000000000, 0.000000000000000000 ) ) ;
#199 = AXIS2_PLACEMENT_3D ( 'NONE', #357, #22, #221 ) ;
#200 = DIRECTION ( 'NONE',  ( 4.082155997157843818E-17, 1.000000000000000000, 0.000000000000000000 ) ) ;
#201 = EDGE_CURVE ( 'NONE', #180, #263, #86, .T. ) ;
#202 = CIRCLE ( 'NONE', #179, 6.999999999999996447 ) ;
#203 = PRODUCT_DEFINITION ( 'UNKNOWN', '', #285, #349 ) ;
#204 = PLANE ( 'NONE',  #158 ) ;
#205 = PRODUCT ( '387472387482', '387472387482', '', ( #309 ) ) ;
#206 = ORIENTED_EDGE ( 'NONE', *, *, #306, .T. ) ;
#207 = EDGE_LOOP ( 'NONE', ( #267, #143 ) ) ;
#208 = UNCERTAINTY_MEASURE_WITH_UNIT (LENGTH_MEASURE( 1.000000000000000082E-05 ), #223, 'distance_accuracy_value', 'NONE');
#209 = VERTEX_POINT ( 'NONE', #279 ) ;
#210 = ORIENTED_EDGE ( 'NONE', *, *, #273, .F. ) ;
#211 = DIRECTION ( 'NONE',  ( -1.000000000000000000, 4.082155997157843818E-17, 0.000000000000000000 ) ) ;
#212 = VECTOR ( 'NONE', #351, 1000.000000000000000 ) ;
#213 = FACE_OUTER_BOUND ( 'NONE', #235, .T. ) ;
#214 = EDGE_LOOP ( 'NONE', ( #219, #176 ) ) ;
#215 = CIRCLE ( 'NONE', #120, 0.5000000000000004441 ) ;
#216 = DIRECTION ( 'NONE',  ( 0.7071067811865431318, 0.7071067811865519026, 0.000000000000000000 ) ) ;
#217 = DIRECTION ( 'NONE',  ( 1.000000000000000000, 1.224646799147352714E-16, -0.000000000000000000 ) ) ;
#218 = LOCAL_TIME ( 16, 9, 7.000000000000000000, #362 ) ;
#219 = ORIENTED_EDGE ( 'NONE', *, *, #288, .T. ) ;
#220 = DIRECTION ( 'NONE',  ( -4.082155997157843818E-17, -1.000000000000000000, 0.000000000000000000 ) ) ;
#221 = DIRECTION ( 'NONE',  ( 0.000000000000000000, 1.000000000000000000, 0.000000000000000000 ) ) ;
#222 = EDGE_CURVE ( 'NONE', #11, #34, #254, .T. ) ;
#223 =( LENGTH_UNIT ( ) NAMED_UNIT ( * ) SI_UNIT ( .MILLI., .METRE. ) );
#224 = CIRCLE ( 'NONE', #365, 6.999999999999990230 ) ;
#225 = APPROVAL_PERSON_ORGANIZATION ( #281, #115, #197 ) ;
#226 = COORDINATED_UNIVERSAL_TIME_OFFSET ( 1, 0, .AHEAD. ) ;
#227 = PERSON_AND_ORGANIZATION_ROLE ( 'classification_officer' ) ;
#228 = PERSON_AND_ORGANIZATION ( #8, #290 ) ;
#229 =( GEOMETRIC_REPRESENTATION_CONTEXT ( 3 ) GLOBAL_UNCERTAINTY_ASSIGNED_CONTEXT ( ( #208 ) ) GLOBAL_UNIT_ASSIGNED_CONTEXT ( ( #223, #330, #153 ) ) REPRESENTATION_CONTEXT ( 'NONE', 'WORKASPACE' ) );
#230 = DIRECTION ( 'NONE',  ( 1.000000000000000000, -4.082155997157843818E-17, -0.000000000000000000 ) ) ;
#231 = CIRCLE ( 'NONE', #99, 6.999999999999990230 ) ;
#232 = DIRECTION ( 'NONE',  ( 4.646580739223597035E-17, 1.000000000000000000, 0.000000000000000000 ) ) ;
#233 = CARTESIAN_POINT ( 'NONE',  ( -0.5000000000000006661, 0.000000000000000000, 0.000000000000000000 ) ) ;
#234 = DIRECTION ( 'NONE',  ( 4.082155997157843818E-17, 1.000000000000000000, 0.000000000000000000 ) ) ;
#235 = EDGE_LOOP ( 'NONE', ( #210, #350, #185, #148 ) ) ;
#236 = EDGE_CURVE ( 'NONE', #209, #264, #249, .T. ) ;
#237 = PLANE ( 'NONE',  #167 ) ;
#238 = ORIENTED_EDGE ( 'NONE', *, *, #245, .T. ) ;
#239 = EDGE_LOOP ( 'NONE', ( #90, #121 ) ) ;
#240 = CARTESIAN_POINT ( 'NONE',  ( -0.5000000000000008882, -6.499999999999990230, 7.960204194457783644E-16 ) ) ;
#241 = VERTEX_POINT ( 'NONE', #24 ) ;
#242 = EDGE_LOOP ( 'NONE', ( #206, #122, #66, #318 ) ) ;
#243 = DIRECTION ( 'NONE',  ( 1.000000000000000000, 1.224646799147352714E-16, -0.000000000000000000 ) ) ;
#244 = CARTESIAN_POINT ( 'NONE',  ( -0.5000000000000011102, -6.999999999999990230, 8.572527594031461357E-16 ) ) ;
#245 = EDGE_CURVE ( 'NONE', #92, #181, #20, .T. ) ;
#246 = FACE_OUTER_BOUND ( 'NONE', #214, .T. ) ;
#247 = ADVANCED_FACE ( 'NONE', ( #183 ), #204, .T. ) ;
#248 = DIRECTION ( 'NONE',  ( 0.000000000000000000, 1.000000000000000000, 0.000000000000000000 ) ) ;
#249 = LINE ( 'NONE', #108, #5 ) ;
#250 = CALENDAR_DATE ( 2022, 31, 5 ) ;
#251 = CARTESIAN_POINT ( 'NONE',  ( -74.00000000000000000, -7.000000000000002665, 8.572527594031468259E-16 ) ) ;
#252 = PERSON_AND_ORGANIZATION ( #8, #290 ) ;
#253 = APPROVAL_ROLE ( '' ) ;
#254 = CIRCLE ( 'NONE', #166, 6.999999999999990230 ) ;
#255 = DIRECTION ( 'NONE',  ( 1.000000000000000000, -4.082155997157843818E-17, -0.000000000000000000 ) ) ;
#256 = CARTESIAN_POINT ( 'NONE',  ( -74.00000000000000000, -6.123233995736762141E-15, 0.000000000000000000 ) ) ;
#257 = DIRECTION ( 'NONE',  ( 1.000000000000000000, -4.082155997157843818E-17, -0.000000000000000000 ) ) ;
#258 = AXIS2_PLACEMENT_3D ( 'NONE', #156, #106, #248 ) ;
#259 = FACE_OUTER_BOUND ( 'NONE', #15, .T. ) ;
#260 = CARTESIAN_POINT ( 'NONE',  ( 1.868801785319049409E-16, 6.499999999999990230, 0.000000000000000000 ) ) ;
#261 = EDGE_LOOP ( 'NONE', ( #317, #126, #67, #174 ) ) ;
#262 = VERTEX_POINT ( 'NONE', #69 ) ;
#263 = VERTEX_POINT ( 'NONE', #359 ) ;
#264 = VERTEX_POINT ( 'NONE', #244 ) ;
#265 = LOCAL_TIME ( 16, 9, 7.000000000000000000, #284 ) ;
#266 = CARTESIAN_POINT ( 'NONE',  ( -18.00000000000000000, 6.999999999999994671, 0.000000000000000000 ) ) ;
#267 = ORIENTED_EDGE ( 'NONE', *, *, #283, .F. ) ;
#268 = DIRECTION ( 'NONE',  ( 1.224646799147352714E-16, -1.000000000000000000, 0.000000000000000000 ) ) ;
#269 = MANIFOLD_SOLID_BREP ( 'Révolution1', #323 ) ;
#270 = CARTESIAN_POINT ( 'NONE',  ( 0.000000000000000000, 0.000000000000000000, 0.000000000000000000 ) ) ;
#271 = DIRECTION ( 'NONE',  ( 1.000000000000000000, -4.082155997157843818E-17, -0.000000000000000000 ) ) ;
#272 = FACE_OUTER_BOUND ( 'NONE', #33, .T. ) ;
#273 = EDGE_CURVE ( 'NONE', #264, #241, #280, .T. ) ;
#274 = CIRCLE ( 'NONE', #89, 5.999999999999997335 ) ;
#275 = ORIENTED_EDGE ( 'NONE', *, *, #283, .T. ) ;
#276 = DIRECTION ( 'NONE',  ( 1.000000000000000000, -4.082155997157843818E-17, -0.000000000000000000 ) ) ;
#277 = ADVANCED_FACE ( 'NONE', ( #303 ), #338, .T. ) ;
#278 = CARTESIAN_POINT ( 'NONE',  ( -1.569199225667089950E-16, 6.405716029792356553E-33, 0.000000000000000000 ) ) ;
#279 = CARTESIAN_POINT ( 'NONE',  ( -18.00000000000000000, -6.999999999999989342, 8.572527594031461357E-16 ) ) ;
#280 = CIRCLE ( 'NONE', #320, 0.5000000000000004441 ) ;
#281 = PERSON_AND_ORGANIZATION ( #8, #290 ) ;
#282 = AXIS2_PLACEMENT_3D ( 'NONE', #256, #312, #1 ) ;
#283 = EDGE_CURVE ( 'NONE', #92, #180, #164, .T. ) ;
#284 = COORDINATED_UNIVERSAL_TIME_OFFSET ( 1, 0, .AHEAD. ) ;
#285 = PRODUCT_DEFINITION_FORMATION_WITH_SPECIFIED_SOURCE ( 'ANY', '', #205, .NOT_KNOWN. ) ;
#286 = MANIFOLD_SOLID_BREP ( 'Révolution2', #340 ) ;
#287 = COORDINATED_UNIVERSAL_TIME_OFFSET ( 1, 0, .AHEAD. ) ;
#288 = EDGE_CURVE ( 'NONE', #34, #11, #4, .T. ) ;
#289 = CALENDAR_DATE ( 2022, 31, 5 ) ;
#290 = ORGANIZATION ( 'UNSPECIFIED', 'UNSPECIFIED', '' ) ;
#291 = CARTESIAN_POINT ( 'NONE',  ( -74.00000000000000000, 6.999999999999989342, 0.000000000000000000 ) ) ;
#292 = CARTESIAN_POINT ( 'NONE',  ( -18.00000000000000000, 7.347880794884118750E-16, 0.000000000000000000 ) ) ;
#293 = DIRECTION ( 'NONE',  ( 0.000000000000000000, 1.000000000000000000, 0.000000000000000000 ) ) ;
#294 = AXIS2_PLACEMENT_3D ( 'NONE', #40, #14, #44 ) ;
#295 = ORIENTED_EDGE ( 'NONE', *, *, #273, .T. ) ;
#296 = ORIENTED_EDGE ( 'NONE', *, *, #144, .F. ) ;
#297 = TOROIDAL_SURFACE ( 'NONE', #358, 6.499999999999990230, 0.5000000000000004441 ) ;
#298 = PLANE ( 'NONE',  #344 ) ;
#299 = ORIENTED_EDGE ( 'NONE', *, *, #16, .F. ) ;
#300 = PRODUCT_RELATED_PRODUCT_CATEGORY ( 'detail', '', ( #205 ) ) ;
#301 = CIRCLE ( 'NONE', #294, 6.499999999999990230 ) ;
#302 = DIRECTION ( 'NONE',  ( 0.000000000000000000, 1.000000000000000000, 0.000000000000000000 ) ) ;
#303 = FACE_OUTER_BOUND ( 'NONE', #145, .T. ) ;
#304 = EDGE_CURVE ( 'NONE', #181, #34, #45, .T. ) ;
#305 = DATE_AND_TIME ( #307, #265 ) ;
#306 = EDGE_CURVE ( 'NONE', #181, #263, #47, .T. ) ;
#307 = CALENDAR_DATE ( 2022, 31, 5 ) ;
#308 = DATE_AND_TIME ( #250, #313 ) ;
#309 = MECHANICAL_CONTEXT ( 'NONE', #81, 'mechanical' ) ;
#310 = ADVANCED_BREP_SHAPE_REPRESENTATION ( '387472387482', ( #269, #286, #114 ), #229 ) ;
#311 = EDGE_CURVE ( 'NONE', #241, #9, #32, .T. ) ;
#312 = DIRECTION ( 'NONE',  ( 1.000000000000000000, 1.224646799147352714E-16, -0.000000000000000000 ) ) ;
#313 = LOCAL_TIME ( 16, 9, 7.000000000000000000, #226 ) ;
#314 = ADVANCED_FACE ( 'NONE', ( #213 ), #297, .T. ) ;
#315 = EDGE_CURVE ( 'NONE', #263, #11, #25, .T. ) ;
#316 = VERTEX_POINT ( 'NONE', #360 ) ;
#317 = ORIENTED_EDGE ( 'NONE', *, *, #236, .F. ) ;
#318 = ORIENTED_EDGE ( 'NONE', *, *, #304, .F. ) ;
#319 = ORIENTED_EDGE ( 'NONE', *, *, #201, .T. ) ;
#320 = AXIS2_PLACEMENT_3D ( 'NONE', #240, #190, #161 ) ;
#321 = ORIENTED_EDGE ( 'NONE', *, *, #245, .F. ) ;
#322 = AXIS2_PLACEMENT_3D ( 'NONE', #31, #257, #232 ) ;
#323 = CLOSED_SHELL ( 'NONE', ( #50, #277, #7, #165, #17, #342 ) ) ;
#324 = LOCAL_TIME ( 16, 9, 7.000000000000000000, #287 ) ;
#325 = CARTESIAN_POINT ( 'NONE',  ( -74.99999999999998579, -6.245698675651496500E-15, 0.000000000000000000 ) ) ;
#326 = CARTESIAN_POINT ( 'NONE',  ( -74.99999999999998579, 5.999999999999991118, 0.000000000000000000 ) ) ;
#327 = CARTESIAN_POINT ( 'NONE',  ( -18.00000000000000000, 7.347880794884119736E-16, 0.000000000000000000 ) ) ;
#328 = DIRECTION ( 'NONE',  ( 1.000000000000000000, -4.082155997157843818E-17, -0.000000000000000000 ) ) ;
#329 = VECTOR ( 'NONE', #162, 999.9999999999998863 ) ;
#330 =( NAMED_UNIT ( * ) PLANE_ANGLE_UNIT ( ) SI_UNIT ( $, .RADIAN. ) );
#331 = DIRECTION ( 'NONE',  ( 0.000000000000000000, 0.000000000000000000, 1.000000000000000000 ) ) ;
#332 = DIRECTION ( 'NONE',  ( 1.000000000000000000, 1.224646799147352714E-16, -0.000000000000000000 ) ) ;
#333 = DIRECTION ( 'NONE',  ( 1.000000000000000000, 0.000000000000000000, 0.000000000000000000 ) ) ;
#334 = DATE_TIME_ROLE ( 'creation_date' ) ;
#335 = EDGE_CURVE ( 'NONE', #9, #241, #301, .T. ) ;
#336 = CYLINDRICAL_SURFACE ( 'NONE', #21, 6.999999999999993783 ) ;
#337 = CALENDAR_DATE ( 2022, 31, 5 ) ;
#338 = CONICAL_SURFACE ( 'NONE', #353, 6.999999999999996447, 0.7853981633974543852 ) ;
#339 = CIRCLE ( 'NONE', #48, 6.999999999999990230 ) ;
#340 = CLOSED_SHELL ( 'NONE', ( #364, #175, #314, #107, #70, #247 ) ) ;
#341 = FACE_OUTER_BOUND ( 'NONE', #88, .T. ) ;
#342 = ADVANCED_FACE ( 'NONE', ( #246 ), #298, .T. ) ;
#343 = CC_DESIGN_APPROVAL ( #115, ( #285 ) ) ;
#344 = AXIS2_PLACEMENT_3D ( 'NONE', #327, #73, #130 ) ;
#345 = DIRECTION ( 'NONE',  ( 1.000000000000000000, -4.082155997157843818E-17, -0.000000000000000000 ) ) ;
#346 = ORIENTED_EDGE ( 'NONE', *, *, #315, .F. ) ;
#347 = ORIENTED_EDGE ( 'NONE', *, *, #222, .F. ) ;
#348 = CARTESIAN_POINT ( 'NONE',  ( 2.857509198010486790E-16, 6.999999999999990230, 0.000000000000000000 ) ) ;
#349 = DESIGN_CONTEXT ( 'detailed design', #78, 'design' ) ;
#350 = ORIENTED_EDGE ( 'NONE', *, *, #196, .T. ) ;
#351 = DIRECTION ( 'NONE',  ( 1.000000000000000000, 1.224646799147352714E-16, -0.000000000000000000 ) ) ;
#352 = ORIENTED_EDGE ( 'NONE', *, *, #170, .F. ) ;
#353 = AXIS2_PLACEMENT_3D ( 'NONE', #35, #149, #104 ) ;
#354 = EDGE_LOOP ( 'NONE', ( #94, #60, #123, #119 ) ) ;
#355 = PLANE ( 'NONE',  #85 ) ;
#356 = DIRECTION ( 'NONE',  ( 1.000000000000000000, 1.224646799147352714E-16, -0.000000000000000000 ) ) ;
#357 = CARTESIAN_POINT ( 'NONE',  ( -74.99999999999998579, -6.245698675651496500E-15, 0.000000000000000000 ) ) ;
#358 = AXIS2_PLACEMENT_3D ( 'NONE', #23, #276, #61 ) ;
#359 = CARTESIAN_POINT ( 'NONE',  ( -74.00000000000000000, -7.000000000000003553, 8.572527594031469245E-16 ) ) ;
#360 = CARTESIAN_POINT ( 'NONE',  ( -18.00000000000000000, 6.999999999999991118, 0.000000000000000000 ) ) ;
#361 = SECURITY_CLASSIFICATION_LEVEL ( 'unclassified' ) ;
#362 = COORDINATED_UNIVERSAL_TIME_OFFSET ( 1, 0, .AHEAD. ) ;
#363 = PERSON_AND_ORGANIZATION ( #8, #290 ) ;
#364 = ADVANCED_FACE ( 'NONE', ( #159 ), #178, .T. ) ;
#365 = AXIS2_PLACEMENT_3D ( 'NONE', #189, #113, #172 ) ;
ENDSEC;
END-ISO-10303-21;
