ISO-10303-21;
HEADER;
FILE_DESCRIPTION (( 'STEP AP203' ),
    '1' );
FILE_NAME ('387472387481.step',
    '2022-05-31T14:09:06',
    ( '' ),
    ( '' ),
    'SwSTEP 2.0',
    'SolidWorks 2019',
    '' );
FILE_SCHEMA (( 'CONFIG_CONTROL_DESIGN' ));
ENDSEC;

DATA;
#1 = AXIS2_PLACEMENT_3D ( 'NONE', #212, #163, #276 ) ;
#2 = ORIENTED_EDGE ( 'NONE', *, *, #124, .T. ) ;
#3 = PRODUCT_RELATED_PRODUCT_CATEGORY ( 'detail', '', ( #243 ) ) ;
#4 = CALENDAR_DATE ( 2022, 31, 5 ) ;
#5 = EDGE_LOOP ( 'NONE', ( #339, #29 ) ) ;
#6 = CC_DESIGN_PERSON_AND_ORGANIZATION_ASSIGNMENT ( #60, #343, ( #243 ) ) ;
#7 = AXIS2_PLACEMENT_3D ( 'NONE', #181, #197, #37 ) ;
#8 = ORIENTED_EDGE ( 'NONE', *, *, #111, .F. ) ;
#9 = PRODUCT_DEFINITION_FORMATION_WITH_SPECIFIED_SOURCE ( 'ANY', '', #243, .NOT_KNOWN. ) ;
#10 = DIRECTION ( 'NONE',  ( -1.000000000000000000, -1.224646799147353207E-16, 0.000000000000000000 ) ) ;
#11 = EDGE_CURVE ( 'NONE', #122, #260, #350, .T. ) ;
#12 = ORIENTED_EDGE ( 'NONE', *, *, #248, .T. ) ;
#13 = LINE ( 'NONE', #267, #219 ) ;
#14 = ORGANIZATION ( 'UNSPECIFIED', 'UNSPECIFIED', '' ) ;
#15 = EDGE_CURVE ( 'NONE', #28, #234, #77, .T. ) ;
#16 = ORIENTED_EDGE ( 'NONE', *, *, #70, .F. ) ;
#17 = DIRECTION ( 'NONE',  ( 1.000000000000000000, 1.224646799147353207E-16, -0.000000000000000000 ) ) ;
#18 = DIRECTION ( 'NONE',  ( 0.000000000000000000, 1.000000000000000000, 0.000000000000000000 ) ) ;
#19 = EDGE_CURVE ( 'NONE', #146, #169, #50, .T. ) ;
#20 = DIRECTION ( 'NONE',  ( -0.000000000000000000, 0.000000000000000000, -1.000000000000000000 ) ) ;
#21 = CARTESIAN_POINT ( 'NONE',  ( -2.000000000000000000, 5.999999999999991118, 0.000000000000000000 ) ) ;
#22 = DIRECTION ( 'NONE',  ( 1.000000000000000000, 1.530808498934191509E-17, -0.000000000000000000 ) ) ;
#23 = CC_DESIGN_PERSON_AND_ORGANIZATION_ASSIGNMENT ( #196, #363, ( #9 ) ) ;
#24 =( NAMED_UNIT ( * ) PLANE_ANGLE_UNIT ( ) SI_UNIT ( $, .RADIAN. ) );
#25 = DIRECTION ( 'NONE',  ( 0.000000000000000000, 1.000000000000000000, 0.000000000000000000 ) ) ;
#26 = TOROIDAL_SURFACE ( 'NONE', #349, 3.999999999999991562, 2.000000000000000000 ) ;
#27 = ADVANCED_FACE ( 'NONE', ( #98 ), #41, .T. ) ;
#28 = VERTEX_POINT ( 'NONE', #205 ) ;
#29 = ORIENTED_EDGE ( 'NONE', *, *, #15, .F. ) ;
#30 = PERSON_AND_ORGANIZATION_ROLE ( 'creator' ) ;
#31 = ORIENTED_EDGE ( 'NONE', *, *, #108, .T. ) ;
#32 = APPLICATION_PROTOCOL_DEFINITION ( 'international standard', 'config_control_design', 1994, #133 ) ;
#33 = CIRCLE ( 'NONE', #200, 4.999999999999999112 ) ;
#34 = PERSON_AND_ORGANIZATION_ROLE ( 'design_supplier' ) ;
#35 = ORIENTED_EDGE ( 'NONE', *, *, #248, .F. ) ;
#36 = CC_DESIGN_DATE_AND_TIME_ASSIGNMENT ( #312, #59, ( #81 ) ) ;
#37 = DIRECTION ( 'NONE',  ( -1.530808498934191509E-17, 1.000000000000000000, 0.000000000000000000 ) ) ;
#38 = COORDINATED_UNIVERSAL_TIME_OFFSET ( 1, 0, .AHEAD. ) ;
#39 = CONICAL_SURFACE ( 'NONE', #324, 5.999999999999999112, 0.7853981633974479459 ) ;
#40 = CIRCLE ( 'NONE', #148, 3.999999999999991562 ) ;
#41 = PLANE ( 'NONE',  #284 ) ;
#42 = FACE_OUTER_BOUND ( 'NONE', #173, .T. ) ;
#43 = CARTESIAN_POINT ( 'NONE',  ( -16.00000000000000000, -2.449293598294705428E-16, 0.000000000000000000 ) ) ;
#44 = DIRECTION ( 'NONE',  ( 0.000000000000000000, 1.000000000000000000, 0.000000000000000000 ) ) ;
#45 = ORIENTED_EDGE ( 'NONE', *, *, #111, .T. ) ;
#46 = DIRECTION ( 'NONE',  ( 1.224646799147353207E-16, -1.000000000000000000, 0.000000000000000000 ) ) ;
#47 = AXIS2_PLACEMENT_3D ( 'NONE', #184, #271, #278 ) ;
#48 = DIRECTION ( 'NONE',  ( 1.000000000000000000, 1.530808498934191509E-17, -0.000000000000000000 ) ) ;
#49 = DIRECTION ( 'NONE',  ( -1.530808498934191509E-17, 1.000000000000000000, 0.000000000000000000 ) ) ;
#50 = CIRCLE ( 'NONE', #103, 2.000000000000000000 ) ;
#51 = DIRECTION ( 'NONE',  ( 1.000000000000000000, 1.224646799147353207E-16, -0.000000000000000000 ) ) ;
#52 = DIRECTION ( 'NONE',  ( -1.530808498934191509E-17, 1.000000000000000000, 0.000000000000000000 ) ) ;
#53 = CARTESIAN_POINT ( 'NONE',  ( -2.000000000000000000, -5.999999999999991118, 7.347880794884108889E-16 ) ) ;
#54 = AXIS2_PLACEMENT_3D ( 'NONE', #110, #104, #18 ) ;
#55 = DIRECTION ( 'NONE',  ( 1.000000000000000000, 1.530808498934191509E-17, -0.000000000000000000 ) ) ;
#56 = LOCAL_TIME ( 16, 9, 6.000000000000000000, #294 ) ;
#57 = ORIENTED_EDGE ( 'NONE', *, *, #128, .T. ) ;
#58 = APPROVAL_ROLE ( '' ) ;
#59 = DATE_TIME_ROLE ( 'classification_date' ) ;
#60 = PERSON_AND_ORGANIZATION ( #221, #14 ) ;
#61 = ADVANCED_FACE ( 'NONE', ( #344 ), #322, .T. ) ;
#62 = DIRECTION ( 'NONE',  ( -1.874699728327322010E-33, 1.224646799147353207E-16, 1.000000000000000000 ) ) ;
#63 = SHAPE_DEFINITION_REPRESENTATION ( #272, #263 ) ;
#64 = AXIS2_PLACEMENT_3D ( 'NONE', #247, #187, #354 ) ;
#65 = DIRECTION ( 'NONE',  ( 1.000000000000000000, 1.224646799147353207E-16, -0.000000000000000000 ) ) ;
#66 = EDGE_CURVE ( 'NONE', #28, #192, #13, .T. ) ;
#67 = CARTESIAN_POINT ( 'NONE',  ( -72.99999999999998579, -7.225416114969381630E-15, 0.000000000000000000 ) ) ;
#68 = APPROVAL_ROLE ( '' ) ;
#69 = DIRECTION ( 'NONE',  ( 0.000000000000000000, 1.000000000000000000, 0.000000000000000000 ) ) ;
#70 = EDGE_CURVE ( 'NONE', #287, #317, #147, .T. ) ;
#71 = EDGE_LOOP ( 'NONE', ( #31, #296, #8, #16 ) ) ;
#72 = CIRCLE ( 'NONE', #314, 5.999999999999992006 ) ;
#73 = CARTESIAN_POINT ( 'NONE',  ( -72.99999999999998579, -7.225416114969381630E-15, 0.000000000000000000 ) ) ;
#74 = DIRECTION ( 'NONE',  ( 1.000000000000000000, 1.530808498934191509E-17, -0.000000000000000000 ) ) ;
#75 = DIRECTION ( 'NONE',  ( 1.000000000000000000, 1.530808498934191509E-17, -0.000000000000000000 ) ) ;
#76 = LINE ( 'NONE', #100, #319 ) ;
#77 = CIRCLE ( 'NONE', #235, 4.999999999999999112 ) ;
#78 = CARTESIAN_POINT ( 'NONE',  ( -16.00000000000000000, 5.999999999999992006, 0.000000000000000000 ) ) ;
#79 = CARTESIAN_POINT ( 'NONE',  ( -3.724485290368342488E-16, -5.701473736651239004E-33, 0.000000000000000000 ) ) ;
#80 = ORIENTED_EDGE ( 'NONE', *, *, #195, .F. ) ;
#81 = SECURITY_CLASSIFICATION ( '', '', #115 ) ;
#82 = ORIENTED_EDGE ( 'NONE', *, *, #66, .T. ) ;
#83 = CALENDAR_DATE ( 2022, 31, 5 ) ;
#84 = ORIENTED_EDGE ( 'NONE', *, *, #282, .T. ) ;
#85 = ADVANCED_FACE ( 'NONE', ( #299 ), #125, .T. ) ;
#86 = MECHANICAL_CONTEXT ( 'NONE', #133, 'mechanical' ) ;
#87 = ORIENTED_EDGE ( 'NONE', *, *, #66, .F. ) ;
#88 = APPROVAL_DATE_TIME ( #140, #304 ) ;
#89 = EDGE_LOOP ( 'NONE', ( #309, #347, #290, #206 ) ) ;
#90 = CALENDAR_DATE ( 2022, 31, 5 ) ;
#91 = FACE_OUTER_BOUND ( 'NONE', #202, .T. ) ;
#92 = CARTESIAN_POINT ( 'NONE',  ( -9.184850993605136112E-17, 5.999999999999991118, 0.000000000000000000 ) ) ;
#93 = CARTESIAN_POINT ( 'NONE',  ( -71.99999999999998579, -7.102951435054646482E-15, 0.000000000000000000 ) ) ;
#94 = AXIS2_PLACEMENT_3D ( 'NONE', #113, #162, #251 ) ;
#95 = ORIENTED_EDGE ( 'NONE', *, *, #124, .F. ) ;
#96 = ORIENTED_EDGE ( 'NONE', *, *, #139, .F. ) ;
#97 = CARTESIAN_POINT ( 'NONE',  ( 0.000000000000000000, 0.000000000000000000, 0.000000000000000000 ) ) ;
#98 = FACE_OUTER_BOUND ( 'NONE', #121, .T. ) ;
#99 = ADVANCED_FACE ( 'NONE', ( #175 ), #270, .T. ) ;
#100 = CARTESIAN_POINT ( 'NONE',  ( -16.00000000000000000, -5.999999999999995559, 7.347880794884114806E-16 ) ) ;
#101 = ORIENTED_EDGE ( 'NONE', *, *, #11, .T. ) ;
#102 = CALENDAR_DATE ( 2022, 31, 5 ) ;
#103 = AXIS2_PLACEMENT_3D ( 'NONE', #323, #62, #199 ) ;
#104 = DIRECTION ( 'NONE',  ( 1.000000000000000000, 1.224646799147353207E-16, -0.000000000000000000 ) ) ;
#105 = CIRCLE ( 'NONE', #275, 5.999999999999999112 ) ;
#106 = ADVANCED_FACE ( 'NONE', ( #91 ), #39, .T. ) ;
#107 = DIRECTION ( 'NONE',  ( -1.530808498934191201E-17, 1.000000000000000000, 0.000000000000000000 ) ) ;
#108 = EDGE_CURVE ( 'NONE', #287, #192, #355, .T. ) ;
#109 = CARTESIAN_POINT ( 'NONE',  ( -2.000000000000000000, 0.000000000000000000, 0.000000000000000000 ) ) ;
#110 = CARTESIAN_POINT ( 'NONE',  ( -71.99999999999998579, -7.102951435054646482E-15, 0.000000000000000000 ) ) ;
#111 = EDGE_CURVE ( 'NONE', #317, #226, #365, .T. ) ;
#112 = EDGE_LOOP ( 'NONE', ( #320, #341, #254, #352 ) ) ;
#113 = CARTESIAN_POINT ( 'NONE',  ( 0.000000000000000000, 0.000000000000000000, 0.000000000000000000 ) ) ;
#114 = AXIS2_PLACEMENT_3D ( 'NONE', #218, #20, #165 ) ;
#115 = SECURITY_CLASSIFICATION_LEVEL ( 'unclassified' ) ;
#116 = EDGE_LOOP ( 'NONE', ( #45, #224 ) ) ;
#117 = PERSON_AND_ORGANIZATION ( #221, #14 ) ;
#118 = ORIENTED_EDGE ( 'NONE', *, *, #70, .T. ) ;
#119 = DIRECTION ( 'NONE',  ( 0.000000000000000000, 0.000000000000000000, 1.000000000000000000 ) ) ;
#120 = CARTESIAN_POINT ( 'NONE',  ( -71.99999999999998579, -7.102951435054646482E-15, 0.000000000000000000 ) ) ;
#121 = EDGE_LOOP ( 'NONE', ( #96, #35 ) ) ;
#122 = VERTEX_POINT ( 'NONE', #78 ) ;
#123 = VECTOR ( 'NONE', #241, 1000.000000000000000 ) ;
#124 = EDGE_CURVE ( 'NONE', #234, #287, #273, .T. ) ;
#125 = PLANE ( 'NONE',  #280 ) ;
#126 = ORIENTED_EDGE ( 'NONE', *, *, #15, .T. ) ;
#127 = CARTESIAN_POINT ( 'NONE',  ( -16.00000000000000000, -2.449293598294705921E-16, 0.000000000000000000 ) ) ;
#128 = EDGE_CURVE ( 'NONE', #260, #220, #257, .T. ) ;
#129 = CC_DESIGN_APPROVAL ( #174, ( #81 ) ) ;
#130 = DIRECTION ( 'NONE',  ( 0.000000000000000000, 1.000000000000000000, 0.000000000000000000 ) ) ;
#131 = DIRECTION ( 'NONE',  ( -1.530808498934191201E-17, 1.000000000000000000, 0.000000000000000000 ) ) ;
#132 =( NAMED_UNIT ( * ) SI_UNIT ( $, .STERADIAN. ) SOLID_ANGLE_UNIT ( ) );
#133 = APPLICATION_CONTEXT ( 'configuration controlled 3d designs of mechanical parts and assemblies' ) ;
#134 = FACE_OUTER_BOUND ( 'NONE', #71, .T. ) ;
#135 = ADVANCED_FACE ( 'NONE', ( #301 ), #157, .T. ) ;
#136 = CIRCLE ( 'NONE', #47, 5.999999999999992006 ) ;
#137 = FACE_OUTER_BOUND ( 'NONE', #112, .T. ) ;
#138 = ORIENTED_EDGE ( 'NONE', *, *, #19, .F. ) ;
#139 = EDGE_CURVE ( 'NONE', #122, #236, #136, .T. ) ;
#140 = DATE_AND_TIME ( #225, #222 ) ;
#141 = EDGE_LOOP ( 'NONE', ( #87, #126, #2, #334 ) ) ;
#142 = LOCAL_TIME ( 16, 9, 6.000000000000000000, #191 ) ;
#143 = CARTESIAN_POINT ( 'NONE',  ( 0.000000000000000000, 0.000000000000000000, 0.000000000000000000 ) ) ;
#144 = EDGE_LOOP ( 'NONE', ( #265, #332 ) ) ;
#145 = PERSON_AND_ORGANIZATION ( #221, #14 ) ;
#146 = VERTEX_POINT ( 'NONE', #53 ) ;
#147 = LINE ( 'NONE', #318, #348 ) ;
#148 = AXIS2_PLACEMENT_3D ( 'NONE', #167, #22, #131 ) ;
#149 = DIRECTION ( 'NONE',  ( 0.7071067811865479058, -0.7071067811865471286, 8.659560562354929160E-17 ) ) ;
#150 = APPROVAL_STATUS ( 'not_yet_approved' ) ;
#151 = DIRECTION ( 'NONE',  ( 1.000000000000000000, 1.224646799147353207E-16, -0.000000000000000000 ) ) ;
#152 = DIRECTION ( 'NONE',  ( 1.000000000000000000, 1.224646799147353207E-16, -0.000000000000000000 ) ) ;
#153 = MANIFOLD_SOLID_BREP ( 'Révolution1', #340 ) ;
#154 = CYLINDRICAL_SURFACE ( 'NONE', #336, 5.999999999999991118 ) ;
#155 = DIRECTION ( 'NONE',  ( 1.530808498934191509E-17, -1.000000000000000000, 0.000000000000000000 ) ) ;
#156 = UNCERTAINTY_MEASURE_WITH_UNIT (LENGTH_MEASURE( 1.000000000000000082E-05 ), #213, 'distance_accuracy_value', 'NONE');
#157 = TOROIDAL_SURFACE ( 'NONE', #217, 3.999999999999991562, 2.000000000000000000 ) ;
#158 = DIRECTION ( 'NONE',  ( 1.000000000000000000, 1.224646799147353207E-16, -0.000000000000000000 ) ) ;
#159 = DATE_AND_TIME ( #102, #56 ) ;
#160 = CARTESIAN_POINT ( 'NONE',  ( -16.00000000000000000, -2.449293598294706414E-16, 0.000000000000000000 ) ) ;
#161 = FACE_OUTER_BOUND ( 'NONE', #194, .T. ) ;
#162 = DIRECTION ( 'NONE',  ( 1.000000000000000000, 1.530808498934191509E-17, -0.000000000000000000 ) ) ;
#163 = DIRECTION ( 'NONE',  ( 1.000000000000000000, 1.530808498934191509E-17, -0.000000000000000000 ) ) ;
#164 = CONICAL_SURFACE ( 'NONE', #54, 5.999999999999999112, 0.7853981633974479459 ) ;
#165 = DIRECTION ( 'NONE',  ( -1.000000000000000000, 0.000000000000000000, 0.000000000000000000 ) ) ;
#166 = EDGE_CURVE ( 'NONE', #220, #169, #40, .T. ) ;
#167 = CARTESIAN_POINT ( 'NONE',  ( -3.724485290368342488E-16, -5.701473736651239004E-33, 0.000000000000000000 ) ) ;
#168 = APPROVAL_PERSON_ORGANIZATION ( #117, #207, #58 ) ;
#169 = VERTEX_POINT ( 'NONE', #252 ) ;
#170 = PERSON_AND_ORGANIZATION ( #221, #14 ) ;
#171 = LOCAL_TIME ( 16, 9, 6.000000000000000000, #283 ) ;
#172 = PRODUCT_DEFINITION ( 'UNKNOWN', '', #9, #295 ) ;
#173 = EDGE_LOOP ( 'NONE', ( #288, #84, #118, #338 ) ) ;
#174 = APPROVAL ( #150, 'UNSPECIFIED' ) ;
#175 = FACE_OUTER_BOUND ( 'NONE', #116, .T. ) ;
#176 = AXIS2_PLACEMENT_3D ( 'NONE', #160, #17, #180 ) ;
#177 = ADVANCED_FACE ( 'NONE', ( #359 ), #164, .T. ) ;
#178 = DIRECTION ( 'NONE',  ( 0.000000000000000000, 1.000000000000000000, 0.000000000000000000 ) ) ;
#179 = CARTESIAN_POINT ( 'NONE',  ( -16.00000000000000000, -2.449293598294706414E-16, 0.000000000000000000 ) ) ;
#180 = DIRECTION ( 'NONE',  ( 0.000000000000000000, 1.000000000000000000, 0.000000000000000000 ) ) ;
#181 = CARTESIAN_POINT ( 'NONE',  ( -2.474566044757846738E-16, 3.999999999999991562, 0.000000000000000000 ) ) ;
#182 = AXIS2_PLACEMENT_3D ( 'NONE', #279, #357, #25 ) ;
#183 = DIRECTION ( 'NONE',  ( 0.000000000000000000, 1.000000000000000000, 0.000000000000000000 ) ) ;
#184 = CARTESIAN_POINT ( 'NONE',  ( -16.00000000000000000, -2.449293598294706414E-16, 0.000000000000000000 ) ) ;
#185 = VECTOR ( 'NONE', #306, 999.9999999999998863 ) ;
#186 = CC_DESIGN_APPROVAL ( #304, ( #9 ) ) ;
#187 = DIRECTION ( 'NONE',  ( 1.000000000000000000, 1.530808498934191509E-17, -0.000000000000000000 ) ) ;
#188 = DIRECTION ( 'NONE',  ( 0.000000000000000000, 1.000000000000000000, 0.000000000000000000 ) ) ;
#189 = EDGE_LOOP ( 'NONE', ( #138, #259, #57, #201 ) ) ;
#190 = CIRCLE ( 'NONE', #342, 3.999999999999991562 ) ;
#191 = COORDINATED_UNIVERSAL_TIME_OFFSET ( 1, 0, .AHEAD. ) ;
#192 = VERTEX_POINT ( 'NONE', #215 ) ;
#193 = PERSON_AND_ORGANIZATION ( #221, #14 ) ;
#194 = EDGE_LOOP ( 'NONE', ( #80, #12, #101, #228 ) ) ;
#195 = EDGE_CURVE ( 'NONE', #236, #146, #216, .T. ) ;
#196 = PERSON_AND_ORGANIZATION ( #221, #14 ) ;
#197 = DIRECTION ( 'NONE',  ( 1.000000000000000000, 1.530808498934191509E-17, -0.000000000000000000 ) ) ;
#198 = EDGE_CURVE ( 'NONE', #146, #260, #229, .T. ) ;
#199 = DIRECTION ( 'NONE',  ( 0.000000000000000000, -1.000000000000000000, 1.224646799147353454E-16 ) ) ;
#200 = AXIS2_PLACEMENT_3D ( 'NONE', #73, #233, #44 ) ;
#201 = ORIENTED_EDGE ( 'NONE', *, *, #360, .F. ) ;
#202 = EDGE_LOOP ( 'NONE', ( #362, #82, #281, #95 ) ) ;
#203 = DIRECTION ( 'NONE',  ( 1.000000000000000000, 1.530808498934191509E-17, -0.000000000000000000 ) ) ;
#204 = DIRECTION ( 'NONE',  ( 1.000000000000000000, 1.224646799147353207E-16, -0.000000000000000000 ) ) ;
#205 = CARTESIAN_POINT ( 'NONE',  ( -72.99999999999998579, -5.000000000000006217, 6.735557395310443009E-16 ) ) ;
#206 = ORIENTED_EDGE ( 'NONE', *, *, #128, .F. ) ;
#207 = APPROVAL ( #256, 'UNSPECIFIED' ) ;
#208 = CARTESIAN_POINT ( 'NONE',  ( -71.99999999999998579, 5.999999999999991118, 0.000000000000000000 ) ) ;
#209 = CLOSED_SHELL ( 'NONE', ( #335, #249, #135, #310, #27, #61 ) ) ;
#210 = APPROVAL_PERSON_ORGANIZATION ( #289, #304, #223 ) ;
#211 = CYLINDRICAL_SURFACE ( 'NONE', #182, 5.999999999999995559 ) ;
#212 = CARTESIAN_POINT ( 'NONE',  ( -2.000000000000000000, -3.061616997868383018E-17, 0.000000000000000000 ) ) ;
#213 =( LENGTH_UNIT ( ) NAMED_UNIT ( * ) SI_UNIT ( .MILLI., .METRE. ) );
#214 = ADVANCED_FACE ( 'NONE', ( #134 ), #211, .T. ) ;
#215 = CARTESIAN_POINT ( 'NONE',  ( -71.99999999999998579, -6.000000000000007105, 7.347880794884119736E-16 ) ) ;
#216 = LINE ( 'NONE', #330, #307 ) ;
#217 = AXIS2_PLACEMENT_3D ( 'NONE', #331, #48, #52 ) ;
#218 = CARTESIAN_POINT ( 'NONE',  ( -2.000000000000000000, 3.999999999999991562, 0.000000000000000000 ) ) ;
#219 = VECTOR ( 'NONE', #149, 1000.000000000000000 ) ;
#220 = VERTEX_POINT ( 'NONE', #253 ) ;
#221 = PERSON ( 'UNSPECIFIED', 'UNSPECIFIED', 'UNSPECIFIED', ('UNSPECIFIED'), ('UNSPECIFIED'), ('UNSPECIFIED') ) ;
#222 = LOCAL_TIME ( 16, 9, 6.000000000000000000, #308 ) ;
#223 = APPROVAL_ROLE ( '' ) ;
#224 = ORIENTED_EDGE ( 'NONE', *, *, #358, .T. ) ;
#225 = CALENDAR_DATE ( 2022, 31, 5 ) ;
#226 = VERTEX_POINT ( 'NONE', #250 ) ;
#227 = APPROVAL_STATUS ( 'not_yet_approved' ) ;
#228 = ORIENTED_EDGE ( 'NONE', *, *, #198, .F. ) ;
#229 = CIRCLE ( 'NONE', #64, 5.999999999999991118 ) ;
#230 = DIRECTION ( 'NONE',  ( 0.000000000000000000, 1.000000000000000000, 0.000000000000000000 ) ) ;
#231 = DATE_AND_TIME ( #90, #285 ) ;
#232 = CARTESIAN_POINT ( 'NONE',  ( -71.99999999999998579, -7.102951435054646482E-15, 0.000000000000000000 ) ) ;
#233 = DIRECTION ( 'NONE',  ( 1.000000000000000000, 1.224646799147353207E-16, -0.000000000000000000 ) ) ;
#234 = VERTEX_POINT ( 'NONE', #303 ) ;
#235 = AXIS2_PLACEMENT_3D ( 'NONE', #67, #204, #69 ) ;
#236 = VERTEX_POINT ( 'NONE', #325 ) ;
#237 = CC_DESIGN_SECURITY_CLASSIFICATION ( #81, ( #9 ) ) ;
#238 = APPLICATION_CONTEXT ( 'configuration controlled 3d designs of mechanical parts and assemblies' ) ;
#239 = DIRECTION ( 'NONE',  ( 1.000000000000000000, 1.224646799147353207E-16, -0.000000000000000000 ) ) ;
#240 = APPROVAL_DATE_TIME ( #159, #174 ) ;
#241 = DIRECTION ( 'NONE',  ( 1.000000000000000000, 1.530808498934191509E-17, -0.000000000000000000 ) ) ;
#242 = CC_DESIGN_PERSON_AND_ORGANIZATION_ASSIGNMENT ( #286, #30, ( #172 ) ) ;
#243 = PRODUCT ( '387472387481', '387472387481', '', ( #86 ) ) ;
#244 = CARTESIAN_POINT ( 'NONE',  ( -71.99999999999998579, 5.999999999999992006, 0.000000000000000000 ) ) ;
#245 = AXIS2_PLACEMENT_3D ( 'NONE', #120, #239, #230 ) ;
#246 =( GEOMETRIC_REPRESENTATION_CONTEXT ( 3 ) GLOBAL_UNCERTAINTY_ASSIGNED_CONTEXT ( ( #156 ) ) GLOBAL_UNIT_ASSIGNED_CONTEXT ( ( #213, #24, #132 ) ) REPRESENTATION_CONTEXT ( 'NONE', 'WORKASPACE' ) );
#247 = CARTESIAN_POINT ( 'NONE',  ( -2.000000000000000000, -3.061616997868383018E-17, 0.000000000000000000 ) ) ;
#248 = EDGE_CURVE ( 'NONE', #236, #122, #356, .T. ) ;
#249 = ADVANCED_FACE ( 'NONE', ( #302 ), #26, .T. ) ;
#250 = CARTESIAN_POINT ( 'NONE',  ( -16.00000000000000000, -5.999999999999992006, 7.347880794884111847E-16 ) ) ;
#251 = DIRECTION ( 'NONE',  ( -1.530808498934191509E-17, 1.000000000000000000, 0.000000000000000000 ) ) ;
#252 = CARTESIAN_POINT ( 'NONE',  ( -3.112161890794667241E-16, -3.999999999999991562, 6.123233995736755436E-16 ) ) ;
#253 = CARTESIAN_POINT ( 'NONE',  ( -4.336808689942017736E-16, 3.999999999999991562, 0.000000000000000000 ) ) ;
#254 = ORIENTED_EDGE ( 'NONE', *, *, #255, .F. ) ;
#255 = EDGE_CURVE ( 'NONE', #260, #146, #329, .T. ) ;
#256 = APPROVAL_STATUS ( 'not_yet_approved' ) ;
#257 = CIRCLE ( 'NONE', #114, 2.000000000000000000 ) ;
#258 = APPLICATION_PROTOCOL_DEFINITION ( 'international standard', 'config_control_design', 1994, #238 ) ;
#259 = ORIENTED_EDGE ( 'NONE', *, *, #198, .T. ) ;
#260 = VERTEX_POINT ( 'NONE', #21 ) ;
#261 = EDGE_CURVE ( 'NONE', #192, #226, #76, .T. ) ;
#262 = DIRECTION ( 'NONE',  ( -1.224646799147353207E-16, 1.000000000000000000, 0.000000000000000000 ) ) ;
#263 = ADVANCED_BREP_SHAPE_REPRESENTATION ( '387472387481', ( #153, #277, #305 ), #246 ) ;
#264 = CC_DESIGN_APPROVAL ( #207, ( #172 ) ) ;
#265 = ORIENTED_EDGE ( 'NONE', *, *, #166, .T. ) ;
#266 = CARTESIAN_POINT ( 'NONE',  ( -72.99999999999998579, -7.225416114969381630E-15, 0.000000000000000000 ) ) ;
#267 = CARTESIAN_POINT ( 'NONE',  ( -71.99999999999998579, -6.000000000000006217, 7.347880794884118750E-16 ) ) ;
#268 = CYLINDRICAL_SURFACE ( 'NONE', #176, 5.999999999999995559 ) ;
#269 = ADVANCED_FACE ( 'NONE', ( #42 ), #268, .T. ) ;
#270 = PLANE ( 'NONE',  #274 ) ;
#271 = DIRECTION ( 'NONE',  ( 1.000000000000000000, 1.530808498934191509E-17, -0.000000000000000000 ) ) ;
#272 = PRODUCT_DEFINITION_SHAPE ( 'NONE', 'NONE',  #172 ) ;
#273 = LINE ( 'NONE', #244, #185 ) ;
#274 = AXIS2_PLACEMENT_3D ( 'NONE', #127, #65, #262 ) ;
#275 = AXIS2_PLACEMENT_3D ( 'NONE', #93, #151, #353 ) ;
#276 = DIRECTION ( 'NONE',  ( 0.000000000000000000, 1.000000000000000000, 0.000000000000000000 ) ) ;
#277 = MANIFOLD_SOLID_BREP ( 'Révolution2', #209 ) ;
#278 = DIRECTION ( 'NONE',  ( 0.000000000000000000, 1.000000000000000000, 0.000000000000000000 ) ) ;
#279 = CARTESIAN_POINT ( 'NONE',  ( -16.00000000000000000, -2.449293598294706414E-16, 0.000000000000000000 ) ) ;
#280 = AXIS2_PLACEMENT_3D ( 'NONE', #266, #10, #46 ) ;
#281 = ORIENTED_EDGE ( 'NONE', *, *, #108, .F. ) ;
#282 = EDGE_CURVE ( 'NONE', #192, #287, #105, .T. ) ;
#283 = COORDINATED_UNIVERSAL_TIME_OFFSET ( 1, 0, .AHEAD. ) ;
#284 = AXIS2_PLACEMENT_3D ( 'NONE', #179, #297, #155 ) ;
#285 = LOCAL_TIME ( 16, 9, 6.000000000000000000, #38 ) ;
#286 = PERSON_AND_ORGANIZATION ( #221, #14 ) ;
#287 = VERTEX_POINT ( 'NONE', #208 ) ;
#288 = ORIENTED_EDGE ( 'NONE', *, *, #261, .F. ) ;
#289 = PERSON_AND_ORGANIZATION ( #221, #14 ) ;
#290 = ORIENTED_EDGE ( 'NONE', *, *, #166, .F. ) ;
#291 = EDGE_CURVE ( 'NONE', #234, #28, #33, .T. ) ;
#292 = AXIS2_PLACEMENT_3D ( 'NONE', #43, #152, #130 ) ;
#293 = APPROVAL_PERSON_ORGANIZATION ( #145, #174, #68 ) ;
#294 = COORDINATED_UNIVERSAL_TIME_OFFSET ( 1, 0, .AHEAD. ) ;
#295 = DESIGN_CONTEXT ( 'detailed design', #238, 'design' ) ;
#296 = ORIENTED_EDGE ( 'NONE', *, *, #261, .T. ) ;
#297 = DIRECTION ( 'NONE',  ( -1.000000000000000000, -1.530808498934191509E-17, 0.000000000000000000 ) ) ;
#298 = CARTESIAN_POINT ( 'NONE',  ( -16.00000000000000000, 5.999999999999992006, 0.000000000000000000 ) ) ;
#299 = FACE_OUTER_BOUND ( 'NONE', #5, .T. ) ;
#300 = AXIS2_PLACEMENT_3D ( 'NONE', #328, #74, #183 ) ;
#301 = FACE_OUTER_BOUND ( 'NONE', #189, .T. ) ;
#302 = FACE_OUTER_BOUND ( 'NONE', #89, .T. ) ;
#303 = CARTESIAN_POINT ( 'NONE',  ( -72.99999999999998579, 4.999999999999992006, 0.000000000000000000 ) ) ;
#304 = APPROVAL ( #227, 'UNSPECIFIED' ) ;
#305 = AXIS2_PLACEMENT_3D ( 'NONE', #143, #119, #315 ) ;
#306 = DIRECTION ( 'NONE',  ( 0.7071067811865477948, 0.7071067811865473507, 0.000000000000000000 ) ) ;
#307 = VECTOR ( 'NONE', #75, 1000.000000000000000 ) ;
#308 = COORDINATED_UNIVERSAL_TIME_OFFSET ( 1, 0, .AHEAD. ) ;
#309 = ORIENTED_EDGE ( 'NONE', *, *, #255, .T. ) ;
#310 = ADVANCED_FACE ( 'NONE', ( #161 ), #154, .T. ) ;
#311 = APPROVAL_DATE_TIME ( #231, #207 ) ;
#312 = DATE_AND_TIME ( #83, #171 ) ;
#313 = CC_DESIGN_PERSON_AND_ORGANIZATION_ASSIGNMENT ( #170, #34, ( #9 ) ) ;
#314 = AXIS2_PLACEMENT_3D ( 'NONE', #333, #327, #188 ) ;
#315 = DIRECTION ( 'NONE',  ( 1.000000000000000000, 0.000000000000000000, 0.000000000000000000 ) ) ;
#316 = DATE_AND_TIME ( #4, #142 ) ;
#317 = VERTEX_POINT ( 'NONE', #298 ) ;
#318 = CARTESIAN_POINT ( 'NONE',  ( -16.00000000000000000, 5.999999999999995559, 0.000000000000000000 ) ) ;
#319 = VECTOR ( 'NONE', #51, 1000.000000000000000 ) ;
#320 = ORIENTED_EDGE ( 'NONE', *, *, #139, .T. ) ;
#321 = DIRECTION ( 'NONE',  ( -1.530808498934191509E-17, 1.000000000000000000, 0.000000000000000000 ) ) ;
#322 = PLANE ( 'NONE',  #7 ) ;
#323 = CARTESIAN_POINT ( 'NONE',  ( -2.000000000000000000, -3.999999999999991562, 4.898587196589401982E-16 ) ) ;
#324 = AXIS2_PLACEMENT_3D ( 'NONE', #232, #346, #178 ) ;
#325 = CARTESIAN_POINT ( 'NONE',  ( -16.00000000000000000, -5.999999999999992895, 7.347880794884110861E-16 ) ) ;
#326 = DIRECTION ( 'NONE',  ( 1.000000000000000000, 1.530808498934191509E-17, -0.000000000000000000 ) ) ;
#327 = DIRECTION ( 'NONE',  ( 1.000000000000000000, 1.224646799147353207E-16, -0.000000000000000000 ) ) ;
#328 = CARTESIAN_POINT ( 'NONE',  ( -16.00000000000000000, -2.449293598294706414E-16, 0.000000000000000000 ) ) ;
#329 = CIRCLE ( 'NONE', #1, 5.999999999999991118 ) ;
#330 = CARTESIAN_POINT ( 'NONE',  ( 9.184850993605136112E-17, -5.999999999999991118, 7.347880794884108889E-16 ) ) ;
#331 = CARTESIAN_POINT ( 'NONE',  ( -2.000000000000000000, 0.000000000000000000, 0.000000000000000000 ) ) ;
#332 = ORIENTED_EDGE ( 'NONE', *, *, #360, .T. ) ;
#333 = CARTESIAN_POINT ( 'NONE',  ( -16.00000000000000000, -2.449293598294705428E-16, 0.000000000000000000 ) ) ;
#334 = ORIENTED_EDGE ( 'NONE', *, *, #282, .F. ) ;
#335 = ADVANCED_FACE ( 'NONE', ( #137 ), #361, .T. ) ;
#336 = AXIS2_PLACEMENT_3D ( 'NONE', #97, #203, #321 ) ;
#337 = PERSON_AND_ORGANIZATION_ROLE ( 'classification_officer' ) ;
#338 = ORIENTED_EDGE ( 'NONE', *, *, #358, .F. ) ;
#339 = ORIENTED_EDGE ( 'NONE', *, *, #291, .F. ) ;
#340 = CLOSED_SHELL ( 'NONE', ( #214, #106, #85, #177, #269, #99 ) ) ;
#341 = ORIENTED_EDGE ( 'NONE', *, *, #195, .T. ) ;
#342 = AXIS2_PLACEMENT_3D ( 'NONE', #79, #55, #107 ) ;
#343 = PERSON_AND_ORGANIZATION_ROLE ( 'design_owner' ) ;
#344 = FACE_OUTER_BOUND ( 'NONE', #144, .T. ) ;
#345 = DATE_TIME_ROLE ( 'creation_date' ) ;
#346 = DIRECTION ( 'NONE',  ( 1.000000000000000000, 1.224646799147353207E-16, -0.000000000000000000 ) ) ;
#347 = ORIENTED_EDGE ( 'NONE', *, *, #19, .T. ) ;
#348 = VECTOR ( 'NONE', #158, 1000.000000000000000 ) ;
#349 = AXIS2_PLACEMENT_3D ( 'NONE', #109, #326, #49 ) ;
#350 = LINE ( 'NONE', #92, #123 ) ;
#351 = CC_DESIGN_PERSON_AND_ORGANIZATION_ASSIGNMENT ( #193, #337, ( #81 ) ) ;
#352 = ORIENTED_EDGE ( 'NONE', *, *, #11, .F. ) ;
#353 = DIRECTION ( 'NONE',  ( 0.000000000000000000, 1.000000000000000000, 0.000000000000000000 ) ) ;
#354 = DIRECTION ( 'NONE',  ( 0.000000000000000000, 1.000000000000000000, 0.000000000000000000 ) ) ;
#355 = CIRCLE ( 'NONE', #245, 5.999999999999999112 ) ;
#356 = CIRCLE ( 'NONE', #300, 5.999999999999992006 ) ;
#357 = DIRECTION ( 'NONE',  ( 1.000000000000000000, 1.224646799147353207E-16, -0.000000000000000000 ) ) ;
#358 = EDGE_CURVE ( 'NONE', #226, #317, #72, .T. ) ;
#359 = FACE_OUTER_BOUND ( 'NONE', #141, .T. ) ;
#360 = EDGE_CURVE ( 'NONE', #169, #220, #190, .T. ) ;
#361 = CYLINDRICAL_SURFACE ( 'NONE', #94, 5.999999999999991118 ) ;
#362 = ORIENTED_EDGE ( 'NONE', *, *, #291, .T. ) ;
#363 = PERSON_AND_ORGANIZATION_ROLE ( 'creator' ) ;
#364 = CC_DESIGN_DATE_AND_TIME_ASSIGNMENT ( #316, #345, ( #172 ) ) ;
#365 = CIRCLE ( 'NONE', #292, 5.999999999999992006 ) ;
ENDSEC;
END-ISO-10303-21;
