ISO-10303-21;
HEADER;
FILE_DESCRIPTION (( 'STEP AP203' ),
    '1' );
FILE_NAME ('387472387480.step',
    '2022-05-31T14:09:05',
    ( '' ),
    ( '' ),
    'SwSTEP 2.0',
    'SolidWorks 2019',
    '' );
FILE_SCHEMA (( 'CONFIG_CONTROL_DESIGN' ));
ENDSEC;

DATA;
#1 = AXIS2_PLACEMENT_3D ( 'NONE', #143, #169, #54 ) ;
#2 = DIRECTION ( 'NONE',  ( 0.000000000000000000, 1.000000000000000000, 0.000000000000000000 ) ) ;
#3 = APPROVAL ( #185, 'UNSPECIFIED' ) ;
#4 = CARTESIAN_POINT ( 'NONE',  ( -16.00000000000000000, -2.449293598294705428E-16, 0.000000000000000000 ) ) ;
#5 = CC_DESIGN_PERSON_AND_ORGANIZATION_ASSIGNMENT ( #335, #309, ( #201 ) ) ;
#6 = DIRECTION ( 'NONE',  ( -1.000000000000000000, -1.224646799147353207E-16, 0.000000000000000000 ) ) ;
#7 = AXIS2_PLACEMENT_3D ( 'NONE', #310, #184, #129 ) ;
#8 = DIRECTION ( 'NONE',  ( 1.530808498934191509E-17, -1.000000000000000000, 0.000000000000000000 ) ) ;
#9 = APPLICATION_CONTEXT ( 'configuration controlled 3d designs of mechanical parts and assemblies' ) ;
#10 = EDGE_CURVE ( 'NONE', #236, #359, #82, .T. ) ;
#11 = EDGE_LOOP ( 'NONE', ( #238, #287 ) ) ;
#12 = CIRCLE ( 'NONE', #209, 5.999999999999992006 ) ;
#13 = ORIENTED_EDGE ( 'NONE', *, *, #135, .F. ) ;
#14 = ADVANCED_FACE ( 'NONE', ( #331 ), #253, .T. ) ;
#15 = PRODUCT ( '387472387480', '387472387480', '', ( #107 ) ) ;
#16 = ORIENTED_EDGE ( 'NONE', *, *, #65, .T. ) ;
#17 = ADVANCED_FACE ( 'NONE', ( #44 ), #188, .T. ) ;
#18 = ORIENTED_EDGE ( 'NONE', *, *, #284, .F. ) ;
#19 = DIRECTION ( 'NONE',  ( 1.000000000000000000, 1.530808498934191509E-17, -0.000000000000000000 ) ) ;
#20 = AXIS2_PLACEMENT_3D ( 'NONE', #226, #228, #30 ) ;
#21 = DATE_AND_TIME ( #272, #344 ) ;
#22 = DIRECTION ( 'NONE',  ( 1.000000000000000000, 1.224646799147353207E-16, -0.000000000000000000 ) ) ;
#23 = DATE_TIME_ROLE ( 'creation_date' ) ;
#24 = DIRECTION ( 'NONE',  ( 1.000000000000000000, 1.224646799147353207E-16, -0.000000000000000000 ) ) ;
#25 = CC_DESIGN_PERSON_AND_ORGANIZATION_ASSIGNMENT ( #72, #52, ( #298 ) ) ;
#26 = DIRECTION ( 'NONE',  ( 1.000000000000000000, 1.530808498934191509E-17, -0.000000000000000000 ) ) ;
#27 = AXIS2_PLACEMENT_3D ( 'NONE', #117, #168, #345 ) ;
#28 = EDGE_CURVE ( 'NONE', #148, #70, #99, .T. ) ;
#29 = DIRECTION ( 'NONE',  ( 1.000000000000000000, 1.224646799147353207E-16, -0.000000000000000000 ) ) ;
#30 = DIRECTION ( 'NONE',  ( 0.000000000000000000, 1.000000000000000000, 0.000000000000000000 ) ) ;
#31 = DIRECTION ( 'NONE',  ( -1.530808498934191509E-17, 1.000000000000000000, 0.000000000000000000 ) ) ;
#32 = AXIS2_PLACEMENT_3D ( 'NONE', #127, #134, #251 ) ;
#33 = CC_DESIGN_SECURITY_CLASSIFICATION ( #182, ( #298 ) ) ;
#34 = DIRECTION ( 'NONE',  ( 1.224646799147353207E-16, -1.000000000000000000, 0.000000000000000000 ) ) ;
#35 = MANIFOLD_SOLID_BREP ( 'Révolution2', #243 ) ;
#36 = VERTEX_POINT ( 'NONE', #281 ) ;
#37 = PLANE ( 'NONE',  #39 ) ;
#38 = CIRCLE ( 'NONE', #121, 1.000000000000000000 ) ;
#39 = AXIS2_PLACEMENT_3D ( 'NONE', #342, #6, #34 ) ;
#40 = ORIENTED_EDGE ( 'NONE', *, *, #62, .T. ) ;
#41 = TOROIDAL_SURFACE ( 'NONE', #27, 4.999999999999991118, 1.000000000000000222 ) ;
#42 = ORIENTED_EDGE ( 'NONE', *, *, #135, .T. ) ;
#43 = ORIENTED_EDGE ( 'NONE', *, *, #96, .F. ) ;
#44 = FACE_OUTER_BOUND ( 'NONE', #86, .T. ) ;
#45 = APPROVAL_ROLE ( '' ) ;
#46 = CARTESIAN_POINT ( 'NONE',  ( -2.551106469704555713E-16, 4.999999999999991118, 0.000000000000000000 ) ) ;
#47 = DIRECTION ( 'NONE',  ( -1.530808498934191817E-17, 1.000000000000000000, 0.000000000000000000 ) ) ;
#48 =( NAMED_UNIT ( * ) PLANE_ANGLE_UNIT ( ) SI_UNIT ( $, .RADIAN. ) );
#49 = CARTESIAN_POINT ( 'NONE',  ( -72.99999999999998579, -7.225416114969381630E-15, 0.000000000000000000 ) ) ;
#50 = CALENDAR_DATE ( 2022, 31, 5 ) ;
#51 = CARTESIAN_POINT ( 'NONE',  ( -71.99999999999998579, 5.999999999999992006, 0.000000000000000000 ) ) ;
#52 = PERSON_AND_ORGANIZATION_ROLE ( 'creator' ) ;
#53 = CIRCLE ( 'NONE', #69, 1.000000000000000000 ) ;
#54 = DIRECTION ( 'NONE',  ( -1.530808498934191509E-17, 1.000000000000000000, 0.000000000000000000 ) ) ;
#55 = CC_DESIGN_PERSON_AND_ORGANIZATION_ASSIGNMENT ( #307, #304, ( #182 ) ) ;
#56 = DIRECTION ( 'NONE',  ( 1.000000000000000000, 1.224646799147353207E-16, -0.000000000000000000 ) ) ;
#57 = DIRECTION ( 'NONE',  ( 1.000000000000000000, 1.530808498934191509E-17, -0.000000000000000000 ) ) ;
#58 = ORIENTED_EDGE ( 'NONE', *, *, #28, .F. ) ;
#59 = LOCAL_TIME ( 16, 9, 5.000000000000000000, #75 ) ;
#60 = FACE_OUTER_BOUND ( 'NONE', #152, .T. ) ;
#61 = DIRECTION ( 'NONE',  ( 1.000000000000000000, 1.530808498934191509E-17, -0.000000000000000000 ) ) ;
#62 = EDGE_CURVE ( 'NONE', #148, #236, #110, .T. ) ;
#63 = CARTESIAN_POINT ( 'NONE',  ( -1.000000000000000888, 4.999999999999991118, 0.000000000000000000 ) ) ;
#64 = ORIENTED_EDGE ( 'NONE', *, *, #10, .T. ) ;
#65 = EDGE_CURVE ( 'NONE', #151, #325, #343, .T. ) ;
#66 = ORIENTED_EDGE ( 'NONE', *, *, #338, .F. ) ;
#67 = ORIENTED_EDGE ( 'NONE', *, *, #65, .F. ) ;
#68 = APPROVAL ( #225, 'UNSPECIFIED' ) ;
#69 = AXIS2_PLACEMENT_3D ( 'NONE', #337, #80, #195 ) ;
#70 = VERTEX_POINT ( 'NONE', #224 ) ;
#71 = CARTESIAN_POINT ( 'NONE',  ( -72.99999999999998579, -7.225416114969381630E-15, 0.000000000000000000 ) ) ;
#72 = PERSON_AND_ORGANIZATION ( #191, #187 ) ;
#73 = FACE_OUTER_BOUND ( 'NONE', #296, .T. ) ;
#74 = CARTESIAN_POINT ( 'NONE',  ( -71.99999999999998579, -7.102951435054646482E-15, 0.000000000000000000 ) ) ;
#75 = COORDINATED_UNIVERSAL_TIME_OFFSET ( 1, 0, .AHEAD. ) ;
#76 = DIRECTION ( 'NONE',  ( 1.000000000000000000, 1.530808498934191509E-17, -0.000000000000000000 ) ) ;
#77 = PERSON_AND_ORGANIZATION ( #191, #187 ) ;
#78 = LINE ( 'NONE', #192, #273 ) ;
#79 = COORDINATED_UNIVERSAL_TIME_OFFSET ( 1, 0, .AHEAD. ) ;
#80 = DIRECTION ( 'NONE',  ( -1.874699728327322010E-33, 1.224646799147353207E-16, 1.000000000000000000 ) ) ;
#81 = AXIS2_PLACEMENT_3D ( 'NONE', #286, #116, #288 ) ;
#82 = CIRCLE ( 'NONE', #293, 5.999999999999999112 ) ;
#83 = DIRECTION ( 'NONE',  ( 0.000000000000000000, 1.000000000000000000, 0.000000000000000000 ) ) ;
#84 = ADVANCED_FACE ( 'NONE', ( #108 ), #160, .T. ) ;
#85 = FACE_OUTER_BOUND ( 'NONE', #88, .T. ) ;
#86 = EDGE_LOOP ( 'NONE', ( #240, #16 ) ) ;
#87 = CYLINDRICAL_SURFACE ( 'NONE', #214, 5.999999999999991118 ) ;
#88 = EDGE_LOOP ( 'NONE', ( #66, #122, #40, #118 ) ) ;
#89 = AXIS2_PLACEMENT_3D ( 'NONE', #115, #363, #320 ) ;
#90 = APPROVAL_PERSON_ORGANIZATION ( #77, #173, #220 ) ;
#91 = FACE_OUTER_BOUND ( 'NONE', #98, .T. ) ;
#92 = DIRECTION ( 'NONE',  ( -0.000000000000000000, 0.000000000000000000, -1.000000000000000000 ) ) ;
#93 = ORIENTED_EDGE ( 'NONE', *, *, #207, .F. ) ;
#94 = CIRCLE ( 'NONE', #297, 5.999999999999999112 ) ;
#95 = EDGE_LOOP ( 'NONE', ( #263, #212, #183, #43 ) ) ;
#96 = EDGE_CURVE ( 'NONE', #211, #36, #78, .T. ) ;
#97 = ORIENTED_EDGE ( 'NONE', *, *, #140, .T. ) ;
#98 = EDGE_LOOP ( 'NONE', ( #274, #230, #97, #150 ) ) ;
#99 = CIRCLE ( 'NONE', #319, 4.999999999999999112 ) ;
#100 = CARTESIAN_POINT ( 'NONE',  ( -16.00000000000000000, 5.999999999999995559, 0.000000000000000000 ) ) ;
#101 = EDGE_CURVE ( 'NONE', #36, #179, #257, .T. ) ;
#102 = PERSON_AND_ORGANIZATION ( #191, #187 ) ;
#103 = APPLICATION_CONTEXT ( 'configuration controlled 3d designs of mechanical parts and assemblies' ) ;
#104 = CARTESIAN_POINT ( 'NONE',  ( -72.99999999999998579, 4.999999999999992006, 0.000000000000000000 ) ) ;
#105 = EDGE_CURVE ( 'NONE', #264, #211, #114, .T. ) ;
#106 = DIRECTION ( 'NONE',  ( 0.000000000000000000, 1.000000000000000000, 0.000000000000000000 ) ) ;
#107 = MECHANICAL_CONTEXT ( 'NONE', #103, 'mechanical' ) ;
#108 = FACE_OUTER_BOUND ( 'NONE', #216, .T. ) ;
#109 = EDGE_CURVE ( 'NONE', #70, #148, #155, .T. ) ;
#110 = LINE ( 'NONE', #51, #166 ) ;
#111 = PERSON_AND_ORGANIZATION ( #191, #187 ) ;
#112 = DIRECTION ( 'NONE',  ( 1.000000000000000000, 1.224646799147353207E-16, -0.000000000000000000 ) ) ;
#113 = DIRECTION ( 'NONE',  ( 0.7071067811865479058, -0.7071067811865471286, 8.659560562354929160E-17 ) ) ;
#114 = CIRCLE ( 'NONE', #7, 5.999999999999992006 ) ;
#115 = CARTESIAN_POINT ( 'NONE',  ( -16.00000000000000000, -2.449293598294705921E-16, 0.000000000000000000 ) ) ;
#116 = DIRECTION ( 'NONE',  ( 1.000000000000000000, 1.530808498934191509E-17, -0.000000000000000000 ) ) ;
#117 = CARTESIAN_POINT ( 'NONE',  ( -1.000000000000000888, 0.000000000000000000, 0.000000000000000000 ) ) ;
#118 = ORIENTED_EDGE ( 'NONE', *, *, #290, .F. ) ;
#119 = VERTEX_POINT ( 'NONE', #351 ) ;
#120 = EDGE_CURVE ( 'NONE', #211, #264, #305, .T. ) ;
#121 = AXIS2_PLACEMENT_3D ( 'NONE', #63, #92, #205 ) ;
#122 = ORIENTED_EDGE ( 'NONE', *, *, #109, .T. ) ;
#123 = ADVANCED_BREP_SHAPE_REPRESENTATION ( '387472387480', ( #268, #35, #32 ), #348 ) ;
#124 = ORIENTED_EDGE ( 'NONE', *, *, #254, .T. ) ;
#125 = EDGE_CURVE ( 'NONE', #126, #119, #333, .T. ) ;
#126 = VERTEX_POINT ( 'NONE', #248 ) ;
#127 = CARTESIAN_POINT ( 'NONE',  ( 0.000000000000000000, 0.000000000000000000, 0.000000000000000000 ) ) ;
#128 = AXIS2_PLACEMENT_3D ( 'NONE', #49, #24, #165 ) ;
#129 = DIRECTION ( 'NONE',  ( 0.000000000000000000, 1.000000000000000000, 0.000000000000000000 ) ) ;
#130 = APPROVAL_DATE_TIME ( #21, #3 ) ;
#131 = DIRECTION ( 'NONE',  ( 1.000000000000000000, 1.530808498934191509E-17, -0.000000000000000000 ) ) ;
#132 = CALENDAR_DATE ( 2022, 31, 5 ) ;
#133 = DIRECTION ( 'NONE',  ( 1.000000000000000000, 1.530808498934191509E-17, -0.000000000000000000 ) ) ;
#134 = DIRECTION ( 'NONE',  ( 0.000000000000000000, 0.000000000000000000, 1.000000000000000000 ) ) ;
#135 = EDGE_CURVE ( 'NONE', #179, #36, #202, .T. ) ;
#136 = LINE ( 'NONE', #100, #196 ) ;
#137 = CC_DESIGN_APPROVAL ( #173, ( #298 ) ) ;
#138 = DATE_AND_TIME ( #275, #233 ) ;
#139 = DIRECTION ( 'NONE',  ( 0.000000000000000000, 1.000000000000000000, 0.000000000000000000 ) ) ;
#140 = EDGE_CURVE ( 'NONE', #236, #119, #136, .T. ) ;
#141 = CARTESIAN_POINT ( 'NONE',  ( -4.336808689942017736E-16, 4.999999999999991118, 0.000000000000000000 ) ) ;
#142 = DIRECTION ( 'NONE',  ( 1.000000000000000000, 1.224646799147353207E-16, -0.000000000000000000 ) ) ;
#143 = CARTESIAN_POINT ( 'NONE',  ( -1.000000000000000888, 0.000000000000000000, 0.000000000000000000 ) ) ;
#144 = FACE_OUTER_BOUND ( 'NONE', #294, .T. ) ;
#145 = CARTESIAN_POINT ( 'NONE',  ( -71.99999999999998579, -6.000000000000007105, 7.347880794884119736E-16 ) ) ;
#146 = AXIS2_PLACEMENT_3D ( 'NONE', #222, #354, #153 ) ;
#147 = CLOSED_SHELL ( 'NONE', ( #14, #357, #162, #302, #261, #218 ) ) ;
#148 = VERTEX_POINT ( 'NONE', #104 ) ;
#149 = EDGE_LOOP ( 'NONE', ( #295, #292, #93, #323 ) ) ;
#150 = ORIENTED_EDGE ( 'NONE', *, *, #125, .F. ) ;
#151 = VERTEX_POINT ( 'NONE', #329 ) ;
#152 = EDGE_LOOP ( 'NONE', ( #178, #42, #300, #67 ) ) ;
#153 = DIRECTION ( 'NONE',  ( -1.530808498934191509E-17, 1.000000000000000000, 0.000000000000000000 ) ) ;
#154 = COORDINATED_UNIVERSAL_TIME_OFFSET ( 1, 0, .AHEAD. ) ;
#155 = CIRCLE ( 'NONE', #128, 4.999999999999999112 ) ;
#156 = CC_DESIGN_APPROVAL ( #3, ( #182 ) ) ;
#157 = LOCAL_TIME ( 16, 9, 5.000000000000000000, #79 ) ;
#158 = DIRECTION ( 'NONE',  ( 0.000000000000000000, 1.000000000000000000, 0.000000000000000000 ) ) ;
#159 = APPLICATION_PROTOCOL_DEFINITION ( 'international standard', 'config_control_design', 1994, #9 ) ;
#160 = CYLINDRICAL_SURFACE ( 'NONE', #146, 5.999999999999991118 ) ;
#161 = CALENDAR_DATE ( 2022, 31, 5 ) ;
#162 = ADVANCED_FACE ( 'NONE', ( #73 ), #37, .T. ) ;
#163 = DIRECTION ( 'NONE',  ( 0.000000000000000000, 1.000000000000000000, 0.000000000000000000 ) ) ;
#164 = PERSON_AND_ORGANIZATION_ROLE ( 'design_supplier' ) ;
#165 = DIRECTION ( 'NONE',  ( 0.000000000000000000, 1.000000000000000000, 0.000000000000000000 ) ) ;
#166 = VECTOR ( 'NONE', #306, 999.9999999999998863 ) ;
#167 = APPROVAL_ROLE ( '' ) ;
#168 = DIRECTION ( 'NONE',  ( 1.000000000000000000, 1.530808498934191509E-17, -0.000000000000000000 ) ) ;
#169 = DIRECTION ( 'NONE',  ( 1.000000000000000000, 1.530808498934191509E-17, -0.000000000000000000 ) ) ;
#170 = CARTESIAN_POINT ( 'NONE',  ( -16.00000000000000000, -2.449293598294706414E-16, 0.000000000000000000 ) ) ;
#171 = TOROIDAL_SURFACE ( 'NONE', #1, 4.999999999999991118, 1.000000000000000222 ) ;
#172 = FACE_OUTER_BOUND ( 'NONE', #149, .T. ) ;
#173 = APPROVAL ( #249, 'UNSPECIFIED' ) ;
#174 = CARTESIAN_POINT ( 'NONE',  ( -71.99999999999998579, -7.102951435054646482E-15, 0.000000000000000000 ) ) ;
#175 = ORIENTED_EDGE ( 'NONE', *, *, #125, .T. ) ;
#176 = CONICAL_SURFACE ( 'NONE', #20, 5.999999999999999112, 0.7853981633974479459 ) ;
#177 = ADVANCED_FACE ( 'NONE', ( #60 ), #171, .T. ) ;
#178 = ORIENTED_EDGE ( 'NONE', *, *, #314, .F. ) ;
#179 = VERTEX_POINT ( 'NONE', #231 ) ;
#180 = ORIENTED_EDGE ( 'NONE', *, *, #245, .F. ) ;
#181 = AXIS2_PLACEMENT_3D ( 'NONE', #190, #29, #361 ) ;
#182 = SECURITY_CLASSIFICATION ( '', '', #332 ) ;
#183 = ORIENTED_EDGE ( 'NONE', *, *, #101, .F. ) ;
#184 = DIRECTION ( 'NONE',  ( 1.000000000000000000, 1.530808498934191509E-17, -0.000000000000000000 ) ) ;
#185 = APPROVAL_STATUS ( 'not_yet_approved' ) ;
#186 = CARTESIAN_POINT ( 'NONE',  ( -16.00000000000000000, -2.449293598294705428E-16, 0.000000000000000000 ) ) ;
#187 = ORGANIZATION ( 'UNSPECIFIED', 'UNSPECIFIED', '' ) ;
#188 = PLANE ( 'NONE',  #324 ) ;
#189 = PERSON_AND_ORGANIZATION_ROLE ( 'design_owner' ) ;
#190 = CARTESIAN_POINT ( 'NONE',  ( -16.00000000000000000, -2.449293598294706414E-16, 0.000000000000000000 ) ) ;
#191 = PERSON ( 'UNSPECIFIED', 'UNSPECIFIED', 'UNSPECIFIED', ('UNSPECIFIED'), ('UNSPECIFIED'), ('UNSPECIFIED') ) ;
#192 = CARTESIAN_POINT ( 'NONE',  ( -9.184850993605136112E-17, 5.999999999999991118, 0.000000000000000000 ) ) ;
#193 = DATE_AND_TIME ( #50, #157 ) ;
#194 = AXIS2_PLACEMENT_3D ( 'NONE', #308, #133, #158 ) ;
#195 = DIRECTION ( 'NONE',  ( 0.000000000000000000, -1.000000000000000000, 1.224646799147353454E-16 ) ) ;
#196 = VECTOR ( 'NONE', #215, 1000.000000000000000 ) ;
#197 = CYLINDRICAL_SURFACE ( 'NONE', #232, 5.999999999999995559 ) ;
#198 = CARTESIAN_POINT ( 'NONE',  ( -16.00000000000000000, -5.999999999999995559, 7.347880794884114806E-16 ) ) ;
#199 = ORIENTED_EDGE ( 'NONE', *, *, #10, .F. ) ;
#200 = PLANE ( 'NONE',  #89 ) ;
#201 = PRODUCT_DEFINITION ( 'UNKNOWN', '', #298, #210 ) ;
#202 = CIRCLE ( 'NONE', #221, 5.999999999999991118 ) ;
#203 = APPROVAL_PERSON_ORGANIZATION ( #102, #3, #45 ) ;
#204 = LINE ( 'NONE', #321, #339 ) ;
#205 = DIRECTION ( 'NONE',  ( -1.000000000000000000, 0.000000000000000000, 0.000000000000000000 ) ) ;
#206 = UNCERTAINTY_MEASURE_WITH_UNIT (LENGTH_MEASURE( 1.000000000000000082E-05 ), #322, 'distance_accuracy_value', 'NONE');
#207 = EDGE_CURVE ( 'NONE', #325, #151, #280, .T. ) ;
#208 = ORIENTED_EDGE ( 'NONE', *, *, #28, .T. ) ;
#209 = AXIS2_PLACEMENT_3D ( 'NONE', #4, #142, #83 ) ;
#210 = DESIGN_CONTEXT ( 'detailed design', #9, 'design' ) ;
#211 = VERTEX_POINT ( 'NONE', #255 ) ;
#212 = ORIENTED_EDGE ( 'NONE', *, *, #284, .T. ) ;
#213 = ADVANCED_FACE ( 'NONE', ( #259 ), #87, .T. ) ;
#214 = AXIS2_PLACEMENT_3D ( 'NONE', #313, #57, #31 ) ;
#215 = DIRECTION ( 'NONE',  ( 1.000000000000000000, 1.224646799147353207E-16, -0.000000000000000000 ) ) ;
#216 = EDGE_LOOP ( 'NONE', ( #18, #269, #326, #13 ) ) ;
#217 = APPROVAL_DATE_TIME ( #241, #68 ) ;
#218 = ADVANCED_FACE ( 'NONE', ( #144 ), #200, .T. ) ;
#219 = ORIENTED_EDGE ( 'NONE', *, *, #62, .F. ) ;
#220 = APPROVAL_ROLE ( '' ) ;
#221 = AXIS2_PLACEMENT_3D ( 'NONE', #278, #26, #139 ) ;
#222 = CARTESIAN_POINT ( 'NONE',  ( 0.000000000000000000, 0.000000000000000000, 0.000000000000000000 ) ) ;
#223 = PRODUCT_RELATED_PRODUCT_CATEGORY ( 'detail', '', ( #15 ) ) ;
#224 = CARTESIAN_POINT ( 'NONE',  ( -72.99999999999998579, -5.000000000000006217, 6.735557395310443009E-16 ) ) ;
#225 = APPROVAL_STATUS ( 'not_yet_approved' ) ;
#226 = CARTESIAN_POINT ( 'NONE',  ( -71.99999999999998579, -7.102951435054646482E-15, 0.000000000000000000 ) ) ;
#227 = VECTOR ( 'NONE', #113, 1000.000000000000000 ) ;
#228 = DIRECTION ( 'NONE',  ( 1.000000000000000000, 1.224646799147353207E-16, -0.000000000000000000 ) ) ;
#229 = CARTESIAN_POINT ( 'NONE',  ( -16.00000000000000000, -5.999999999999992895, 7.347880794884110861E-16 ) ) ;
#230 = ORIENTED_EDGE ( 'NONE', *, *, #290, .T. ) ;
#231 = CARTESIAN_POINT ( 'NONE',  ( -1.000000000000000888, -5.999999999999991118, 7.347880794884108889E-16 ) ) ;
#232 = AXIS2_PLACEMENT_3D ( 'NONE', #170, #112, #283 ) ;
#233 = LOCAL_TIME ( 16, 9, 5.000000000000000000, #279 ) ;
#234 = CARTESIAN_POINT ( 'NONE',  ( -16.00000000000000000, -2.449293598294706414E-16, 0.000000000000000000 ) ) ;
#235 = ORIENTED_EDGE ( 'NONE', *, *, #109, .F. ) ;
#236 = VERTEX_POINT ( 'NONE', #289 ) ;
#237 = APPROVAL_PERSON_ORGANIZATION ( #111, #68, #167 ) ;
#238 = ORIENTED_EDGE ( 'NONE', *, *, #120, .F. ) ;
#239 = CC_DESIGN_DATE_AND_TIME_ASSIGNMENT ( #193, #23, ( #201 ) ) ;
#240 = ORIENTED_EDGE ( 'NONE', *, *, #207, .T. ) ;
#241 = DATE_AND_TIME ( #132, #59 ) ;
#242 = AXIS2_PLACEMENT_3D ( 'NONE', #234, #346, #8 ) ;
#243 = CLOSED_SHELL ( 'NONE', ( #213, #247, #177, #84, #365, #17 ) ) ;
#244 = DIRECTION ( 'NONE',  ( 0.000000000000000000, 1.000000000000000000, 0.000000000000000000 ) ) ;
#245 = EDGE_CURVE ( 'NONE', #119, #126, #12, .T. ) ;
#246 = SHAPE_DEFINITION_REPRESENTATION ( #270, #123 ) ;
#247 = ADVANCED_FACE ( 'NONE', ( #172 ), #41, .T. ) ;
#248 = CARTESIAN_POINT ( 'NONE',  ( -16.00000000000000000, -5.999999999999992006, 7.347880794884111847E-16 ) ) ;
#249 = APPROVAL_STATUS ( 'not_yet_approved' ) ;
#250 = DIRECTION ( 'NONE',  ( 1.000000000000000000, 1.224646799147353207E-16, -0.000000000000000000 ) ) ;
#251 = DIRECTION ( 'NONE',  ( 1.000000000000000000, 0.000000000000000000, 0.000000000000000000 ) ) ;
#252 = AXIS2_PLACEMENT_3D ( 'NONE', #276, #356, #47 ) ;
#253 = CYLINDRICAL_SURFACE ( 'NONE', #181, 5.999999999999995559 ) ;
#254 = EDGE_CURVE ( 'NONE', #359, #126, #260, .T. ) ;
#255 = CARTESIAN_POINT ( 'NONE',  ( -16.00000000000000000, 5.999999999999992006, 0.000000000000000000 ) ) ;
#256 = LINE ( 'NONE', #364, #227 ) ;
#257 = CIRCLE ( 'NONE', #194, 5.999999999999991118 ) ;
#258 = DIRECTION ( 'NONE',  ( 1.000000000000000000, 1.224646799147353207E-16, -0.000000000000000000 ) ) ;
#259 = FACE_OUTER_BOUND ( 'NONE', #95, .T. ) ;
#260 = LINE ( 'NONE', #198, #327 ) ;
#261 = ADVANCED_FACE ( 'NONE', ( #91 ), #197, .T. ) ;
#262 = FACE_OUTER_BOUND ( 'NONE', #11, .T. ) ;
#263 = ORIENTED_EDGE ( 'NONE', *, *, #120, .T. ) ;
#264 = VERTEX_POINT ( 'NONE', #229 ) ;
#265 = CC_DESIGN_APPROVAL ( #68, ( #201 ) ) ;
#266 = LOCAL_TIME ( 16, 9, 5.000000000000000000, #301 ) ;
#267 = CC_DESIGN_PERSON_AND_ORGANIZATION_ASSIGNMENT ( #311, #189, ( #15 ) ) ;
#268 = MANIFOLD_SOLID_BREP ( 'Révolution1', #147 ) ;
#269 = ORIENTED_EDGE ( 'NONE', *, *, #105, .T. ) ;
#270 = PRODUCT_DEFINITION_SHAPE ( 'NONE', 'NONE',  #201 ) ;
#271 = CARTESIAN_POINT ( 'NONE',  ( -16.00000000000000000, -2.449293598294706414E-16, 0.000000000000000000 ) ) ;
#272 = CALENDAR_DATE ( 2022, 31, 5 ) ;
#273 = VECTOR ( 'NONE', #131, 1000.000000000000000 ) ;
#274 = ORIENTED_EDGE ( 'NONE', *, *, #254, .F. ) ;
#275 = CALENDAR_DATE ( 2022, 31, 5 ) ;
#276 = CARTESIAN_POINT ( 'NONE',  ( -3.571404440474923060E-16, -5.467136270610323411E-33, 0.000000000000000000 ) ) ;
#277 =( NAMED_UNIT ( * ) SI_UNIT ( $, .STERADIAN. ) SOLID_ANGLE_UNIT ( ) );
#278 = CARTESIAN_POINT ( 'NONE',  ( -1.000000000000000888, -1.530808498934193050E-17, 0.000000000000000000 ) ) ;
#279 = COORDINATED_UNIVERSAL_TIME_OFFSET ( 1, 0, .AHEAD. ) ;
#280 = CIRCLE ( 'NONE', #81, 4.999999999999991118 ) ;
#281 = CARTESIAN_POINT ( 'NONE',  ( -1.000000000000000888, 5.999999999999991118, 0.000000000000000000 ) ) ;
#282 = PERSON_AND_ORGANIZATION ( #191, #187 ) ;
#283 = DIRECTION ( 'NONE',  ( 0.000000000000000000, 1.000000000000000000, 0.000000000000000000 ) ) ;
#284 = EDGE_CURVE ( 'NONE', #264, #179, #204, .T. ) ;
#285 = AXIS2_PLACEMENT_3D ( 'NONE', #315, #56, #2 ) ;
#286 = CARTESIAN_POINT ( 'NONE',  ( -3.571404440474923060E-16, -5.467136270610323411E-33, 0.000000000000000000 ) ) ;
#287 = ORIENTED_EDGE ( 'NONE', *, *, #105, .F. ) ;
#288 = DIRECTION ( 'NONE',  ( -1.530808498934191817E-17, 1.000000000000000000, 0.000000000000000000 ) ) ;
#289 = CARTESIAN_POINT ( 'NONE',  ( -71.99999999999998579, 5.999999999999991118, 0.000000000000000000 ) ) ;
#290 = EDGE_CURVE ( 'NONE', #359, #236, #94, .T. ) ;
#291 = PLANE ( 'NONE',  #242 ) ;
#292 = ORIENTED_EDGE ( 'NONE', *, *, #314, .T. ) ;
#293 = AXIS2_PLACEMENT_3D ( 'NONE', #74, #336, #106 ) ;
#294 = EDGE_LOOP ( 'NONE', ( #349, #175 ) ) ;
#295 = ORIENTED_EDGE ( 'NONE', *, *, #101, .T. ) ;
#296 = EDGE_LOOP ( 'NONE', ( #58, #235 ) ) ;
#297 = AXIS2_PLACEMENT_3D ( 'NONE', #174, #258, #341 ) ;
#298 = PRODUCT_DEFINITION_FORMATION_WITH_SPECIFIED_SOURCE ( 'ANY', '', #15, .NOT_KNOWN. ) ;
#299 = EDGE_LOOP ( 'NONE', ( #208, #317, #199, #219 ) ) ;
#300 = ORIENTED_EDGE ( 'NONE', *, *, #358, .T. ) ;
#301 = COORDINATED_UNIVERSAL_TIME_OFFSET ( 1, 0, .AHEAD. ) ;
#302 = ADVANCED_FACE ( 'NONE', ( #85 ), #176, .T. ) ;
#303 = DIRECTION ( 'NONE',  ( 0.000000000000000000, 1.000000000000000000, 0.000000000000000000 ) ) ;
#304 = PERSON_AND_ORGANIZATION_ROLE ( 'classification_officer' ) ;
#305 = CIRCLE ( 'NONE', #352, 5.999999999999992006 ) ;
#306 = DIRECTION ( 'NONE',  ( 0.7071067811865477948, 0.7071067811865473507, 0.000000000000000000 ) ) ;
#307 = PERSON_AND_ORGANIZATION ( #191, #187 ) ;
#308 = CARTESIAN_POINT ( 'NONE',  ( -1.000000000000000888, -1.530808498934193050E-17, 0.000000000000000000 ) ) ;
#309 = PERSON_AND_ORGANIZATION_ROLE ( 'creator' ) ;
#310 = CARTESIAN_POINT ( 'NONE',  ( -16.00000000000000000, -2.449293598294706414E-16, 0.000000000000000000 ) ) ;
#311 = PERSON_AND_ORGANIZATION ( #191, #187 ) ;
#312 = CONICAL_SURFACE ( 'NONE', #285, 5.999999999999999112, 0.7853981633974479459 ) ;
#313 = CARTESIAN_POINT ( 'NONE',  ( 0.000000000000000000, 0.000000000000000000, 0.000000000000000000 ) ) ;
#314 = EDGE_CURVE ( 'NONE', #179, #151, #53, .T. ) ;
#315 = CARTESIAN_POINT ( 'NONE',  ( -71.99999999999998579, -7.102951435054646482E-15, 0.000000000000000000 ) ) ;
#316 = DIRECTION ( 'NONE',  ( 1.000000000000000000, 1.224646799147353207E-16, -0.000000000000000000 ) ) ;
#317 = ORIENTED_EDGE ( 'NONE', *, *, #338, .T. ) ;
#318 = CC_DESIGN_PERSON_AND_ORGANIZATION_ASSIGNMENT ( #282, #164, ( #298 ) ) ;
#319 = AXIS2_PLACEMENT_3D ( 'NONE', #71, #22, #303 ) ;
#320 = DIRECTION ( 'NONE',  ( -1.224646799147353207E-16, 1.000000000000000000, 0.000000000000000000 ) ) ;
#321 = CARTESIAN_POINT ( 'NONE',  ( 9.184850993605136112E-17, -5.999999999999991118, 7.347880794884108889E-16 ) ) ;
#322 =( LENGTH_UNIT ( ) NAMED_UNIT ( * ) SI_UNIT ( .MILLI., .METRE. ) );
#323 = ORIENTED_EDGE ( 'NONE', *, *, #358, .F. ) ;
#324 = AXIS2_PLACEMENT_3D ( 'NONE', #46, #76, #334 ) ;
#325 = VERTEX_POINT ( 'NONE', #141 ) ;
#326 = ORIENTED_EDGE ( 'NONE', *, *, #96, .T. ) ;
#327 = VECTOR ( 'NONE', #316, 1000.000000000000000 ) ;
#328 = EDGE_LOOP ( 'NONE', ( #64, #124, #180, #347 ) ) ;
#329 = CARTESIAN_POINT ( 'NONE',  ( -2.806000191007828877E-16, -4.999999999999991118, 6.735557395310431176E-16 ) ) ;
#330 = APPROVAL_DATE_TIME ( #353, #173 ) ;
#331 = FACE_OUTER_BOUND ( 'NONE', #328, .T. ) ;
#332 = SECURITY_CLASSIFICATION_LEVEL ( 'unclassified' ) ;
#333 = CIRCLE ( 'NONE', #360, 5.999999999999992006 ) ;
#334 = DIRECTION ( 'NONE',  ( -1.530808498934191509E-17, 1.000000000000000000, 0.000000000000000000 ) ) ;
#335 = PERSON_AND_ORGANIZATION ( #191, #187 ) ;
#336 = DIRECTION ( 'NONE',  ( 1.000000000000000000, 1.224646799147353207E-16, -0.000000000000000000 ) ) ;
#337 = CARTESIAN_POINT ( 'NONE',  ( -1.000000000000000888, -4.999999999999991118, 6.123233995736755436E-16 ) ) ;
#338 = EDGE_CURVE ( 'NONE', #70, #359, #256, .T. ) ;
#339 = VECTOR ( 'NONE', #61, 1000.000000000000000 ) ;
#340 = FACE_OUTER_BOUND ( 'NONE', #299, .T. ) ;
#341 = DIRECTION ( 'NONE',  ( 0.000000000000000000, 1.000000000000000000, 0.000000000000000000 ) ) ;
#342 = CARTESIAN_POINT ( 'NONE',  ( -72.99999999999998579, -7.225416114969381630E-15, 0.000000000000000000 ) ) ;
#343 = CIRCLE ( 'NONE', #252, 4.999999999999991118 ) ;
#344 = LOCAL_TIME ( 16, 9, 5.000000000000000000, #154 ) ;
#345 = DIRECTION ( 'NONE',  ( -1.530808498934191509E-17, 1.000000000000000000, 0.000000000000000000 ) ) ;
#346 = DIRECTION ( 'NONE',  ( -1.000000000000000000, -1.530808498934191509E-17, 0.000000000000000000 ) ) ;
#347 = ORIENTED_EDGE ( 'NONE', *, *, #140, .F. ) ;
#348 =( GEOMETRIC_REPRESENTATION_CONTEXT ( 3 ) GLOBAL_UNCERTAINTY_ASSIGNED_CONTEXT ( ( #206 ) ) GLOBAL_UNIT_ASSIGNED_CONTEXT ( ( #322, #48, #277 ) ) REPRESENTATION_CONTEXT ( 'NONE', 'WORKASPACE' ) );
#349 = ORIENTED_EDGE ( 'NONE', *, *, #245, .T. ) ;
#350 = CC_DESIGN_DATE_AND_TIME_ASSIGNMENT ( #138, #355, ( #182 ) ) ;
#351 = CARTESIAN_POINT ( 'NONE',  ( -16.00000000000000000, 5.999999999999992006, 0.000000000000000000 ) ) ;
#352 = AXIS2_PLACEMENT_3D ( 'NONE', #271, #19, #244 ) ;
#353 = DATE_AND_TIME ( #161, #266 ) ;
#354 = DIRECTION ( 'NONE',  ( 1.000000000000000000, 1.530808498934191509E-17, -0.000000000000000000 ) ) ;
#355 = DATE_TIME_ROLE ( 'classification_date' ) ;
#356 = DIRECTION ( 'NONE',  ( 1.000000000000000000, 1.530808498934191509E-17, -0.000000000000000000 ) ) ;
#357 = ADVANCED_FACE ( 'NONE', ( #340 ), #312, .T. ) ;
#358 = EDGE_CURVE ( 'NONE', #36, #325, #38, .T. ) ;
#359 = VERTEX_POINT ( 'NONE', #145 ) ;
#360 = AXIS2_PLACEMENT_3D ( 'NONE', #186, #250, #163 ) ;
#361 = DIRECTION ( 'NONE',  ( 0.000000000000000000, 1.000000000000000000, 0.000000000000000000 ) ) ;
#362 = APPLICATION_PROTOCOL_DEFINITION ( 'international standard', 'config_control_design', 1994, #103 ) ;
#363 = DIRECTION ( 'NONE',  ( 1.000000000000000000, 1.224646799147353207E-16, -0.000000000000000000 ) ) ;
#364 = CARTESIAN_POINT ( 'NONE',  ( -71.99999999999998579, -6.000000000000006217, 7.347880794884118750E-16 ) ) ;
#365 = ADVANCED_FACE ( 'NONE', ( #262 ), #291, .T. ) ;
ENDSEC;
END-ISO-10303-21;
