ISO-10303-21;
HEADER;
FILE_DESCRIPTION (( 'STEP AP203' ),
    '1' );
FILE_NAME ('387472387479.step',
    '2022-05-31T14:09:05',
    ( '' ),
    ( '' ),
    'SwSTEP 2.0',
    'SolidWorks 2019',
    '' );
FILE_SCHEMA (( 'CONFIG_CONTROL_DESIGN' ));
ENDSEC;

DATA;
#1 = ORIENTED_EDGE ( 'NONE', *, *, #151, .F. ) ;
#2 = AXIS2_PLACEMENT_3D ( 'NONE', #257, #275, #347 ) ;
#3 = CONICAL_SURFACE ( 'NONE', #99, 5.999999999999999112, 0.7853981633974479459 ) ;
#4 = EDGE_CURVE ( 'NONE', #228, #310, #348, .T. ) ;
#5 = CARTESIAN_POINT ( 'NONE',  ( -16.00000000000000000, -5.999999999999992006, 7.347880794884111847E-16 ) ) ;
#6 = EDGE_LOOP ( 'NONE', ( #153, #277, #172, #221 ) ) ;
#7 = ORIENTED_EDGE ( 'NONE', *, *, #196, .F. ) ;
#8 = EDGE_CURVE ( 'NONE', #194, #67, #363, .T. ) ;
#9 = DIRECTION ( 'NONE',  ( 1.000000000000000000, 1.530808498934191509E-17, -0.000000000000000000 ) ) ;
#10 = ORIENTED_EDGE ( 'NONE', *, *, #8, .T. ) ;
#11 = EDGE_LOOP ( 'NONE', ( #279, #43, #307, #150 ) ) ;
#12 = PLANE ( 'NONE',  #271 ) ;
#13 = ORIENTED_EDGE ( 'NONE', *, *, #157, .T. ) ;
#14 = ORIENTED_EDGE ( 'NONE', *, *, #73, .F. ) ;
#15 = DIRECTION ( 'NONE',  ( 1.000000000000000000, 1.224646799147353207E-16, -0.000000000000000000 ) ) ;
#16 = AXIS2_PLACEMENT_3D ( 'NONE', #89, #9, #309 ) ;
#17 = APPROVAL_STATUS ( 'not_yet_approved' ) ;
#18 = CLOSED_SHELL ( 'NONE', ( #33, #139, #116, #87, #242, #299 ) ) ;
#19 = PERSON_AND_ORGANIZATION ( #281, #326 ) ;
#20 = AXIS2_PLACEMENT_3D ( 'NONE', #166, #244, #56 ) ;
#21 = DATE_TIME_ROLE ( 'creation_date' ) ;
#22 = EDGE_CURVE ( 'NONE', #332, #312, #60, .T. ) ;
#23 = CALENDAR_DATE ( 2022, 31, 5 ) ;
#24 = DIRECTION ( 'NONE',  ( 1.000000000000000000, 1.224646799147353207E-16, -0.000000000000000000 ) ) ;
#25 = DIRECTION ( 'NONE',  ( -1.000000000000000000, -1.530808498934191509E-17, 0.000000000000000000 ) ) ;
#26 = CARTESIAN_POINT ( 'NONE',  ( 0.000000000000000000, 0.000000000000000000, 0.000000000000000000 ) ) ;
#27 = FACE_OUTER_BOUND ( 'NONE', #85, .T. ) ;
#28 = ADVANCED_FACE ( 'NONE', ( #81 ), #292, .T. ) ;
#29 = APPLICATION_CONTEXT ( 'configuration controlled 3d designs of mechanical parts and assemblies' ) ;
#30 = ORIENTED_EDGE ( 'NONE', *, *, #113, .T. ) ;
#31 = CARTESIAN_POINT ( 'NONE',  ( -0.5000000000000002220, 0.000000000000000000, 0.000000000000000000 ) ) ;
#32 = MANIFOLD_SOLID_BREP ( 'Révolution2', #209 ) ;
#33 = ADVANCED_FACE ( 'NONE', ( #135 ), #78, .T. ) ;
#34 = VECTOR ( 'NONE', #337, 1000.000000000000000 ) ;
#35 = APPROVAL_PERSON_ORGANIZATION ( #315, #90, #71 ) ;
#36 = CARTESIAN_POINT ( 'NONE',  ( -3.131477768420663157E-16, 5.499999999999992895, 0.000000000000000000 ) ) ;
#37 = ADVANCED_FACE ( 'NONE', ( #111 ), #197, .T. ) ;
#38 = AXIS2_PLACEMENT_3D ( 'NONE', #241, #195, #365 ) ;
#39 = LINE ( 'NONE', #341, #34 ) ;
#40 = VERTEX_POINT ( 'NONE', #107 ) ;
#41 = ORIENTED_EDGE ( 'NONE', *, *, #184, .T. ) ;
#42 = LINE ( 'NONE', #94, #205 ) ;
#43 = ORIENTED_EDGE ( 'NONE', *, *, #151, .T. ) ;
#44 = ORIENTED_EDGE ( 'NONE', *, *, #210, .F. ) ;
#45 = DIRECTION ( 'NONE',  ( 1.000000000000000000, 1.224646799147353207E-16, -0.000000000000000000 ) ) ;
#46 = EDGE_CURVE ( 'NONE', #40, #312, #58, .T. ) ;
#47 = PERSON_AND_ORGANIZATION_ROLE ( 'creator' ) ;
#48 = MECHANICAL_CONTEXT ( 'NONE', #29, 'mechanical' ) ;
#49 = CC_DESIGN_DATE_AND_TIME_ASSIGNMENT ( #350, #21, ( #123 ) ) ;
#50 = APPROVAL_DATE_TIME ( #286, #282 ) ;
#51 = APPROVAL_DATE_TIME ( #181, #90 ) ;
#52 = DIRECTION ( 'NONE',  ( 0.000000000000000000, 1.000000000000000000, 0.000000000000000000 ) ) ;
#53 = DIRECTION ( 'NONE',  ( -1.530808498934191509E-17, 1.000000000000000000, 0.000000000000000000 ) ) ;
#54 = DIRECTION ( 'NONE',  ( -0.000000000000000000, 0.000000000000000000, -1.000000000000000000 ) ) ;
#55 = DIRECTION ( 'NONE',  ( -1.000000000000000000, 0.000000000000000000, 0.000000000000000000 ) ) ;
#56 = DIRECTION ( 'NONE',  ( 0.000000000000000000, 1.000000000000000000, 0.000000000000000000 ) ) ;
#57 = EDGE_CURVE ( 'NONE', #312, #40, #359, .T. ) ;
#58 = CIRCLE ( 'NONE', #168, 5.499999999999992895 ) ;
#59 = DIRECTION ( 'NONE',  ( 1.000000000000000000, 1.224646799147353207E-16, -0.000000000000000000 ) ) ;
#60 = CIRCLE ( 'NONE', #294, 0.4999999999999995559 ) ;
#61 = CARTESIAN_POINT ( 'NONE',  ( 9.184850993605137344E-17, -5.999999999999992006, 7.347880794884109875E-16 ) ) ;
#62 = VERTEX_POINT ( 'NONE', #5 ) ;
#63 = EDGE_LOOP ( 'NONE', ( #268, #142, #204, #339 ) ) ;
#64 = AXIS2_PLACEMENT_3D ( 'NONE', #112, #220, #328 ) ;
#65 = CARTESIAN_POINT ( 'NONE',  ( -71.99999999999998579, -7.102951435054646482E-15, 0.000000000000000000 ) ) ;
#66 = ORIENTED_EDGE ( 'NONE', *, *, #274, .F. ) ;
#67 = VERTEX_POINT ( 'NONE', #344 ) ;
#68 = DIRECTION ( 'NONE',  ( 0.7071067811865477948, 0.7071067811865473507, 0.000000000000000000 ) ) ;
#69 = CC_DESIGN_DATE_AND_TIME_ASSIGNMENT ( #285, #158, ( #170 ) ) ;
#70 = APPROVAL_PERSON_ORGANIZATION ( #234, #282, #104 ) ;
#71 = APPROVAL_ROLE ( '' ) ;
#72 = CALENDAR_DATE ( 2022, 31, 5 ) ;
#73 = EDGE_CURVE ( 'NONE', #228, #67, #42, .T. ) ;
#74 = COORDINATED_UNIVERSAL_TIME_OFFSET ( 1, 0, .AHEAD. ) ;
#75 = CARTESIAN_POINT ( 'NONE',  ( -16.00000000000000000, -5.999999999999992006, 7.347880794884109875E-16 ) ) ;
#76 = COORDINATED_UNIVERSAL_TIME_OFFSET ( 1, 0, .AHEAD. ) ;
#77 = AXIS2_PLACEMENT_3D ( 'NONE', #273, #15, #146 ) ;
#78 = CYLINDRICAL_SURFACE ( 'NONE', #231, 5.999999999999995559 ) ;
#79 =( NAMED_UNIT ( * ) PLANE_ANGLE_UNIT ( ) SI_UNIT ( $, .RADIAN. ) );
#80 = CC_DESIGN_PERSON_AND_ORGANIZATION_ASSIGNMENT ( #237, #261, ( #207 ) ) ;
#81 = FACE_OUTER_BOUND ( 'NONE', #225, .T. ) ;
#82 = CARTESIAN_POINT ( 'NONE',  ( -16.00000000000000000, -2.449293598294705428E-16, 0.000000000000000000 ) ) ;
#83 = LOCAL_TIME ( 16, 9, 5.000000000000000000, #317 ) ;
#84 = VECTOR ( 'NONE', #251, 1000.000000000000000 ) ;
#85 = EDGE_LOOP ( 'NONE', ( #203, #329, #96, #154 ) ) ;
#86 = FACE_OUTER_BOUND ( 'NONE', #95, .T. ) ;
#87 = ADVANCED_FACE ( 'NONE', ( #98 ), #126, .T. ) ;
#88 = EDGE_LOOP ( 'NONE', ( #66, #1 ) ) ;
#89 = CARTESIAN_POINT ( 'NONE',  ( -4.579066188013718026E-16, -7.009673437793589419E-33, 0.000000000000000000 ) ) ;
#90 = APPROVAL ( #17, 'UNSPECIFIED' ) ;
#91 = DIRECTION ( 'NONE',  ( 1.000000000000000000, 1.224646799147353207E-16, -0.000000000000000000 ) ) ;
#92 = ORIENTED_EDGE ( 'NONE', *, *, #4, .T. ) ;
#93 = EDGE_LOOP ( 'NONE', ( #178, #122 ) ) ;
#94 = CARTESIAN_POINT ( 'NONE',  ( -71.99999999999998579, 5.999999999999992006, 0.000000000000000000 ) ) ;
#95 = EDGE_LOOP ( 'NONE', ( #44, #10, #30, #276 ) ) ;
#96 = ORIENTED_EDGE ( 'NONE', *, *, #327, .T. ) ;
#97 = VECTOR ( 'NONE', #362, 1000.000000000000000 ) ;
#98 = FACE_OUTER_BOUND ( 'NONE', #256, .T. ) ;
#99 = AXIS2_PLACEMENT_3D ( 'NONE', #65, #91, #199 ) ;
#100 = EDGE_CURVE ( 'NONE', #332, #308, #346, .T. ) ;
#101 = PRODUCT_DEFINITION_SHAPE ( 'NONE', 'NONE',  #123 ) ;
#102 = DIRECTION ( 'NONE',  ( 0.000000000000000000, 1.000000000000000000, 0.000000000000000000 ) ) ;
#103 = APPROVAL_PERSON_ORGANIZATION ( #284, #319, #106 ) ;
#104 = APPROVAL_ROLE ( '' ) ;
#105 = APPROVAL_STATUS ( 'not_yet_approved' ) ;
#106 = APPROVAL_ROLE ( '' ) ;
#107 = CARTESIAN_POINT ( 'NONE',  ( -5.421010862427522170E-16, 5.499999999999992895, 0.000000000000000000 ) ) ;
#108 = CARTESIAN_POINT ( 'NONE',  ( -72.99999999999998579, -5.000000000000006217, 6.735557395310443009E-16 ) ) ;
#109 = CIRCLE ( 'NONE', #333, 5.999999999999999112 ) ;
#110 = DIRECTION ( 'NONE',  ( 1.000000000000000000, 1.224646799147353207E-16, -0.000000000000000000 ) ) ;
#111 = FACE_OUTER_BOUND ( 'NONE', #6, .T. ) ;
#112 = CARTESIAN_POINT ( 'NONE',  ( -16.00000000000000000, -2.449293598294705921E-16, 0.000000000000000000 ) ) ;
#113 = EDGE_CURVE ( 'NONE', #67, #149, #39, .T. ) ;
#114 = CARTESIAN_POINT ( 'NONE',  ( -0.5000000000000003331, 5.999999999999992006, 0.000000000000000000 ) ) ;
#115 = AXIS2_PLACEMENT_3D ( 'NONE', #82, #239, #164 ) ;
#116 = ADVANCED_FACE ( 'NONE', ( #313 ), #305, .T. ) ;
#117 = DIRECTION ( 'NONE',  ( -1.530808498934191509E-17, 1.000000000000000000, 0.000000000000000000 ) ) ;
#118 = ORIENTED_EDGE ( 'NONE', *, *, #235, .T. ) ;
#119 = VERTEX_POINT ( 'NONE', #198 ) ;
#120 = CARTESIAN_POINT ( 'NONE',  ( -16.00000000000000000, -5.999999999999995559, 7.347880794884114806E-16 ) ) ;
#121 = ORIENTED_EDGE ( 'NONE', *, *, #184, .F. ) ;
#122 = ORIENTED_EDGE ( 'NONE', *, *, #57, .T. ) ;
#123 = PRODUCT_DEFINITION ( 'UNKNOWN', '', #349, #304 ) ;
#124 = CARTESIAN_POINT ( 'NONE',  ( -16.00000000000000000, 5.999999999999992006, 0.000000000000000000 ) ) ;
#125 = DIRECTION ( 'NONE',  ( 1.000000000000000000, 1.530808498934191509E-17, -0.000000000000000000 ) ) ;
#126 = CONICAL_SURFACE ( 'NONE', #77, 5.999999999999999112, 0.7853981633974479459 ) ;
#127 = CC_DESIGN_APPROVAL ( #282, ( #170 ) ) ;
#128 = SECURITY_CLASSIFICATION_LEVEL ( 'unclassified' ) ;
#129 = EDGE_CURVE ( 'NONE', #62, #149, #302, .T. ) ;
#130 = AXIS2_PLACEMENT_3D ( 'NONE', #31, #217, #325 ) ;
#131 = DIRECTION ( 'NONE',  ( 0.000000000000000000, 0.000000000000000000, 1.000000000000000000 ) ) ;
#132 = AXIS2_PLACEMENT_3D ( 'NONE', #26, #321, #361 ) ;
#133 = DIRECTION ( 'NONE',  ( 1.530808498934191509E-17, -1.000000000000000000, 0.000000000000000000 ) ) ;
#134 = ADVANCED_FACE ( 'NONE', ( #232 ), #12, .T. ) ;
#135 = FACE_OUTER_BOUND ( 'NONE', #63, .T. ) ;
#136 = CARTESIAN_POINT ( 'NONE',  ( -0.5000000000000002220, -7.654042494670962167E-18, 0.000000000000000000 ) ) ;
#137 = CARTESIAN_POINT ( 'NONE',  ( -16.00000000000000000, -2.449293598294706414E-16, 0.000000000000000000 ) ) ;
#138 = DIRECTION ( 'NONE',  ( 0.000000000000000000, 1.000000000000000000, 0.000000000000000000 ) ) ;
#139 = ADVANCED_FACE ( 'NONE', ( #179 ), #3, .T. ) ;
#140 = APPLICATION_CONTEXT ( 'configuration controlled 3d designs of mechanical parts and assemblies' ) ;
#141 = FACE_OUTER_BOUND ( 'NONE', #11, .T. ) ;
#142 = ORIENTED_EDGE ( 'NONE', *, *, #210, .T. ) ;
#143 = CIRCLE ( 'NONE', #352, 0.4999999999999996669 ) ;
#144 = VECTOR ( 'NONE', #169, 1000.000000000000000 ) ;
#145 = LOCAL_TIME ( 16, 9, 5.000000000000000000, #185 ) ;
#146 = DIRECTION ( 'NONE',  ( 0.000000000000000000, 1.000000000000000000, 0.000000000000000000 ) ) ;
#147 = VECTOR ( 'NONE', #227, 1000.000000000000000 ) ;
#148 = LINE ( 'NONE', #314, #84 ) ;
#149 = VERTEX_POINT ( 'NONE', #124 ) ;
#150 = ORIENTED_EDGE ( 'NONE', *, *, #100, .F. ) ;
#151 = EDGE_CURVE ( 'NONE', #253, #119, #258, .T. ) ;
#152 = DIRECTION ( 'NONE',  ( -1.807003620809176419E-17, 1.000000000000000000, 0.000000000000000000 ) ) ;
#153 = ORIENTED_EDGE ( 'NONE', *, *, #340, .T. ) ;
#154 = ORIENTED_EDGE ( 'NONE', *, *, #57, .F. ) ;
#155 = CARTESIAN_POINT ( 'NONE',  ( -16.00000000000000000, -2.449293598294706414E-16, 0.000000000000000000 ) ) ;
#156 = MANIFOLD_SOLID_BREP ( 'Révolution1', #18 ) ;
#157 = EDGE_CURVE ( 'NONE', #253, #332, #206, .T. ) ;
#158 = DATE_TIME_ROLE ( 'classification_date' ) ;
#159 = SHAPE_DEFINITION_REPRESENTATION ( #101, #301 ) ;
#160 = AXIS2_PLACEMENT_3D ( 'NONE', #136, #222, #269 ) ;
#161 = PERSON_AND_ORGANIZATION_ROLE ( 'creator' ) ;
#162 =( LENGTH_UNIT ( ) NAMED_UNIT ( * ) SI_UNIT ( .MILLI., .METRE. ) );
#163 = DIRECTION ( 'NONE',  ( 1.000000000000000000, 1.530808498934191509E-17, -0.000000000000000000 ) ) ;
#164 = DIRECTION ( 'NONE',  ( 0.000000000000000000, 1.000000000000000000, 0.000000000000000000 ) ) ;
#165 = DIRECTION ( 'NONE',  ( -1.874699728327322010E-33, 1.224646799147353207E-16, 1.000000000000000000 ) ) ;
#166 = CARTESIAN_POINT ( 'NONE',  ( -16.00000000000000000, -2.449293598294706414E-16, 0.000000000000000000 ) ) ;
#167 = CARTESIAN_POINT ( 'NONE',  ( -3.737121513599913390E-16, -5.499999999999992895, 7.041719095097271019E-16 ) ) ;
#168 = AXIS2_PLACEMENT_3D ( 'NONE', #214, #163, #266 ) ;
#169 = DIRECTION ( 'NONE',  ( 1.000000000000000000, 1.530808498934191509E-17, -0.000000000000000000 ) ) ;
#170 = SECURITY_CLASSIFICATION ( '', '', #128 ) ;
#171 = CARTESIAN_POINT ( 'NONE',  ( -71.99999999999998579, -7.102951435054646482E-15, 0.000000000000000000 ) ) ;
#172 = ORIENTED_EDGE ( 'NONE', *, *, #46, .F. ) ;
#173 = EDGE_CURVE ( 'NONE', #67, #194, #109, .T. ) ;
#174 = CARTESIAN_POINT ( 'NONE',  ( -72.99999999999998579, -7.225416114969381630E-15, 0.000000000000000000 ) ) ;
#175 = CIRCLE ( 'NONE', #115, 5.999999999999992006 ) ;
#176 = DIRECTION ( 'NONE',  ( -1.000000000000000000, -1.224646799147353207E-16, 0.000000000000000000 ) ) ;
#177 = ORIENTED_EDGE ( 'NONE', *, *, #129, .T. ) ;
#178 = ORIENTED_EDGE ( 'NONE', *, *, #46, .T. ) ;
#179 = FACE_OUTER_BOUND ( 'NONE', #338, .T. ) ;
#180 = LOCAL_TIME ( 16, 9, 5.000000000000000000, #287 ) ;
#181 = DATE_AND_TIME ( #72, #180 ) ;
#182 = PERSON_AND_ORGANIZATION ( #281, #326 ) ;
#183 = CALENDAR_DATE ( 2022, 31, 5 ) ;
#184 = EDGE_CURVE ( 'NONE', #310, #228, #193, .T. ) ;
#185 = COORDINATED_UNIVERSAL_TIME_OFFSET ( 1, 0, .AHEAD. ) ;
#186 = AXIS2_PLACEMENT_3D ( 'NONE', #358, #324, #53 ) ;
#187 = APPLICATION_PROTOCOL_DEFINITION ( 'international standard', 'config_control_design', 1994, #29 ) ;
#188 = DIRECTION ( 'NONE',  ( 1.000000000000000000, 1.224646799147353207E-16, -0.000000000000000000 ) ) ;
#189 = DIRECTION ( 'NONE',  ( 0.000000000000000000, -1.000000000000000000, 1.224646799147353454E-16 ) ) ;
#190 = AXIS2_PLACEMENT_3D ( 'NONE', #211, #131, #259 ) ;
#191 = LINE ( 'NONE', #331, #97 ) ;
#192 = PLANE ( 'NONE',  #288 ) ;
#193 = CIRCLE ( 'NONE', #2, 4.999999999999999112 ) ;
#194 = VERTEX_POINT ( 'NONE', #208 ) ;
#195 = DIRECTION ( 'NONE',  ( 1.000000000000000000, 1.530808498934191509E-17, -0.000000000000000000 ) ) ;
#196 = EDGE_CURVE ( 'NONE', #310, #194, #148, .T. ) ;
#197 = TOROIDAL_SURFACE ( 'NONE', #186, 5.499999999999992895, 0.4999999999999996669 ) ;
#198 = CARTESIAN_POINT ( 'NONE',  ( -16.00000000000000000, 5.999999999999992006, 0.000000000000000000 ) ) ;
#199 = DIRECTION ( 'NONE',  ( 0.000000000000000000, 1.000000000000000000, 0.000000000000000000 ) ) ;
#200 = ORIENTED_EDGE ( 'NONE', *, *, #291, .F. ) ;
#201 = ORIENTED_EDGE ( 'NONE', *, *, #8, .F. ) ;
#202 = CARTESIAN_POINT ( 'NONE',  ( -16.00000000000000000, -2.449293598294705428E-16, 0.000000000000000000 ) ) ;
#203 = ORIENTED_EDGE ( 'NONE', *, *, #22, .F. ) ;
#204 = ORIENTED_EDGE ( 'NONE', *, *, #235, .F. ) ;
#205 = VECTOR ( 'NONE', #68, 999.9999999999998863 ) ;
#206 = LINE ( 'NONE', #61, #144 ) ;
#207 = PRODUCT ( '387472387479', '387472387479', '', ( #48 ) ) ;
#208 = CARTESIAN_POINT ( 'NONE',  ( -71.99999999999998579, -6.000000000000007105, 7.347880794884119736E-16 ) ) ;
#209 = CLOSED_SHELL ( 'NONE', ( #28, #37, #219, #351, #303, #134 ) ) ;
#210 = EDGE_CURVE ( 'NONE', #194, #62, #335, .T. ) ;
#211 = CARTESIAN_POINT ( 'NONE',  ( 0.000000000000000000, 0.000000000000000000, 0.000000000000000000 ) ) ;
#212 = APPROVAL_DATE_TIME ( #320, #319 ) ;
#213 = CALENDAR_DATE ( 2022, 31, 5 ) ;
#214 = CARTESIAN_POINT ( 'NONE',  ( -4.579066188013718026E-16, -7.009673437793589419E-33, 0.000000000000000000 ) ) ;
#215 = CARTESIAN_POINT ( 'NONE',  ( -0.5000000000000001110, -5.999999999999992006, 7.347880794884109875E-16 ) ) ;
#216 = AXIS2_PLACEMENT_3D ( 'NONE', #306, #176, #254 ) ;
#217 = DIRECTION ( 'NONE',  ( 1.000000000000000000, 1.530808498934191509E-17, -0.000000000000000000 ) ) ;
#218 = AXIS2_PLACEMENT_3D ( 'NONE', #174, #188, #296 ) ;
#219 = ADVANCED_FACE ( 'NONE', ( #27 ), #247, .T. ) ;
#220 = DIRECTION ( 'NONE',  ( 1.000000000000000000, 1.224646799147353207E-16, -0.000000000000000000 ) ) ;
#221 = ORIENTED_EDGE ( 'NONE', *, *, #327, .F. ) ;
#222 = DIRECTION ( 'NONE',  ( 1.000000000000000000, 1.530808498934191509E-17, -0.000000000000000000 ) ) ;
#223 = CC_DESIGN_SECURITY_CLASSIFICATION ( #170, ( #349 ) ) ;
#224 = DIRECTION ( 'NONE',  ( 1.000000000000000000, 1.530808498934191509E-17, -0.000000000000000000 ) ) ;
#225 = EDGE_LOOP ( 'NONE', ( #364, #13, #229, #200 ) ) ;
#226 = EDGE_LOOP ( 'NONE', ( #252, #121 ) ) ;
#227 = DIRECTION ( 'NONE',  ( 1.000000000000000000, 1.224646799147353207E-16, -0.000000000000000000 ) ) ;
#228 = VERTEX_POINT ( 'NONE', #300 ) ;
#229 = ORIENTED_EDGE ( 'NONE', *, *, #340, .F. ) ;
#230 = DIRECTION ( 'NONE',  ( 1.000000000000000000, 1.530808498934191509E-17, -0.000000000000000000 ) ) ;
#231 = AXIS2_PLACEMENT_3D ( 'NONE', #137, #110, #52 ) ;
#232 = FACE_OUTER_BOUND ( 'NONE', #93, .T. ) ;
#233 = CC_DESIGN_APPROVAL ( #90, ( #349 ) ) ;
#234 = PERSON_AND_ORGANIZATION ( #281, #326 ) ;
#235 = EDGE_CURVE ( 'NONE', #149, #62, #175, .T. ) ;
#236 = CIRCLE ( 'NONE', #20, 5.999999999999992006 ) ;
#237 = PERSON_AND_ORGANIZATION ( #281, #326 ) ;
#238 = PERSON_AND_ORGANIZATION ( #281, #326 ) ;
#239 = DIRECTION ( 'NONE',  ( 1.000000000000000000, 1.224646799147353207E-16, -0.000000000000000000 ) ) ;
#240 = DIRECTION ( 'NONE',  ( 0.000000000000000000, 1.000000000000000000, 0.000000000000000000 ) ) ;
#241 = CARTESIAN_POINT ( 'NONE',  ( 0.000000000000000000, 0.000000000000000000, 0.000000000000000000 ) ) ;
#242 = ADVANCED_FACE ( 'NONE', ( #86 ), #267, .T. ) ;
#243 = CARTESIAN_POINT ( 'NONE',  ( -71.99999999999998579, -7.102951435054646482E-15, 0.000000000000000000 ) ) ;
#244 = DIRECTION ( 'NONE',  ( 1.000000000000000000, 1.530808498934191509E-17, -0.000000000000000000 ) ) ;
#245 = CYLINDRICAL_SURFACE ( 'NONE', #38, 5.999999999999992006 ) ;
#246 = CC_DESIGN_PERSON_AND_ORGANIZATION_ASSIGNMENT ( #238, #316, ( #349 ) ) ;
#247 = TOROIDAL_SURFACE ( 'NONE', #130, 5.499999999999992895, 0.4999999999999996669 ) ;
#248 = AXIS2_PLACEMENT_3D ( 'NONE', #278, #224, #152 ) ;
#249 = AXIS2_PLACEMENT_3D ( 'NONE', #243, #24, #240 ) ;
#250 = DIRECTION ( 'NONE',  ( 0.000000000000000000, 1.000000000000000000, 0.000000000000000000 ) ) ;
#251 = DIRECTION ( 'NONE',  ( 0.7071067811865479058, -0.7071067811865471286, 8.659560562354929160E-17 ) ) ;
#252 = ORIENTED_EDGE ( 'NONE', *, *, #4, .F. ) ;
#253 = VERTEX_POINT ( 'NONE', #75 ) ;
#254 = DIRECTION ( 'NONE',  ( 1.224646799147353207E-16, -1.000000000000000000, 0.000000000000000000 ) ) ;
#255 = ORIENTED_EDGE ( 'NONE', *, *, #173, .F. ) ;
#256 = EDGE_LOOP ( 'NONE', ( #7, #41, #342, #201 ) ) ;
#257 = CARTESIAN_POINT ( 'NONE',  ( -72.99999999999998579, -7.225416114969381630E-15, 0.000000000000000000 ) ) ;
#258 = CIRCLE ( 'NONE', #289, 5.999999999999992006 ) ;
#259 = DIRECTION ( 'NONE',  ( 1.000000000000000000, 0.000000000000000000, 0.000000000000000000 ) ) ;
#260 = PRODUCT_RELATED_PRODUCT_CATEGORY ( 'detail', '', ( #207 ) ) ;
#261 = PERSON_AND_ORGANIZATION_ROLE ( 'design_owner' ) ;
#262 = PERSON_AND_ORGANIZATION ( #281, #326 ) ;
#263 = CIRCLE ( 'NONE', #160, 5.999999999999992006 ) ;
#264 = CARTESIAN_POINT ( 'NONE',  ( -0.5000000000000001110, -5.499999999999992895, 6.735557395310433148E-16 ) ) ;
#265 = CARTESIAN_POINT ( 'NONE',  ( -16.00000000000000000, -2.449293598294706414E-16, 0.000000000000000000 ) ) ;
#266 = DIRECTION ( 'NONE',  ( -1.530808498934191817E-17, 1.000000000000000000, 0.000000000000000000 ) ) ;
#267 = CYLINDRICAL_SURFACE ( 'NONE', #330, 5.999999999999995559 ) ;
#268 = ORIENTED_EDGE ( 'NONE', *, *, #173, .T. ) ;
#269 = DIRECTION ( 'NONE',  ( -1.807003620809176419E-17, 1.000000000000000000, 0.000000000000000000 ) ) ;
#270 = CC_DESIGN_PERSON_AND_ORGANIZATION_ASSIGNMENT ( #262, #47, ( #123 ) ) ;
#271 = AXIS2_PLACEMENT_3D ( 'NONE', #36, #125, #117 ) ;
#272 = LOCAL_TIME ( 16, 9, 5.000000000000000000, #74 ) ;
#273 = CARTESIAN_POINT ( 'NONE',  ( -71.99999999999998579, -7.102951435054646482E-15, 0.000000000000000000 ) ) ;
#274 = EDGE_CURVE ( 'NONE', #119, #253, #236, .T. ) ;
#275 = DIRECTION ( 'NONE',  ( 1.000000000000000000, 1.224646799147353207E-16, -0.000000000000000000 ) ) ;
#276 = ORIENTED_EDGE ( 'NONE', *, *, #129, .F. ) ;
#277 = ORIENTED_EDGE ( 'NONE', *, *, #22, .T. ) ;
#278 = CARTESIAN_POINT ( 'NONE',  ( -0.5000000000000002220, -7.654042494670962167E-18, 0.000000000000000000 ) ) ;
#279 = ORIENTED_EDGE ( 'NONE', *, *, #157, .F. ) ;
#280 = ORIENTED_EDGE ( 'NONE', *, *, #196, .T. ) ;
#281 = PERSON ( 'UNSPECIFIED', 'UNSPECIFIED', 'UNSPECIFIED', ('UNSPECIFIED'), ('UNSPECIFIED'), ('UNSPECIFIED') ) ;
#282 = APPROVAL ( #353, 'UNSPECIFIED' ) ;
#283 = DIRECTION ( 'NONE',  ( 0.000000000000000000, 1.000000000000000000, 0.000000000000000000 ) ) ;
#284 = PERSON_AND_ORGANIZATION ( #281, #326 ) ;
#285 = DATE_AND_TIME ( #23, #83 ) ;
#286 = DATE_AND_TIME ( #183, #272 ) ;
#287 = COORDINATED_UNIVERSAL_TIME_OFFSET ( 1, 0, .AHEAD. ) ;
#288 = AXIS2_PLACEMENT_3D ( 'NONE', #265, #25, #133 ) ;
#289 = AXIS2_PLACEMENT_3D ( 'NONE', #155, #230, #283 ) ;
#290 = CARTESIAN_POINT ( 'NONE',  ( -0.5000000000000003331, 5.499999999999992895, 0.000000000000000000 ) ) ;
#291 = EDGE_CURVE ( 'NONE', #119, #308, #191, .T. ) ;
#292 = CYLINDRICAL_SURFACE ( 'NONE', #132, 5.999999999999992006 ) ;
#293 = DIRECTION ( 'NONE',  ( 1.000000000000000000, 1.224646799147353207E-16, -0.000000000000000000 ) ) ;
#294 = AXIS2_PLACEMENT_3D ( 'NONE', #264, #165, #189 ) ;
#295 = LOCAL_TIME ( 16, 9, 5.000000000000000000, #76 ) ;
#296 = DIRECTION ( 'NONE',  ( 0.000000000000000000, 1.000000000000000000, 0.000000000000000000 ) ) ;
#297 = FACE_OUTER_BOUND ( 'NONE', #88, .T. ) ;
#298 = PLANE ( 'NONE',  #64 ) ;
#299 = ADVANCED_FACE ( 'NONE', ( #357 ), #298, .T. ) ;
#300 = CARTESIAN_POINT ( 'NONE',  ( -72.99999999999998579, 4.999999999999992006, 0.000000000000000000 ) ) ;
#301 = ADVANCED_BREP_SHAPE_REPRESENTATION ( '387472387479', ( #156, #32, #190 ), #345 ) ;
#302 = CIRCLE ( 'NONE', #322, 5.999999999999992006 ) ;
#303 = ADVANCED_FACE ( 'NONE', ( #297 ), #192, .T. ) ;
#304 = DESIGN_CONTEXT ( 'detailed design', #140, 'design' ) ;
#305 = PLANE ( 'NONE',  #216 ) ;
#306 = CARTESIAN_POINT ( 'NONE',  ( -72.99999999999998579, -7.225416114969381630E-15, 0.000000000000000000 ) ) ;
#307 = ORIENTED_EDGE ( 'NONE', *, *, #291, .T. ) ;
#308 = VERTEX_POINT ( 'NONE', #114 ) ;
#309 = DIRECTION ( 'NONE',  ( -1.530808498934191817E-17, 1.000000000000000000, 0.000000000000000000 ) ) ;
#310 = VERTEX_POINT ( 'NONE', #108 ) ;
#311 = CC_DESIGN_PERSON_AND_ORGANIZATION_ASSIGNMENT ( #19, #161, ( #349 ) ) ;
#312 = VERTEX_POINT ( 'NONE', #167 ) ;
#313 = FACE_OUTER_BOUND ( 'NONE', #226, .T. ) ;
#314 = CARTESIAN_POINT ( 'NONE',  ( -71.99999999999998579, -6.000000000000006217, 7.347880794884118750E-16 ) ) ;
#315 = PERSON_AND_ORGANIZATION ( #281, #326 ) ;
#316 = PERSON_AND_ORGANIZATION_ROLE ( 'design_supplier' ) ;
#317 = COORDINATED_UNIVERSAL_TIME_OFFSET ( 1, 0, .AHEAD. ) ;
#318 = CALENDAR_DATE ( 2022, 31, 5 ) ;
#319 = APPROVAL ( #105, 'UNSPECIFIED' ) ;
#320 = DATE_AND_TIME ( #213, #145 ) ;
#321 = DIRECTION ( 'NONE',  ( 1.000000000000000000, 1.530808498934191509E-17, -0.000000000000000000 ) ) ;
#322 = AXIS2_PLACEMENT_3D ( 'NONE', #202, #59, #250 ) ;
#323 = CARTESIAN_POINT ( 'NONE',  ( -16.00000000000000000, -2.449293598294706414E-16, 0.000000000000000000 ) ) ;
#324 = DIRECTION ( 'NONE',  ( 1.000000000000000000, 1.530808498934191509E-17, -0.000000000000000000 ) ) ;
#325 = DIRECTION ( 'NONE',  ( -1.530808498934191509E-17, 1.000000000000000000, 0.000000000000000000 ) ) ;
#326 = ORGANIZATION ( 'UNSPECIFIED', 'UNSPECIFIED', '' ) ;
#327 = EDGE_CURVE ( 'NONE', #308, #40, #143, .T. ) ;
#328 = DIRECTION ( 'NONE',  ( -1.224646799147353207E-16, 1.000000000000000000, 0.000000000000000000 ) ) ;
#329 = ORIENTED_EDGE ( 'NONE', *, *, #100, .T. ) ;
#330 = AXIS2_PLACEMENT_3D ( 'NONE', #323, #293, #138 ) ;
#331 = CARTESIAN_POINT ( 'NONE',  ( -9.184850993605137344E-17, 5.999999999999992006, 0.000000000000000000 ) ) ;
#332 = VERTEX_POINT ( 'NONE', #215 ) ;
#333 = AXIS2_PLACEMENT_3D ( 'NONE', #171, #45, #102 ) ;
#334 = CC_DESIGN_APPROVAL ( #319, ( #123 ) ) ;
#335 = LINE ( 'NONE', #120, #147 ) ;
#336 = UNCERTAINTY_MEASURE_WITH_UNIT (LENGTH_MEASURE( 1.000000000000000082E-05 ), #162, 'distance_accuracy_value', 'NONE');
#337 = DIRECTION ( 'NONE',  ( 1.000000000000000000, 1.224646799147353207E-16, -0.000000000000000000 ) ) ;
#338 = EDGE_LOOP ( 'NONE', ( #92, #280, #255, #14 ) ) ;
#339 = ORIENTED_EDGE ( 'NONE', *, *, #113, .F. ) ;
#340 = EDGE_CURVE ( 'NONE', #308, #332, #263, .T. ) ;
#341 = CARTESIAN_POINT ( 'NONE',  ( -16.00000000000000000, 5.999999999999995559, 0.000000000000000000 ) ) ;
#342 = ORIENTED_EDGE ( 'NONE', *, *, #73, .T. ) ;
#343 = EDGE_LOOP ( 'NONE', ( #118, #177 ) ) ;
#344 = CARTESIAN_POINT ( 'NONE',  ( -71.99999999999998579, 5.999999999999991118, 0.000000000000000000 ) ) ;
#345 =( GEOMETRIC_REPRESENTATION_CONTEXT ( 3 ) GLOBAL_UNCERTAINTY_ASSIGNED_CONTEXT ( ( #336 ) ) GLOBAL_UNIT_ASSIGNED_CONTEXT ( ( #162, #79, #360 ) ) REPRESENTATION_CONTEXT ( 'NONE', 'WORKASPACE' ) );
#346 = CIRCLE ( 'NONE', #248, 5.999999999999992006 ) ;
#347 = DIRECTION ( 'NONE',  ( 0.000000000000000000, 1.000000000000000000, 0.000000000000000000 ) ) ;
#348 = CIRCLE ( 'NONE', #218, 4.999999999999999112 ) ;
#349 = PRODUCT_DEFINITION_FORMATION_WITH_SPECIFIED_SOURCE ( 'ANY', '', #207, .NOT_KNOWN. ) ;
#350 = DATE_AND_TIME ( #318, #295 ) ;
#351 = ADVANCED_FACE ( 'NONE', ( #141 ), #245, .T. ) ;
#352 = AXIS2_PLACEMENT_3D ( 'NONE', #290, #54, #55 ) ;
#353 = APPROVAL_STATUS ( 'not_yet_approved' ) ;
#354 = APPLICATION_PROTOCOL_DEFINITION ( 'international standard', 'config_control_design', 1994, #140 ) ;
#355 = CC_DESIGN_PERSON_AND_ORGANIZATION_ASSIGNMENT ( #182, #356, ( #170 ) ) ;
#356 = PERSON_AND_ORGANIZATION_ROLE ( 'classification_officer' ) ;
#357 = FACE_OUTER_BOUND ( 'NONE', #343, .T. ) ;
#358 = CARTESIAN_POINT ( 'NONE',  ( -0.5000000000000002220, 0.000000000000000000, 0.000000000000000000 ) ) ;
#359 = CIRCLE ( 'NONE', #16, 5.499999999999992895 ) ;
#360 =( NAMED_UNIT ( * ) SI_UNIT ( $, .STERADIAN. ) SOLID_ANGLE_UNIT ( ) );
#361 = DIRECTION ( 'NONE',  ( -1.530808498934191509E-17, 1.000000000000000000, 0.000000000000000000 ) ) ;
#362 = DIRECTION ( 'NONE',  ( 1.000000000000000000, 1.530808498934191509E-17, -0.000000000000000000 ) ) ;
#363 = CIRCLE ( 'NONE', #249, 5.999999999999999112 ) ;
#364 = ORIENTED_EDGE ( 'NONE', *, *, #274, .T. ) ;
#365 = DIRECTION ( 'NONE',  ( -1.530808498934191509E-17, 1.000000000000000000, 0.000000000000000000 ) ) ;
ENDSEC;
END-ISO-10303-21;
