ISO-10303-21;
HEADER;
FILE_DESCRIPTION (( 'STEP AP203' ),
    '1' );
FILE_NAME ('387472387478.step',
    '2022-05-31T14:09:04',
    ( '' ),
    ( '' ),
    'SwSTEP 2.0',
    'SolidWorks 2019',
    '' );
FILE_SCHEMA (( 'CONFIG_CONTROL_DESIGN' ));
ENDSEC;

DATA;
#1 = AXIS2_PLACEMENT_3D ( 'NONE', #57, #332, #31 ) ;
#2 = LINE ( 'NONE', #260, #184 ) ;
#3 = DATE_AND_TIME ( #38, #255 ) ;
#4 = ORIENTED_EDGE ( 'NONE', *, *, #130, .F. ) ;
#5 = SHAPE_DEFINITION_REPRESENTATION ( #95, #198 ) ;
#6 = EDGE_CURVE ( 'NONE', #304, #20, #82, .T. ) ;
#7 = DIRECTION ( 'NONE',  ( 1.000000000000000000, -1.049697256412016947E-16, -0.000000000000000000 ) ) ;
#8 = PERSON_AND_ORGANIZATION ( #132, #68 ) ;
#9 = DIRECTION ( 'NONE',  ( 1.049697256412016947E-16, 1.000000000000000000, 0.000000000000000000 ) ) ;
#10 = CLOSED_SHELL ( 'NONE', ( #261, #212, #62, #280, #243, #356 ) ) ;
#11 = EDGE_CURVE ( 'NONE', #270, #303, #322, .T. ) ;
#12 = EDGE_CURVE ( 'NONE', #223, #106, #177, .T. ) ;
#13 = CC_DESIGN_PERSON_AND_ORGANIZATION_ASSIGNMENT ( #192, #201, ( #180 ) ) ;
#14 = PLANE ( 'NONE',  #42 ) ;
#15 = ORIENTED_EDGE ( 'NONE', *, *, #214, .T. ) ;
#16 = AXIS2_PLACEMENT_3D ( 'NONE', #129, #66, #165 ) ;
#17 = APPROVAL_ROLE ( '' ) ;
#18 = AXIS2_PLACEMENT_3D ( 'NONE', #153, #7, #59 ) ;
#19 = DIRECTION ( 'NONE',  ( 0.000000000000000000, 1.000000000000000000, 0.000000000000000000 ) ) ;
#20 = VERTEX_POINT ( 'NONE', #259 ) ;
#21 = DIRECTION ( 'NONE',  ( 0.000000000000000000, 0.000000000000000000, 1.000000000000000000 ) ) ;
#22 = CC_DESIGN_PERSON_AND_ORGANIZATION_ASSIGNMENT ( #288, #154, ( #277 ) ) ;
#23 = PERSON_AND_ORGANIZATION ( #132, #68 ) ;
#24 = CARTESIAN_POINT ( 'NONE',  ( -0.9999999999999995559, 1.049697256412016454E-16, 0.000000000000000000 ) ) ;
#25 = EDGE_LOOP ( 'NONE', ( #29, #55 ) ) ;
#26 = SECURITY_CLASSIFICATION ( '', '', #340 ) ;
#27 = EDGE_CURVE ( 'NONE', #86, #329, #186, .T. ) ;
#28 = DIRECTION ( 'NONE',  ( 0.7071067811865427988, 0.7071067811865522357, 0.000000000000000000 ) ) ;
#29 = ORIENTED_EDGE ( 'NONE', *, *, #169, .F. ) ;
#30 = DIRECTION ( 'NONE',  ( 0.000000000000000000, 1.000000000000000000, 0.000000000000000000 ) ) ;
#31 = DIRECTION ( 'NONE',  ( 0.000000000000000000, 1.000000000000000000, 0.000000000000000000 ) ) ;
#32 = ORIENTED_EDGE ( 'NONE', *, *, #308, .T. ) ;
#33 = AXIS2_PLACEMENT_3D ( 'NONE', #236, #97, #43 ) ;
#34 = ORIENTED_EDGE ( 'NONE', *, *, #169, .T. ) ;
#35 = COORDINATED_UNIVERSAL_TIME_OFFSET ( 1, 0, .AHEAD. ) ;
#36 = CARTESIAN_POINT ( 'NONE',  ( -14.00000000000000000, 1.469576158976823750E-15, 0.000000000000000000 ) ) ;
#37 = DIRECTION ( 'NONE',  ( 1.000000000000000000, -1.049697256412016947E-16, -0.000000000000000000 ) ) ;
#38 = CALENDAR_DATE ( 2022, 31, 5 ) ;
#39 = CIRCLE ( 'NONE', #16, 4.999999999999986677 ) ;
#40 = AXIS2_PLACEMENT_3D ( 'NONE', #70, #328, #168 ) ;
#41 = CIRCLE ( 'NONE', #240, 1.000000000000000000 ) ;
#42 = AXIS2_PLACEMENT_3D ( 'NONE', #249, #351, #360 ) ;
#43 = DIRECTION ( 'NONE',  ( 0.000000000000000000, 1.000000000000000000, 0.000000000000000000 ) ) ;
#44 = CARTESIAN_POINT ( 'NONE',  ( -14.00000000000000000, 4.999999999999988454, 0.000000000000000000 ) ) ;
#45 = CARTESIAN_POINT ( 'NONE',  ( -65.00000000000000000, -4.776122516674679455E-15, 0.000000000000000000 ) ) ;
#46 = CC_DESIGN_APPROVAL ( #111, ( #180 ) ) ;
#47 = DIRECTION ( 'NONE',  ( 1.000000000000000000, -1.049697256412016947E-16, -0.000000000000000000 ) ) ;
#48 = CARTESIAN_POINT ( 'NONE',  ( -65.00000000000000000, 4.999999999999988454, 0.000000000000000000 ) ) ;
#49 = ORIENTED_EDGE ( 'NONE', *, *, #268, .T. ) ;
#50 = ORIENTED_EDGE ( 'NONE', *, *, #365, .F. ) ;
#51 = ORIENTED_EDGE ( 'NONE', *, *, #142, .F. ) ;
#52 = CALENDAR_DATE ( 2022, 31, 5 ) ;
#53 = CIRCLE ( 'NONE', #320, 4.999999999999992006 ) ;
#54 = CIRCLE ( 'NONE', #265, 3.999999999999992450 ) ;
#55 = ORIENTED_EDGE ( 'NONE', *, *, #185, .F. ) ;
#56 = CC_DESIGN_PERSON_AND_ORGANIZATION_ASSIGNMENT ( #8, #311, ( #277 ) ) ;
#57 = CARTESIAN_POINT ( 'NONE',  ( -65.00000000000000000, -4.776122516674679455E-15, 0.000000000000000000 ) ) ;
#58 = CARTESIAN_POINT ( 'NONE',  ( 5.248486282060074256E-16, 4.999999999999989342, 0.000000000000000000 ) ) ;
#59 = DIRECTION ( 'NONE',  ( 1.049697256412016947E-16, 1.000000000000000000, 0.000000000000000000 ) ) ;
#60 = DIRECTION ( 'NONE',  ( 1.000000000000000000, -1.049697256412016947E-16, -0.000000000000000000 ) ) ;
#61 = DIRECTION ( 'NONE',  ( -1.000000000000000000, 0.000000000000000000, 0.000000000000000000 ) ) ;
#62 = ADVANCED_FACE ( 'NONE', ( #233 ), #84, .T. ) ;
#63 = CARTESIAN_POINT ( 'NONE',  ( -65.00000000000000000, 4.999999999999987566, 0.000000000000000000 ) ) ;
#64 = EDGE_CURVE ( 'NONE', #106, #270, #336, .T. ) ;
#65 = TOROIDAL_SURFACE ( 'NONE', #204, 3.999999999999992450, 0.9999999999999997780 ) ;
#66 = DIRECTION ( 'NONE',  ( 1.000000000000000000, -1.049697256412016947E-16, -0.000000000000000000 ) ) ;
#67 = ADVANCED_FACE ( 'NONE', ( #181 ), #254, .T. ) ;
#68 = ORGANIZATION ( 'UNSPECIFIED', 'UNSPECIFIED', '' ) ;
#69 = CARTESIAN_POINT ( 'NONE',  ( -1.000000000000000000, -4.999999999999992006, 6.123233995736756422E-16 ) ) ;
#70 = CARTESIAN_POINT ( 'NONE',  ( -14.00000000000000000, 1.469576158976823750E-15, 0.000000000000000000 ) ) ;
#71 = EDGE_LOOP ( 'NONE', ( #4, #15, #78, #149 ) ) ;
#72 = FACE_OUTER_BOUND ( 'NONE', #275, .T. ) ;
#73 = EDGE_LOOP ( 'NONE', ( #250, #76, #354, #138 ) ) ;
#74 = APPROVAL_PERSON_ORGANIZATION ( #23, #289, #102 ) ;
#75 = DATE_AND_TIME ( #79, #88 ) ;
#76 = ORIENTED_EDGE ( 'NONE', *, *, #27, .T. ) ;
#77 = LINE ( 'NONE', #48, #187 ) ;
#78 = ORIENTED_EDGE ( 'NONE', *, *, #64, .T. ) ;
#79 = CALENDAR_DATE ( 2022, 31, 5 ) ;
#80 = ORIENTED_EDGE ( 'NONE', *, *, #85, .T. ) ;
#81 = AXIS2_PLACEMENT_3D ( 'NONE', #107, #21, #139 ) ;
#82 = CIRCLE ( 'NONE', #290, 4.999999999999992895 ) ;
#83 = DIRECTION ( 'NONE',  ( 1.000000000000000000, 1.224646799147353454E-16, -0.000000000000000000 ) ) ;
#84 = PLANE ( 'NONE',  #273 ) ;
#85 = EDGE_CURVE ( 'NONE', #303, #270, #54, .T. ) ;
#86 = VERTEX_POINT ( 'NONE', #89 ) ;
#87 = CARTESIAN_POINT ( 'NONE',  ( -14.00000000000000000, 1.469576158976823750E-15, 0.000000000000000000 ) ) ;
#88 = LOCAL_TIME ( 16, 9, 4.000000000000000000, #331 ) ;
#89 = CARTESIAN_POINT ( 'NONE',  ( -65.99999999999998579, -3.999999999999998224, 5.510910596163080681E-16 ) ) ;
#90 = CARTESIAN_POINT ( 'NONE',  ( -65.99999999999998579, -4.898587196589413026E-15, 0.000000000000000000 ) ) ;
#91 = CARTESIAN_POINT ( 'NONE',  ( -0.9999999999999995559, 0.000000000000000000, 0.000000000000000000 ) ) ;
#92 = DESIGN_CONTEXT ( 'detailed design', #295, 'design' ) ;
#93 = PERSON_AND_ORGANIZATION_ROLE ( 'design_owner' ) ;
#94 = TOROIDAL_SURFACE ( 'NONE', #215, 3.999999999999992450, 0.9999999999999997780 ) ;
#95 = PRODUCT_DEFINITION_SHAPE ( 'NONE', 'NONE',  #180 ) ;
#96 = ADVANCED_FACE ( 'NONE', ( #156 ), #262, .T. ) ;
#97 = DIRECTION ( 'NONE',  ( 1.000000000000000000, -1.049697256412016947E-16, -0.000000000000000000 ) ) ;
#98 = DIRECTION ( 'NONE',  ( 1.000000000000000000, 1.224646799147353454E-16, -0.000000000000000000 ) ) ;
#99 = AXIS2_PLACEMENT_3D ( 'NONE', #323, #189, #294 ) ;
#100 = ADVANCED_FACE ( 'NONE', ( #279 ), #65, .T. ) ;
#101 = EDGE_LOOP ( 'NONE', ( #147, #80 ) ) ;
#102 = APPROVAL_ROLE ( '' ) ;
#103 = CARTESIAN_POINT ( 'NONE',  ( -0.9999999999999995559, 1.049697256412016454E-16, 0.000000000000000000 ) ) ;
#104 = CC_DESIGN_DATE_AND_TIME_ASSIGNMENT ( #246, #196, ( #180 ) ) ;
#105 = DIRECTION ( 'NONE',  ( 1.000000000000000000, -1.049697256412016947E-16, -0.000000000000000000 ) ) ;
#106 = VERTEX_POINT ( 'NONE', #175 ) ;
#107 = CARTESIAN_POINT ( 'NONE',  ( 0.000000000000000000, 0.000000000000000000, 0.000000000000000000 ) ) ;
#108 = EDGE_LOOP ( 'NONE', ( #171, #306, #200, #144 ) ) ;
#109 = CONICAL_SURFACE ( 'NONE', #1, 4.999999999999993783, 0.7853981633974548293 ) ;
#110 = CYLINDRICAL_SURFACE ( 'NONE', #40, 4.999999999999990230 ) ;
#111 = APPROVAL ( #114, 'UNSPECIFIED' ) ;
#112 = LINE ( 'NONE', #244, #123 ) ;
#113 = ORIENTED_EDGE ( 'NONE', *, *, #142, .T. ) ;
#114 = APPROVAL_STATUS ( 'not_yet_approved' ) ;
#115 = CARTESIAN_POINT ( 'NONE',  ( -65.99999999999998579, -4.898587196589413026E-15, 0.000000000000000000 ) ) ;
#116 = AXIS2_PLACEMENT_3D ( 'NONE', #190, #321, #327 ) ;
#117 = CALENDAR_DATE ( 2022, 31, 5 ) ;
#118 = DIRECTION ( 'NONE',  ( 0.000000000000000000, 1.000000000000000000, 0.000000000000000000 ) ) ;
#119 = APPROVAL_DATE_TIME ( #141, #289 ) ;
#120 = DIRECTION ( 'NONE',  ( 1.000000000000000000, 1.224646799147353454E-16, -0.000000000000000000 ) ) ;
#121 = CARTESIAN_POINT ( 'NONE',  ( -65.00000000000000000, -4.776122516674679455E-15, 0.000000000000000000 ) ) ;
#122 = APPROVAL_STATUS ( 'not_yet_approved' ) ;
#123 = VECTOR ( 'NONE', #105, 1000.000000000000000 ) ;
#124 =( NAMED_UNIT ( * ) SI_UNIT ( $, .STERADIAN. ) SOLID_ANGLE_UNIT ( ) );
#125 = AXIS2_PLACEMENT_3D ( 'NONE', #87, #256, #126 ) ;
#126 = DIRECTION ( 'NONE',  ( -1.049697256412016947E-16, -1.000000000000000000, 0.000000000000000000 ) ) ;
#127 = PERSON_AND_ORGANIZATION ( #132, #68 ) ;
#128 = DIRECTION ( 'NONE',  ( 1.049697256412017070E-16, 1.000000000000000000, 0.000000000000000000 ) ) ;
#129 = CARTESIAN_POINT ( 'NONE',  ( -14.00000000000000000, 1.469576158976823750E-15, 0.000000000000000000 ) ) ;
#130 = EDGE_CURVE ( 'NONE', #352, #303, #41, .T. ) ;
#131 = CC_DESIGN_SECURITY_CLASSIFICATION ( #26, ( #277 ) ) ;
#132 = PERSON ( 'UNSPECIFIED', 'UNSPECIFIED', 'UNSPECIFIED', ('UNSPECIFIED'), ('UNSPECIFIED'), ('UNSPECIFIED') ) ;
#133 = ADVANCED_FACE ( 'NONE', ( #227 ), #94, .T. ) ;
#134 =( NAMED_UNIT ( * ) PLANE_ANGLE_UNIT ( ) SI_UNIT ( $, .RADIAN. ) );
#135 = VERTEX_POINT ( 'NONE', #209 ) ;
#136 = DIRECTION ( 'NONE',  ( 0.7071067811865431318, -0.7071067811865520136, 8.659560562354990790E-17 ) ) ;
#137 = FACE_OUTER_BOUND ( 'NONE', #108, .T. ) ;
#138 = ORIENTED_EDGE ( 'NONE', *, *, #334, .F. ) ;
#139 = DIRECTION ( 'NONE',  ( 1.000000000000000000, 0.000000000000000000, 0.000000000000000000 ) ) ;
#140 = EDGE_LOOP ( 'NONE', ( #34, #195, #276, #330 ) ) ;
#141 = DATE_AND_TIME ( #355, #157 ) ;
#142 = EDGE_CURVE ( 'NONE', #363, #135, #178, .T. ) ;
#143 = CARTESIAN_POINT ( 'NONE',  ( -14.00000000000000000, 4.999999999999988454, 0.000000000000000000 ) ) ;
#144 = ORIENTED_EDGE ( 'NONE', *, *, #242, .F. ) ;
#145 = CC_DESIGN_APPROVAL ( #289, ( #277 ) ) ;
#146 = PERSON_AND_ORGANIZATION ( #132, #68 ) ;
#147 = ORIENTED_EDGE ( 'NONE', *, *, #11, .T. ) ;
#148 = EDGE_CURVE ( 'NONE', #304, #363, #2, .T. ) ;
#149 = ORIENTED_EDGE ( 'NONE', *, *, #85, .F. ) ;
#150 = APPROVAL_ROLE ( '' ) ;
#151 = DIRECTION ( 'NONE',  ( 1.000000000000000000, 1.224646799147353454E-16, -0.000000000000000000 ) ) ;
#152 = CIRCLE ( 'NONE', #318, 3.999999999999993339 ) ;
#153 = CARTESIAN_POINT ( 'NONE',  ( 1.380196642939580690E-17, -1.448788629402754042E-33, 0.000000000000000000 ) ) ;
#154 = PERSON_AND_ORGANIZATION_ROLE ( 'creator' ) ;
#155 = DIRECTION ( 'NONE',  ( 1.000000000000000000, 1.224646799147353454E-16, -0.000000000000000000 ) ) ;
#156 = FACE_OUTER_BOUND ( 'NONE', #166, .T. ) ;
#157 = LOCAL_TIME ( 16, 9, 4.000000000000000000, #299 ) ;
#158 = PLANE ( 'NONE',  #116 ) ;
#159 = APPLICATION_CONTEXT ( 'configuration controlled 3d designs of mechanical parts and assemblies' ) ;
#160 = MANIFOLD_SOLID_BREP ( 'Révolution2', #305 ) ;
#161 = LINE ( 'NONE', #324, #271 ) ;
#162 = APPROVAL_STATUS ( 'not_yet_approved' ) ;
#163 = DIRECTION ( 'NONE',  ( 1.000000000000000000, 1.224646799147353454E-16, -0.000000000000000000 ) ) ;
#164 = CIRCLE ( 'NONE', #335, 4.999999999999992006 ) ;
#165 = DIRECTION ( 'NONE',  ( 0.000000000000000000, 1.000000000000000000, 0.000000000000000000 ) ) ;
#166 = EDGE_LOOP ( 'NONE', ( #298, #202, #245, #197 ) ) ;
#167 = APPROVAL_DATE_TIME ( #75, #111 ) ;
#168 = DIRECTION ( 'NONE',  ( 0.000000000000000000, 1.000000000000000000, 0.000000000000000000 ) ) ;
#169 = EDGE_CURVE ( 'NONE', #223, #325, #221, .T. ) ;
#170 = DIRECTION ( 'NONE',  ( 0.000000000000000000, 1.000000000000000000, 0.000000000000000000 ) ) ;
#171 = ORIENTED_EDGE ( 'NONE', *, *, #365, .T. ) ;
#172 = ORIENTED_EDGE ( 'NONE', *, *, #148, .F. ) ;
#173 = AXIS2_PLACEMENT_3D ( 'NONE', #205, #343, #128 ) ;
#174 = AXIS2_PLACEMENT_3D ( 'NONE', #310, #339, #61 ) ;
#175 = CARTESIAN_POINT ( 'NONE',  ( -0.9999999999999991118, 4.999999999999992006, 0.000000000000000000 ) ) ;
#176 = DIRECTION ( 'NONE',  ( 0.000000000000000000, 1.000000000000000000, 0.000000000000000000 ) ) ;
#177 = LINE ( 'NONE', #58, #216 ) ;
#178 = CIRCLE ( 'NONE', #208, 4.999999999999986677 ) ;
#179 = DIRECTION ( 'NONE',  ( 1.000000000000000000, -1.049697256412016947E-16, -0.000000000000000000 ) ) ;
#180 = PRODUCT_DEFINITION ( 'UNKNOWN', '', #277, #92 ) ;
#181 = FACE_OUTER_BOUND ( 'NONE', #25, .T. ) ;
#182 = CC_DESIGN_PERSON_AND_ORGANIZATION_ASSIGNMENT ( #257, #264, ( #26 ) ) ;
#183 = DIRECTION ( 'NONE',  ( 8.673617379884049031E-17, 1.000000000000000000, 0.000000000000000000 ) ) ;
#184 = VECTOR ( 'NONE', #316, 1000.000000000000000 ) ;
#185 = EDGE_CURVE ( 'NONE', #325, #223, #39, .T. ) ;
#186 = CIRCLE ( 'NONE', #350, 3.999999999999993339 ) ;
#187 = VECTOR ( 'NONE', #28, 1000.000000000000000 ) ;
#188 = LINE ( 'NONE', #293, #283 ) ;
#189 = DIRECTION ( 'NONE',  ( 1.000000000000000000, 1.224646799147353454E-16, -0.000000000000000000 ) ) ;
#190 = CARTESIAN_POINT ( 'NONE',  ( -14.00000000000000000, 1.469576158976823750E-15, 0.000000000000000000 ) ) ;
#191 = ORIENTED_EDGE ( 'NONE', *, *, #6, .T. ) ;
#192 = PERSON_AND_ORGANIZATION ( #132, #68 ) ;
#193 = CARTESIAN_POINT ( 'NONE',  ( -14.00000000000000000, -4.999999999999985789, 6.123233995736751491E-16 ) ) ;
#194 = DIRECTION ( 'NONE',  ( 1.000000000000000000, 1.224646799147353454E-16, -0.000000000000000000 ) ) ;
#195 = ORIENTED_EDGE ( 'NONE', *, *, #218, .T. ) ;
#196 = DATE_TIME_ROLE ( 'creation_date' ) ;
#197 = ORIENTED_EDGE ( 'NONE', *, *, #214, .F. ) ;
#198 = ADVANCED_BREP_SHAPE_REPRESENTATION ( '387472387478', ( #269, #160, #81 ), #359 ) ;
#199 = CYLINDRICAL_SURFACE ( 'NONE', #99, 4.999999999999990230 ) ;
#200 = ORIENTED_EDGE ( 'NONE', *, *, #6, .F. ) ;
#201 = PERSON_AND_ORGANIZATION_ROLE ( 'creator' ) ;
#202 = ORIENTED_EDGE ( 'NONE', *, *, #185, .T. ) ;
#203 = CC_DESIGN_APPROVAL ( #312, ( #26 ) ) ;
#204 = AXIS2_PLACEMENT_3D ( 'NONE', #91, #211, #317 ) ;
#205 = CARTESIAN_POINT ( 'NONE',  ( 0.000000000000000000, 0.000000000000000000, 0.000000000000000000 ) ) ;
#206 = CARTESIAN_POINT ( 'NONE',  ( -0.9999999999999995559, 0.000000000000000000, 0.000000000000000000 ) ) ;
#207 = EDGE_CURVE ( 'NONE', #135, #363, #226, .T. ) ;
#208 = AXIS2_PLACEMENT_3D ( 'NONE', #36, #155, #176 ) ;
#209 = CARTESIAN_POINT ( 'NONE',  ( -14.00000000000000000, -4.999999999999985789, 6.123233995736752477E-16 ) ) ;
#210 = DIRECTION ( 'NONE',  ( 0.000000000000000000, 1.000000000000000000, 0.000000000000000000 ) ) ;
#211 = DIRECTION ( 'NONE',  ( 1.000000000000000000, -1.049697256412016947E-16, -0.000000000000000000 ) ) ;
#212 = ADVANCED_FACE ( 'NONE', ( #137 ), #263, .T. ) ;
#213 = APPLICATION_PROTOCOL_DEFINITION ( 'international standard', 'config_control_design', 1994, #159 ) ;
#214 = EDGE_CURVE ( 'NONE', #352, #106, #164, .T. ) ;
#215 = AXIS2_PLACEMENT_3D ( 'NONE', #206, #60, #281 ) ;
#216 = VECTOR ( 'NONE', #287, 1000.000000000000000 ) ;
#217 = ORIENTED_EDGE ( 'NONE', *, *, #64, .F. ) ;
#218 = EDGE_CURVE ( 'NONE', #325, #352, #112, .T. ) ;
#219 = FACE_OUTER_BOUND ( 'NONE', #302, .T. ) ;
#220 = ORIENTED_EDGE ( 'NONE', *, *, #268, .F. ) ;
#221 = CIRCLE ( 'NONE', #33, 4.999999999999986677 ) ;
#222 = DIRECTION ( 'NONE',  ( 1.000000000000000000, 1.224646799147353454E-16, -0.000000000000000000 ) ) ;
#223 = VERTEX_POINT ( 'NONE', #143 ) ;
#224 = EDGE_LOOP ( 'NONE', ( #32, #247, #253, #217 ) ) ;
#225 = EDGE_LOOP ( 'NONE', ( #113, #333 ) ) ;
#226 = CIRCLE ( 'NONE', #344, 4.999999999999986677 ) ;
#227 = FACE_OUTER_BOUND ( 'NONE', #224, .T. ) ;
#228 = AXIS2_PLACEMENT_3D ( 'NONE', #364, #179, #345 ) ;
#229 = DIRECTION ( 'NONE',  ( -1.000000000000000000, -1.224646799147353454E-16, 0.000000000000000000 ) ) ;
#230 = CARTESIAN_POINT ( 'NONE',  ( -66.00000000000000000, -4.898587196589414604E-15, 0.000000000000000000 ) ) ;
#231 = APPROVAL_PERSON_ORGANIZATION ( #127, #312, #150 ) ;
#232 = APPROVAL_DATE_TIME ( #234, #312 ) ;
#233 = FACE_OUTER_BOUND ( 'NONE', #358, .T. ) ;
#234 = DATE_AND_TIME ( #117, #349 ) ;
#235 = MECHANICAL_CONTEXT ( 'NONE', #159, 'mechanical' ) ;
#236 = CARTESIAN_POINT ( 'NONE',  ( -14.00000000000000000, 1.469576158976823750E-15, 0.000000000000000000 ) ) ;
#237 = CIRCLE ( 'NONE', #313, 4.999999999999992895 ) ;
#238 = UNCERTAINTY_MEASURE_WITH_UNIT (LENGTH_MEASURE( 1.000000000000000082E-05 ), #296, 'distance_accuracy_value', 'NONE');
#239 = ADVANCED_FACE ( 'NONE', ( #301 ), #14, .T. ) ;
#240 = AXIS2_PLACEMENT_3D ( 'NONE', #314, #284, #286 ) ;
#241 = ORIENTED_EDGE ( 'NONE', *, *, #207, .F. ) ;
#242 = EDGE_CURVE ( 'NONE', #329, #304, #77, .T. ) ;
#243 = ADVANCED_FACE ( 'NONE', ( #219 ), #110, .T. ) ;
#244 = CARTESIAN_POINT ( 'NONE',  ( -5.248486282060074256E-16, -4.999999999999989342, 6.123233995736753463E-16 ) ) ;
#245 = ORIENTED_EDGE ( 'NONE', *, *, #12, .T. ) ;
#246 = DATE_AND_TIME ( #52, #292 ) ;
#247 = ORIENTED_EDGE ( 'NONE', *, *, #130, .T. ) ;
#248 = APPROVAL_PERSON_ORGANIZATION ( #146, #111, #17 ) ;
#249 = CARTESIAN_POINT ( 'NONE',  ( 4.267798857795038571E-16, 3.999999999999992450, 0.000000000000000000 ) ) ;
#250 = ORIENTED_EDGE ( 'NONE', *, *, #357, .F. ) ;
#251 = DIRECTION ( 'NONE',  ( 8.673617379884049031E-17, 1.000000000000000000, 0.000000000000000000 ) ) ;
#252 = CC_DESIGN_PERSON_AND_ORGANIZATION_ASSIGNMENT ( #267, #93, ( #319 ) ) ;
#253 = ORIENTED_EDGE ( 'NONE', *, *, #11, .F. ) ;
#254 = PLANE ( 'NONE',  #125 ) ;
#255 = LOCAL_TIME ( 16, 9, 4.000000000000000000, #35 ) ;
#256 = DIRECTION ( 'NONE',  ( -1.000000000000000000, 1.049697256412016947E-16, 0.000000000000000000 ) ) ;
#257 = PERSON_AND_ORGANIZATION ( #132, #68 ) ;
#258 = CYLINDRICAL_SURFACE ( 'NONE', #173, 4.999999999999989342 ) ;
#259 = CARTESIAN_POINT ( 'NONE',  ( -65.00000000000000000, -5.000000000000000000, 6.123233995736759380E-16 ) ) ;
#260 = CARTESIAN_POINT ( 'NONE',  ( -14.00000000000000000, 4.999999999999992006, 0.000000000000000000 ) ) ;
#261 = ADVANCED_FACE ( 'NONE', ( #72 ), #199, .T. ) ;
#262 = CYLINDRICAL_SURFACE ( 'NONE', #228, 4.999999999999989342 ) ;
#263 = CONICAL_SURFACE ( 'NONE', #266, 4.999999999999993783, 0.7853981633974548293 ) ;
#264 = PERSON_AND_ORGANIZATION_ROLE ( 'classification_officer' ) ;
#265 = AXIS2_PLACEMENT_3D ( 'NONE', #337, #37, #9 ) ;
#266 = AXIS2_PLACEMENT_3D ( 'NONE', #45, #194, #170 ) ;
#267 = PERSON_AND_ORGANIZATION ( #132, #68 ) ;
#268 = EDGE_CURVE ( 'NONE', #20, #135, #161, .T. ) ;
#269 = MANIFOLD_SOLID_BREP ( 'Révolution1', #10 ) ;
#270 = VERTEX_POINT ( 'NONE', #285 ) ;
#271 = VECTOR ( 'NONE', #83, 1000.000000000000000 ) ;
#272 = CARTESIAN_POINT ( 'NONE',  ( -14.00000000000000000, 1.469576158976823750E-15, 0.000000000000000000 ) ) ;
#273 = AXIS2_PLACEMENT_3D ( 'NONE', #230, #229, #342 ) ;
#274 = CARTESIAN_POINT ( 'NONE',  ( -65.00000000000000000, -4.776122516674679455E-15, 0.000000000000000000 ) ) ;
#275 = EDGE_LOOP ( 'NONE', ( #191, #49, #51, #172 ) ) ;
#276 = ORIENTED_EDGE ( 'NONE', *, *, #308, .F. ) ;
#277 = PRODUCT_DEFINITION_FORMATION_WITH_SPECIFIED_SOURCE ( 'ANY', '', #319, .NOT_KNOWN. ) ;
#278 = DIRECTION ( 'NONE',  ( 1.000000000000000000, -1.049697256412016947E-16, -0.000000000000000000 ) ) ;
#279 = FACE_OUTER_BOUND ( 'NONE', #71, .T. ) ;
#280 = ADVANCED_FACE ( 'NONE', ( #307 ), #109, .T. ) ;
#281 = DIRECTION ( 'NONE',  ( 1.049697256412017070E-16, 1.000000000000000000, 0.000000000000000000 ) ) ;
#282 = FACE_OUTER_BOUND ( 'NONE', #140, .T. ) ;
#283 = VECTOR ( 'NONE', #136, 999.9999999999998863 ) ;
#284 = DIRECTION ( 'NONE',  ( 1.285508385138735171E-32, 1.224646799147353207E-16, 1.000000000000000000 ) ) ;
#285 = CARTESIAN_POINT ( 'NONE',  ( 4.336808689942017736E-16, 3.999999999999992450, 0.000000000000000000 ) ) ;
#286 = DIRECTION ( 'NONE',  ( 0.000000000000000000, -1.000000000000000000, 1.224646799147353454E-16 ) ) ;
#287 = DIRECTION ( 'NONE',  ( 1.000000000000000000, -1.049697256412016947E-16, -0.000000000000000000 ) ) ;
#288 = PERSON_AND_ORGANIZATION ( #132, #68 ) ;
#289 = APPROVAL ( #162, 'UNSPECIFIED' ) ;
#290 = AXIS2_PLACEMENT_3D ( 'NONE', #121, #151, #30 ) ;
#291 = CARTESIAN_POINT ( 'NONE',  ( -65.99999999999998579, 3.999999999999988010, 0.000000000000000000 ) ) ;
#292 = LOCAL_TIME ( 16, 9, 4.000000000000000000, #326 ) ;
#293 = CARTESIAN_POINT ( 'NONE',  ( -65.00000000000000000, -4.999999999999999112, 6.123233995736758394E-16 ) ) ;
#294 = DIRECTION ( 'NONE',  ( 0.000000000000000000, 1.000000000000000000, 0.000000000000000000 ) ) ;
#295 = APPLICATION_CONTEXT ( 'configuration controlled 3d designs of mechanical parts and assemblies' ) ;
#296 =( LENGTH_UNIT ( ) NAMED_UNIT ( * ) SI_UNIT ( .MILLI., .METRE. ) );
#297 = ADVANCED_FACE ( 'NONE', ( #282 ), #258, .T. ) ;
#298 = ORIENTED_EDGE ( 'NONE', *, *, #218, .F. ) ;
#299 = COORDINATED_UNIVERSAL_TIME_OFFSET ( 1, 0, .AHEAD. ) ;
#300 = DIRECTION ( 'NONE',  ( 0.000000000000000000, 1.000000000000000000, 0.000000000000000000 ) ) ;
#301 = FACE_OUTER_BOUND ( 'NONE', #101, .T. ) ;
#302 = EDGE_LOOP ( 'NONE', ( #220, #346, #309, #241 ) ) ;
#303 = VERTEX_POINT ( 'NONE', #348 ) ;
#304 = VERTEX_POINT ( 'NONE', #63 ) ;
#305 = CLOSED_SHELL ( 'NONE', ( #297, #133, #100, #96, #67, #239 ) ) ;
#306 = ORIENTED_EDGE ( 'NONE', *, *, #357, .T. ) ;
#307 = FACE_OUTER_BOUND ( 'NONE', #73, .T. ) ;
#308 = EDGE_CURVE ( 'NONE', #106, #352, #53, .T. ) ;
#309 = ORIENTED_EDGE ( 'NONE', *, *, #148, .T. ) ;
#310 = CARTESIAN_POINT ( 'NONE',  ( -0.9999999999999991118, 3.999999999999992450, 0.000000000000000000 ) ) ;
#311 = PERSON_AND_ORGANIZATION_ROLE ( 'design_supplier' ) ;
#312 = APPROVAL ( #122, 'UNSPECIFIED' ) ;
#313 = AXIS2_PLACEMENT_3D ( 'NONE', #274, #98, #210 ) ;
#314 = CARTESIAN_POINT ( 'NONE',  ( -1.000000000000000000, -3.999999999999992450, 4.898587196589402968E-16 ) ) ;
#315 = COORDINATED_UNIVERSAL_TIME_OFFSET ( 1, 0, .AHEAD. ) ;
#316 = DIRECTION ( 'NONE',  ( 1.000000000000000000, 1.224646799147353454E-16, -0.000000000000000000 ) ) ;
#317 = DIRECTION ( 'NONE',  ( 1.049697256412017070E-16, 1.000000000000000000, 0.000000000000000000 ) ) ;
#318 = AXIS2_PLACEMENT_3D ( 'NONE', #90, #163, #300 ) ;
#319 = PRODUCT ( '387472387478', '387472387478', '', ( #235 ) ) ;
#320 = AXIS2_PLACEMENT_3D ( 'NONE', #103, #47, #183 ) ;
#321 = DIRECTION ( 'NONE',  ( 1.000000000000000000, 1.224646799147353454E-16, -0.000000000000000000 ) ) ;
#322 = CIRCLE ( 'NONE', #18, 3.999999999999992450 ) ;
#323 = CARTESIAN_POINT ( 'NONE',  ( -14.00000000000000000, 1.469576158976823750E-15, 0.000000000000000000 ) ) ;
#324 = CARTESIAN_POINT ( 'NONE',  ( -14.00000000000000000, -4.999999999999988454, 6.123233995736754449E-16 ) ) ;
#325 = VERTEX_POINT ( 'NONE', #193 ) ;
#326 = COORDINATED_UNIVERSAL_TIME_OFFSET ( 1, 0, .AHEAD. ) ;
#327 = DIRECTION ( 'NONE',  ( -1.224646799147353454E-16, 1.000000000000000000, 0.000000000000000000 ) ) ;
#328 = DIRECTION ( 'NONE',  ( 1.000000000000000000, 1.224646799147353454E-16, -0.000000000000000000 ) ) ;
#329 = VERTEX_POINT ( 'NONE', #291 ) ;
#330 = ORIENTED_EDGE ( 'NONE', *, *, #12, .F. ) ;
#331 = COORDINATED_UNIVERSAL_TIME_OFFSET ( 1, 0, .AHEAD. ) ;
#332 = DIRECTION ( 'NONE',  ( 1.000000000000000000, 1.224646799147353454E-16, -0.000000000000000000 ) ) ;
#333 = ORIENTED_EDGE ( 'NONE', *, *, #207, .T. ) ;
#334 = EDGE_CURVE ( 'NONE', #20, #304, #237, .T. ) ;
#335 = AXIS2_PLACEMENT_3D ( 'NONE', #24, #278, #251 ) ;
#336 = CIRCLE ( 'NONE', #174, 1.000000000000000000 ) ;
#337 = CARTESIAN_POINT ( 'NONE',  ( 1.380196642939580690E-17, -1.448788629402754042E-33, 0.000000000000000000 ) ) ;
#338 = DATE_TIME_ROLE ( 'classification_date' ) ;
#339 = DIRECTION ( 'NONE',  ( 0.000000000000000000, 0.000000000000000000, -1.000000000000000000 ) ) ;
#340 = SECURITY_CLASSIFICATION_LEVEL ( 'unclassified' ) ;
#341 = CC_DESIGN_DATE_AND_TIME_ASSIGNMENT ( #3, #338, ( #26 ) ) ;
#342 = DIRECTION ( 'NONE',  ( 1.224646799147353454E-16, -1.000000000000000000, 0.000000000000000000 ) ) ;
#343 = DIRECTION ( 'NONE',  ( 1.000000000000000000, -1.049697256412016947E-16, -0.000000000000000000 ) ) ;
#344 = AXIS2_PLACEMENT_3D ( 'NONE', #272, #222, #19 ) ;
#345 = DIRECTION ( 'NONE',  ( 1.049697256412017070E-16, 1.000000000000000000, 0.000000000000000000 ) ) ;
#346 = ORIENTED_EDGE ( 'NONE', *, *, #334, .T. ) ;
#347 = PRODUCT_RELATED_PRODUCT_CATEGORY ( 'detail', '', ( #319 ) ) ;
#348 = CARTESIAN_POINT ( 'NONE',  ( -4.060769361354101567E-16, -3.999999999999992450, 5.510910596163078709E-16 ) ) ;
#349 = LOCAL_TIME ( 16, 9, 4.000000000000000000, #315 ) ;
#350 = AXIS2_PLACEMENT_3D ( 'NONE', #115, #120, #118 ) ;
#351 = DIRECTION ( 'NONE',  ( 1.000000000000000000, -1.049697256412016947E-16, -0.000000000000000000 ) ) ;
#352 = VERTEX_POINT ( 'NONE', #69 ) ;
#353 = FACE_OUTER_BOUND ( 'NONE', #225, .T. ) ;
#354 = ORIENTED_EDGE ( 'NONE', *, *, #242, .T. ) ;
#355 = CALENDAR_DATE ( 2022, 31, 5 ) ;
#356 = ADVANCED_FACE ( 'NONE', ( #353 ), #158, .T. ) ;
#357 = EDGE_CURVE ( 'NONE', #86, #20, #188, .T. ) ;
#358 = EDGE_LOOP ( 'NONE', ( #50, #361 ) ) ;
#359 =( GEOMETRIC_REPRESENTATION_CONTEXT ( 3 ) GLOBAL_UNCERTAINTY_ASSIGNED_CONTEXT ( ( #238 ) ) GLOBAL_UNIT_ASSIGNED_CONTEXT ( ( #296, #134, #124 ) ) REPRESENTATION_CONTEXT ( 'NONE', 'WORKASPACE' ) );
#360 = DIRECTION ( 'NONE',  ( 1.049697256412016947E-16, 1.000000000000000000, 0.000000000000000000 ) ) ;
#361 = ORIENTED_EDGE ( 'NONE', *, *, #27, .F. ) ;
#362 = APPLICATION_PROTOCOL_DEFINITION ( 'international standard', 'config_control_design', 1994, #295 ) ;
#363 = VERTEX_POINT ( 'NONE', #44 ) ;
#364 = CARTESIAN_POINT ( 'NONE',  ( 0.000000000000000000, 0.000000000000000000, 0.000000000000000000 ) ) ;
#365 = EDGE_CURVE ( 'NONE', #329, #86, #152, .T. ) ;
ENDSEC;
END-ISO-10303-21;
