ISO-10303-21;
HEADER;
FILE_DESCRIPTION (( 'STEP AP203' ),
    '1' );
FILE_NAME ('387472387477.step',
    '2022-05-31T14:09:03',
    ( '' ),
    ( '' ),
    'SwSTEP 2.0',
    'SolidWorks 2019',
    '' );
FILE_SCHEMA (( 'CONFIG_CONTROL_DESIGN' ));
ENDSEC;

DATA;
#1 = AXIS2_PLACEMENT_3D ( 'NONE', #47, #219, #213 ) ;
#2 = DIRECTION ( 'NONE',  ( 1.000000000000000000, 1.224646799147353454E-16, -0.000000000000000000 ) ) ;
#3 = CARTESIAN_POINT ( 'NONE',  ( -65.99999999999998579, -4.898587196589413026E-15, 0.000000000000000000 ) ) ;
#4 = ORIENTED_EDGE ( 'NONE', *, *, #59, .F. ) ;
#5 = APPROVAL ( #362, 'UNSPECIFIED' ) ;
#6 = LINE ( 'NONE', #174, #276 ) ;
#7 = DIRECTION ( 'NONE',  ( 0.000000000000000000, 0.000000000000000000, 1.000000000000000000 ) ) ;
#8 = AXIS2_PLACEMENT_3D ( 'NONE', #146, #138, #71 ) ;
#9 = EDGE_CURVE ( 'NONE', #129, #93, #350, .T. ) ;
#10 = ORIENTED_EDGE ( 'NONE', *, *, #365, .F. ) ;
#11 = VERTEX_POINT ( 'NONE', #135 ) ;
#12 = AXIS2_PLACEMENT_3D ( 'NONE', #162, #42, #30 ) ;
#13 = EDGE_CURVE ( 'NONE', #255, #93, #90, .T. ) ;
#14 = PRODUCT ( '387472387477', '387472387477', '', ( #125 ) ) ;
#15 = ORIENTED_EDGE ( 'NONE', *, *, #130, .F. ) ;
#16 = ADVANCED_FACE ( 'NONE', ( #180 ), #233, .T. ) ;
#17 = EDGE_LOOP ( 'NONE', ( #96, #183 ) ) ;
#18 = CARTESIAN_POINT ( 'NONE',  ( -14.00000000000000000, 4.999999999999988454, 0.000000000000000000 ) ) ;
#19 = ORGANIZATION ( 'UNSPECIFIED', 'UNSPECIFIED', '' ) ;
#20 = APPROVAL_ROLE ( '' ) ;
#21 = CLOSED_SHELL ( 'NONE', ( #205, #143, #331, #165, #16, #105 ) ) ;
#22 = DIRECTION ( 'NONE',  ( -1.224646799147353454E-16, 1.000000000000000000, 0.000000000000000000 ) ) ;
#23 = COORDINATED_UNIVERSAL_TIME_OFFSET ( 1, 0, .AHEAD. ) ;
#24 = FACE_OUTER_BOUND ( 'NONE', #235, .T. ) ;
#25 = CC_DESIGN_PERSON_AND_ORGANIZATION_ASSIGNMENT ( #355, #45, ( #91 ) ) ;
#26 = CARTESIAN_POINT ( 'NONE',  ( 0.000000000000000000, 0.000000000000000000, 0.000000000000000000 ) ) ;
#27 = PERSON_AND_ORGANIZATION ( #127, #19 ) ;
#28 = EDGE_CURVE ( 'NONE', #364, #123, #158, .T. ) ;
#29 = AXIS2_PLACEMENT_3D ( 'NONE', #95, #287, #319 ) ;
#30 = DIRECTION ( 'NONE',  ( 1.049697256412016947E-16, 1.000000000000000000, 0.000000000000000000 ) ) ;
#31 = CARTESIAN_POINT ( 'NONE',  ( -0.5000000000000009992, 5.248486282060095210E-17, 0.000000000000000000 ) ) ;
#32 = CARTESIAN_POINT ( 'NONE',  ( -14.00000000000000000, 1.469576158976823750E-15, 0.000000000000000000 ) ) ;
#33 = DIRECTION ( 'NONE',  ( 1.000000000000000000, 1.224646799147353454E-16, -0.000000000000000000 ) ) ;
#34 = DIRECTION ( 'NONE',  ( 0.000000000000000000, 1.000000000000000000, 0.000000000000000000 ) ) ;
#35 = FACE_OUTER_BOUND ( 'NONE', #155, .T. ) ;
#36 = ORIENTED_EDGE ( 'NONE', *, *, #134, .T. ) ;
#37 = ORIENTED_EDGE ( 'NONE', *, *, #94, .F. ) ;
#38 = APPLICATION_CONTEXT ( 'configuration controlled 3d designs of mechanical parts and assemblies' ) ;
#39 = VECTOR ( 'NONE', #306, 1000.000000000000000 ) ;
#40 = ORIENTED_EDGE ( 'NONE', *, *, #13, .F. ) ;
#41 = ORIENTED_EDGE ( 'NONE', *, *, #241, .F. ) ;
#42 = DIRECTION ( 'NONE',  ( 1.000000000000000000, -1.049697256412016947E-16, -0.000000000000000000 ) ) ;
#43 = APPROVAL_STATUS ( 'not_yet_approved' ) ;
#44 = CARTESIAN_POINT ( 'NONE',  ( -0.5000000000000004441, 4.999999999999989342, 0.000000000000000000 ) ) ;
#45 = PERSON_AND_ORGANIZATION_ROLE ( 'creator' ) ;
#46 = CIRCLE ( 'NONE', #254, 4.999999999999992895 ) ;
#47 = CARTESIAN_POINT ( 'NONE',  ( -14.00000000000000000, 1.469576158976823750E-15, 0.000000000000000000 ) ) ;
#48 = PERSON_AND_ORGANIZATION_ROLE ( 'creator' ) ;
#49 = DIRECTION ( 'NONE',  ( 0.000000000000000000, 1.000000000000000000, 0.000000000000000000 ) ) ;
#50 = CARTESIAN_POINT ( 'NONE',  ( -65.00000000000000000, 4.999999999999988454, 0.000000000000000000 ) ) ;
#51 = LOCAL_TIME ( 16, 9, 3.000000000000000000, #328 ) ;
#52 = ADVANCED_BREP_SHAPE_REPRESENTATION ( '387472387477', ( #157, #265, #349 ), #169 ) ;
#53 = VERTEX_POINT ( 'NONE', #108 ) ;
#54 = LINE ( 'NONE', #57, #252 ) ;
#55 = AXIS2_PLACEMENT_3D ( 'NONE', #340, #334, #250 ) ;
#56 = AXIS2_PLACEMENT_3D ( 'NONE', #113, #329, #358 ) ;
#57 = CARTESIAN_POINT ( 'NONE',  ( -65.00000000000000000, -4.999999999999999112, 6.123233995736758394E-16 ) ) ;
#58 = ORIENTED_EDGE ( 'NONE', *, *, #248, .F. ) ;
#59 = EDGE_CURVE ( 'NONE', #204, #364, #77, .T. ) ;
#60 = DIRECTION ( 'NONE',  ( 1.000000000000000000, -1.049697256412016947E-16, -0.000000000000000000 ) ) ;
#61 = EDGE_CURVE ( 'NONE', #123, #231, #304, .T. ) ;
#62 = AXIS2_PLACEMENT_3D ( 'NONE', #65, #159, #184 ) ;
#63 = CIRCLE ( 'NONE', #117, 4.499999999999988454 ) ;
#64 = VERTEX_POINT ( 'NONE', #238 ) ;
#65 = CARTESIAN_POINT ( 'NONE',  ( -0.5000000000000009992, 5.248486282060095210E-17, 0.000000000000000000 ) ) ;
#66 = DESIGN_CONTEXT ( 'detailed design', #102, 'design' ) ;
#67 = PRODUCT_DEFINITION ( 'UNKNOWN', '', #91, #66 ) ;
#68 = APPROVAL_PERSON_ORGANIZATION ( #27, #5, #269 ) ;
#69 = CIRCLE ( 'NONE', #92, 3.999999999999993339 ) ;
#70 = VERTEX_POINT ( 'NONE', #242 ) ;
#71 = DIRECTION ( 'NONE',  ( 0.000000000000000000, -1.000000000000000000, 1.224646799147352961E-16 ) ) ;
#72 = PERSON_AND_ORGANIZATION_ROLE ( 'design_owner' ) ;
#73 = CARTESIAN_POINT ( 'NONE',  ( 0.000000000000000000, 0.000000000000000000, 0.000000000000000000 ) ) ;
#74 = PERSON_AND_ORGANIZATION ( #127, #19 ) ;
#75 = CARTESIAN_POINT ( 'NONE',  ( -65.99999999999998579, -4.898587196589413026E-15, 0.000000000000000000 ) ) ;
#76 = COORDINATED_UNIVERSAL_TIME_OFFSET ( 1, 0, .AHEAD. ) ;
#77 = LINE ( 'NONE', #50, #318 ) ;
#78 = SECURITY_CLASSIFICATION_LEVEL ( 'unclassified' ) ;
#79 = DIRECTION ( 'NONE',  ( 0.000000000000000000, 1.000000000000000000, 0.000000000000000000 ) ) ;
#80 = FACE_OUTER_BOUND ( 'NONE', #262, .T. ) ;
#81 = AXIS2_PLACEMENT_3D ( 'NONE', #116, #253, #226 ) ;
#82 = DIRECTION ( 'NONE',  ( 1.000000000000000000, 1.224646799147353454E-16, -0.000000000000000000 ) ) ;
#83 = EDGE_LOOP ( 'NONE', ( #198, #230, #311, #206 ) ) ;
#84 = ADVANCED_FACE ( 'NONE', ( #327 ), #348, .T. ) ;
#85 = CARTESIAN_POINT ( 'NONE',  ( 2.865777553544467166E-16, -3.008198835442769078E-32, 0.000000000000000000 ) ) ;
#86 =( NAMED_UNIT ( * ) PLANE_ANGLE_UNIT ( ) SI_UNIT ( $, .RADIAN. ) );
#87 = ORIENTED_EDGE ( 'NONE', *, *, #211, .T. ) ;
#88 = CARTESIAN_POINT ( 'NONE',  ( -14.00000000000000000, -4.999999999999985789, 6.123233995736752477E-16 ) ) ;
#89 = ORIENTED_EDGE ( 'NONE', *, *, #365, .T. ) ;
#90 = LINE ( 'NONE', #132, #186 ) ;
#91 = PRODUCT_DEFINITION_FORMATION_WITH_SPECIFIED_SOURCE ( 'ANY', '', #14, .NOT_KNOWN. ) ;
#92 = AXIS2_PLACEMENT_3D ( 'NONE', #75, #191, #193 ) ;
#93 = VERTEX_POINT ( 'NONE', #294 ) ;
#94 = EDGE_CURVE ( 'NONE', #53, #364, #46, .T. ) ;
#95 = CARTESIAN_POINT ( 'NONE',  ( -14.00000000000000000, 1.469576158976823750E-15, 0.000000000000000000 ) ) ;
#96 = ORIENTED_EDGE ( 'NONE', *, *, #61, .T. ) ;
#97 = LOCAL_TIME ( 16, 9, 3.000000000000000000, #76 ) ;
#98 = CARTESIAN_POINT ( 'NONE',  ( -65.00000000000000000, -4.776122516674679455E-15, 0.000000000000000000 ) ) ;
#99 = EDGE_CURVE ( 'NONE', #204, #11, #69, .T. ) ;
#100 = CIRCLE ( 'NONE', #351, 4.999999999999992895 ) ;
#101 = PERSON_AND_ORGANIZATION ( #127, #19 ) ;
#102 = APPLICATION_CONTEXT ( 'configuration controlled 3d designs of mechanical parts and assemblies' ) ;
#103 = CARTESIAN_POINT ( 'NONE',  ( -65.99999999999998579, 3.999999999999988010, 0.000000000000000000 ) ) ;
#104 = COORDINATED_UNIVERSAL_TIME_OFFSET ( 1, 0, .AHEAD. ) ;
#105 = ADVANCED_FACE ( 'NONE', ( #164 ), #217, .T. ) ;
#106 = CARTESIAN_POINT ( 'NONE',  ( -0.5000000000000004441, 4.499999999999988454, 0.000000000000000000 ) ) ;
#107 = PERSON_AND_ORGANIZATION_ROLE ( 'design_supplier' ) ;
#108 = CARTESIAN_POINT ( 'NONE',  ( -65.00000000000000000, -5.000000000000000000, 6.123233995736759380E-16 ) ) ;
#109 = LOCAL_TIME ( 16, 9, 3.000000000000000000, #240 ) ;
#110 = DATE_AND_TIME ( #142, #344 ) ;
#111 = CLOSED_SHELL ( 'NONE', ( #285, #181, #258, #279, #147, #84 ) ) ;
#112 = APPROVAL ( #43, 'UNSPECIFIED' ) ;
#113 = CARTESIAN_POINT ( 'NONE',  ( 6.156526430626297702E-16, 4.499999999999988454, 0.000000000000000000 ) ) ;
#114 = PERSON_AND_ORGANIZATION_ROLE ( 'classification_officer' ) ;
#115 = DIRECTION ( 'NONE',  ( 1.000000000000000000, -1.049697256412016947E-16, -0.000000000000000000 ) ) ;
#116 = CARTESIAN_POINT ( 'NONE',  ( -66.00000000000000000, -4.898587196589414604E-15, 0.000000000000000000 ) ) ;
#117 = AXIS2_PLACEMENT_3D ( 'NONE', #85, #115, #200 ) ;
#118 = AXIS2_PLACEMENT_3D ( 'NONE', #148, #2, #225 ) ;
#119 = DIRECTION ( 'NONE',  ( 0.000000000000000000, 1.000000000000000000, 0.000000000000000000 ) ) ;
#120 = ORIENTED_EDGE ( 'NONE', *, *, #99, .T. ) ;
#121 =( LENGTH_UNIT ( ) NAMED_UNIT ( * ) SI_UNIT ( .MILLI., .METRE. ) );
#122 = DIRECTION ( 'NONE',  ( 1.084202172485506776E-16, 1.000000000000000000, 0.000000000000000000 ) ) ;
#123 = VERTEX_POINT ( 'NONE', #160 ) ;
#124 = CIRCLE ( 'NONE', #224, 4.999999999999989342 ) ;
#125 = MECHANICAL_CONTEXT ( 'NONE', #38, 'mechanical' ) ;
#126 = ORIENTED_EDGE ( 'NONE', *, *, #296, .T. ) ;
#127 = PERSON ( 'UNSPECIFIED', 'UNSPECIFIED', 'UNSPECIFIED', ('UNSPECIFIED'), ('UNSPECIFIED'), ('UNSPECIFIED') ) ;
#128 = ORIENTED_EDGE ( 'NONE', *, *, #99, .F. ) ;
#129 = VERTEX_POINT ( 'NONE', #44 ) ;
#130 = EDGE_CURVE ( 'NONE', #172, #255, #131, .T. ) ;
#131 = CIRCLE ( 'NONE', #260, 4.999999999999986677 ) ;
#132 = CARTESIAN_POINT ( 'NONE',  ( -5.248486282060073270E-16, -4.999999999999988454, 6.123233995736752477E-16 ) ) ;
#133 = ORIENTED_EDGE ( 'NONE', *, *, #216, .F. ) ;
#134 = EDGE_CURVE ( 'NONE', #129, #70, #298, .T. ) ;
#135 = CARTESIAN_POINT ( 'NONE',  ( -65.99999999999998579, -3.999999999999998224, 5.510910596163080681E-16 ) ) ;
#136 = PERSON_AND_ORGANIZATION ( #127, #19 ) ;
#137 = CC_DESIGN_APPROVAL ( #245, ( #281 ) ) ;
#138 = DIRECTION ( 'NONE',  ( 1.285508385138735171E-32, 1.224646799147353207E-16, 1.000000000000000000 ) ) ;
#139 = CONICAL_SURFACE ( 'NONE', #270, 4.999999999999993783, 0.7853981633974548293 ) ;
#140 = CALENDAR_DATE ( 2022, 31, 5 ) ;
#141 = CARTESIAN_POINT ( 'NONE',  ( -14.00000000000000000, 1.469576158976823750E-15, 0.000000000000000000 ) ) ;
#142 = CALENDAR_DATE ( 2022, 31, 5 ) ;
#143 = ADVANCED_FACE ( 'NONE', ( #24 ), #326, .T. ) ;
#144 = DIRECTION ( 'NONE',  ( 1.049697256412017070E-16, 1.000000000000000000, 0.000000000000000000 ) ) ;
#145 = DATE_TIME_ROLE ( 'creation_date' ) ;
#146 = CARTESIAN_POINT ( 'NONE',  ( -0.5000000000000013323, -4.499999999999988454, 5.510910596163075750E-16 ) ) ;
#147 = ADVANCED_FACE ( 'NONE', ( #194 ), #322, .T. ) ;
#148 = CARTESIAN_POINT ( 'NONE',  ( -65.00000000000000000, -4.776122516674679455E-15, 0.000000000000000000 ) ) ;
#149 = DIRECTION ( 'NONE',  ( 1.049697256412016947E-16, 1.000000000000000000, 0.000000000000000000 ) ) ;
#150 = ORIENTED_EDGE ( 'NONE', *, *, #239, .T. ) ;
#151 = CARTESIAN_POINT ( 'NONE',  ( -65.00000000000000000, 4.999999999999987566, 0.000000000000000000 ) ) ;
#152 = APPLICATION_PROTOCOL_DEFINITION ( 'international standard', 'config_control_design', 1994, #38 ) ;
#153 = ORIENTED_EDGE ( 'NONE', *, *, #211, .F. ) ;
#154 = CARTESIAN_POINT ( 'NONE',  ( -14.00000000000000000, 4.999999999999992006, 0.000000000000000000 ) ) ;
#155 = EDGE_LOOP ( 'NONE', ( #10, #263, #335, #37 ) ) ;
#156 = ORIENTED_EDGE ( 'NONE', *, *, #241, .T. ) ;
#157 = MANIFOLD_SOLID_BREP ( 'Révolution1', #111 ) ;
#158 = LINE ( 'NONE', #154, #292 ) ;
#159 = DIRECTION ( 'NONE',  ( 1.000000000000000000, -1.049697256412016947E-16, -0.000000000000000000 ) ) ;
#160 = CARTESIAN_POINT ( 'NONE',  ( -14.00000000000000000, 4.999999999999988454, 0.000000000000000000 ) ) ;
#161 = APPROVAL_STATUS ( 'not_yet_approved' ) ;
#162 = CARTESIAN_POINT ( 'NONE',  ( -0.5000000000000008882, 0.000000000000000000, 0.000000000000000000 ) ) ;
#163 = PERSON_AND_ORGANIZATION ( #127, #19 ) ;
#164 = FACE_OUTER_BOUND ( 'NONE', #343, .T. ) ;
#165 = ADVANCED_FACE ( 'NONE', ( #302 ), #168, .T. ) ;
#166 = DIRECTION ( 'NONE',  ( 0.000000000000000000, 1.000000000000000000, 0.000000000000000000 ) ) ;
#167 = DATE_AND_TIME ( #300, #109 ) ;
#168 = CYLINDRICAL_SURFACE ( 'NONE', #212, 4.999999999999988454 ) ;
#169 =( GEOMETRIC_REPRESENTATION_CONTEXT ( 3 ) GLOBAL_UNCERTAINTY_ASSIGNED_CONTEXT ( ( #208 ) ) GLOBAL_UNIT_ASSIGNED_CONTEXT ( ( #121, #86, #221 ) ) REPRESENTATION_CONTEXT ( 'NONE', 'WORKASPACE' ) );
#170 = AXIS2_PLACEMENT_3D ( 'NONE', #257, #313, #119 ) ;
#171 = DIRECTION ( 'NONE',  ( 0.000000000000000000, 1.000000000000000000, 0.000000000000000000 ) ) ;
#172 = VERTEX_POINT ( 'NONE', #18 ) ;
#173 = DIRECTION ( 'NONE',  ( 0.000000000000000000, 1.000000000000000000, 0.000000000000000000 ) ) ;
#174 = CARTESIAN_POINT ( 'NONE',  ( -14.00000000000000000, -4.999999999999988454, 6.123233995736754449E-16 ) ) ;
#175 = CARTESIAN_POINT ( 'NONE',  ( -65.00000000000000000, -4.776122516674679455E-15, 0.000000000000000000 ) ) ;
#176 = CC_DESIGN_DATE_AND_TIME_ASSIGNMENT ( #189, #145, ( #67 ) ) ;
#177 = DIRECTION ( 'NONE',  ( 0.7071067811865431318, -0.7071067811865520136, 8.659560562354990790E-17 ) ) ;
#178 = CC_DESIGN_PERSON_AND_ORGANIZATION_ASSIGNMENT ( #163, #107, ( #91 ) ) ;
#179 = CARTESIAN_POINT ( 'NONE',  ( 0.000000000000000000, 0.000000000000000000, 0.000000000000000000 ) ) ;
#180 = FACE_OUTER_BOUND ( 'NONE', #251, .T. ) ;
#181 = ADVANCED_FACE ( 'NONE', ( #274 ), #139, .T. ) ;
#182 = CIRCLE ( 'NONE', #170, 4.999999999999986677 ) ;
#183 = ORIENTED_EDGE ( 'NONE', *, *, #248, .T. ) ;
#184 = DIRECTION ( 'NONE',  ( 1.084202172485506776E-16, 1.000000000000000000, 0.000000000000000000 ) ) ;
#185 = ORIENTED_EDGE ( 'NONE', *, *, #356, .T. ) ;
#186 = VECTOR ( 'NONE', #60, 1000.000000000000000 ) ;
#187 = ORIENTED_EDGE ( 'NONE', *, *, #9, .T. ) ;
#188 = FACE_OUTER_BOUND ( 'NONE', #83, .T. ) ;
#189 = DATE_AND_TIME ( #295, #51 ) ;
#190 = DIRECTION ( 'NONE',  ( 1.000000000000000000, -1.049697256412016947E-16, -0.000000000000000000 ) ) ;
#191 = DIRECTION ( 'NONE',  ( 1.000000000000000000, 1.224646799147353454E-16, -0.000000000000000000 ) ) ;
#192 = SHAPE_DEFINITION_REPRESENTATION ( #267, #52 ) ;
#193 = DIRECTION ( 'NONE',  ( 0.000000000000000000, 1.000000000000000000, 0.000000000000000000 ) ) ;
#194 = FACE_OUTER_BOUND ( 'NONE', #232, .T. ) ;
#195 = CIRCLE ( 'NONE', #332, 3.999999999999993339 ) ;
#196 = FACE_OUTER_BOUND ( 'NONE', #320, .T. ) ;
#197 = APPROVAL_PERSON_ORGANIZATION ( #243, #245, #20 ) ;
#198 = ORIENTED_EDGE ( 'NONE', *, *, #130, .T. ) ;
#199 = CONICAL_SURFACE ( 'NONE', #118, 4.999999999999993783, 0.7853981633974548293 ) ;
#200 = DIRECTION ( 'NONE',  ( 1.049697256412016947E-16, 1.000000000000000000, 0.000000000000000000 ) ) ;
#201 = FACE_OUTER_BOUND ( 'NONE', #284, .T. ) ;
#202 = EDGE_CURVE ( 'NONE', #93, #64, #305, .T. ) ;
#203 = TOROIDAL_SURFACE ( 'NONE', #207, 4.499999999999988454, 0.5000000000000013323 ) ;
#204 = VERTEX_POINT ( 'NONE', #103 ) ;
#205 = ADVANCED_FACE ( 'NONE', ( #188 ), #323, .T. ) ;
#206 = ORIENTED_EDGE ( 'NONE', *, *, #356, .F. ) ;
#207 = AXIS2_PLACEMENT_3D ( 'NONE', #282, #249, #363 ) ;
#208 = UNCERTAINTY_MEASURE_WITH_UNIT (LENGTH_MEASURE( 1.000000000000000082E-05 ), #121, 'distance_accuracy_value', 'NONE');
#209 = ORIENTED_EDGE ( 'NONE', *, *, #202, .F. ) ;
#210 = EDGE_LOOP ( 'NONE', ( #120, #89, #133, #4 ) ) ;
#211 = EDGE_CURVE ( 'NONE', #255, #172, #288, .T. ) ;
#212 = AXIS2_PLACEMENT_3D ( 'NONE', #26, #244, #144 ) ;
#213 = DIRECTION ( 'NONE',  ( 0.000000000000000000, 1.000000000000000000, 0.000000000000000000 ) ) ;
#214 = CARTESIAN_POINT ( 'NONE',  ( -14.00000000000000000, 1.469576158976823750E-15, 0.000000000000000000 ) ) ;
#215 = DATE_AND_TIME ( #140, #97 ) ;
#216 = EDGE_CURVE ( 'NONE', #364, #53, #100, .T. ) ;
#217 = PLANE ( 'NONE',  #56 ) ;
#218 = APPROVAL_DATE_TIME ( #110, #112 ) ;
#219 = DIRECTION ( 'NONE',  ( 1.000000000000000000, 1.224646799147353454E-16, -0.000000000000000000 ) ) ;
#220 = DIRECTION ( 'NONE',  ( 1.000000000000000000, 1.224646799147353454E-16, -0.000000000000000000 ) ) ;
#221 =( NAMED_UNIT ( * ) SI_UNIT ( $, .STERADIAN. ) SOLID_ANGLE_UNIT ( ) );
#222 = CC_DESIGN_APPROVAL ( #112, ( #91 ) ) ;
#223 = CYLINDRICAL_SURFACE ( 'NONE', #55, 4.999999999999990230 ) ;
#224 = AXIS2_PLACEMENT_3D ( 'NONE', #31, #309, #122 ) ;
#225 = DIRECTION ( 'NONE',  ( 0.000000000000000000, 1.000000000000000000, 0.000000000000000000 ) ) ;
#226 = DIRECTION ( 'NONE',  ( 1.224646799147353454E-16, -1.000000000000000000, 0.000000000000000000 ) ) ;
#227 = LOCAL_TIME ( 16, 9, 3.000000000000000000, #104 ) ;
#228 = ORIENTED_EDGE ( 'NONE', *, *, #357, .F. ) ;
#229 = AXIS2_PLACEMENT_3D ( 'NONE', #141, #273, #22 ) ;
#230 = ORIENTED_EDGE ( 'NONE', *, *, #13, .T. ) ;
#231 = VERTEX_POINT ( 'NONE', #88 ) ;
#232 = EDGE_LOOP ( 'NONE', ( #307, #316, #291, #58 ) ) ;
#233 = PLANE ( 'NONE',  #29 ) ;
#234 = CC_DESIGN_PERSON_AND_ORGANIZATION_ASSIGNMENT ( #101, #48, ( #67 ) ) ;
#235 = EDGE_LOOP ( 'NONE', ( #187, #345, #41, #341 ) ) ;
#236 = DATE_AND_TIME ( #359, #227 ) ;
#237 = CIRCLE ( 'NONE', #333, 4.499999999999988454 ) ;
#238 = CARTESIAN_POINT ( 'NONE',  ( -1.857860100309596953E-16, -4.499999999999988454, 5.817072295949914607E-16 ) ) ;
#239 = EDGE_CURVE ( 'NONE', #93, #129, #124, .T. ) ;
#240 = COORDINATED_UNIVERSAL_TIME_OFFSET ( 1, 0, .AHEAD. ) ;
#241 = EDGE_CURVE ( 'NONE', #70, #64, #237, .T. ) ;
#242 = CARTESIAN_POINT ( 'NONE',  ( 7.589415207398531038E-16, 4.499999999999988454, 0.000000000000000000 ) ) ;
#243 = PERSON_AND_ORGANIZATION ( #127, #19 ) ;
#244 = DIRECTION ( 'NONE',  ( 1.000000000000000000, -1.049697256412016947E-16, -0.000000000000000000 ) ) ;
#245 = APPROVAL ( #161, 'UNSPECIFIED' ) ;
#246 = DIRECTION ( 'NONE',  ( 1.000000000000000000, 1.224646799147353454E-16, -0.000000000000000000 ) ) ;
#247 = APPROVAL_ROLE ( '' ) ;
#248 = EDGE_CURVE ( 'NONE', #231, #123, #182, .T. ) ;
#249 = DIRECTION ( 'NONE',  ( 1.000000000000000000, -1.049697256412016947E-16, -0.000000000000000000 ) ) ;
#250 = DIRECTION ( 'NONE',  ( 0.000000000000000000, 1.000000000000000000, 0.000000000000000000 ) ) ;
#251 = EDGE_LOOP ( 'NONE', ( #15, #153 ) ) ;
#252 = VECTOR ( 'NONE', #177, 999.9999999999998863 ) ;
#253 = DIRECTION ( 'NONE',  ( -1.000000000000000000, -1.224646799147353454E-16, 0.000000000000000000 ) ) ;
#254 = AXIS2_PLACEMENT_3D ( 'NONE', #98, #246, #49 ) ;
#255 = VERTEX_POINT ( 'NONE', #278 ) ;
#256 = PLANE ( 'NONE',  #81 ) ;
#257 = CARTESIAN_POINT ( 'NONE',  ( -14.00000000000000000, 1.469576158976823750E-15, 0.000000000000000000 ) ) ;
#258 = ADVANCED_FACE ( 'NONE', ( #80 ), #256, .T. ) ;
#259 = ORIENTED_EDGE ( 'NONE', *, *, #308, .T. ) ;
#260 = AXIS2_PLACEMENT_3D ( 'NONE', #214, #354, #79 ) ;
#261 = AXIS2_PLACEMENT_3D ( 'NONE', #73, #190, #297 ) ;
#262 = EDGE_LOOP ( 'NONE', ( #128, #228 ) ) ;
#263 = ORIENTED_EDGE ( 'NONE', *, *, #357, .T. ) ;
#264 = CC_DESIGN_PERSON_AND_ORGANIZATION_ASSIGNMENT ( #272, #72, ( #14 ) ) ;
#265 = MANIFOLD_SOLID_BREP ( 'Révolution2', #21 ) ;
#266 = EDGE_LOOP ( 'NONE', ( #40, #87, #185, #293 ) ) ;
#267 = PRODUCT_DEFINITION_SHAPE ( 'NONE', 'NONE',  #67 ) ;
#268 = DIRECTION ( 'NONE',  ( -1.000000000000000000, 0.000000000000000000, 0.000000000000000000 ) ) ;
#269 = APPROVAL_ROLE ( '' ) ;
#270 = AXIS2_PLACEMENT_3D ( 'NONE', #361, #277, #352 ) ;
#271 = DIRECTION ( 'NONE',  ( 0.7071067811865427988, 0.7071067811865522357, 0.000000000000000000 ) ) ;
#272 = PERSON_AND_ORGANIZATION ( #127, #19 ) ;
#273 = DIRECTION ( 'NONE',  ( 1.000000000000000000, 1.224646799147353454E-16, -0.000000000000000000 ) ) ;
#274 = FACE_OUTER_BOUND ( 'NONE', #210, .T. ) ;
#275 = APPROVAL_DATE_TIME ( #215, #245 ) ;
#276 = VECTOR ( 'NONE', #280, 1000.000000000000000 ) ;
#277 = DIRECTION ( 'NONE',  ( 1.000000000000000000, 1.224646799147353454E-16, -0.000000000000000000 ) ) ;
#278 = CARTESIAN_POINT ( 'NONE',  ( -14.00000000000000000, -4.999999999999985789, 6.123233995736751491E-16 ) ) ;
#279 = ADVANCED_FACE ( 'NONE', ( #35 ), #199, .T. ) ;
#280 = DIRECTION ( 'NONE',  ( 1.000000000000000000, 1.224646799147353454E-16, -0.000000000000000000 ) ) ;
#281 = SECURITY_CLASSIFICATION ( '', '', #78 ) ;
#282 = CARTESIAN_POINT ( 'NONE',  ( -0.5000000000000008882, 0.000000000000000000, 0.000000000000000000 ) ) ;
#283 = DIRECTION ( 'NONE',  ( 1.000000000000000000, -1.049697256412016947E-16, -0.000000000000000000 ) ) ;
#284 = EDGE_LOOP ( 'NONE', ( #342, #259, #339, #290 ) ) ;
#285 = ADVANCED_FACE ( 'NONE', ( #201 ), #223, .T. ) ;
#286 = DIRECTION ( 'NONE',  ( 1.000000000000000000, 0.000000000000000000, 0.000000000000000000 ) ) ;
#287 = DIRECTION ( 'NONE',  ( -1.000000000000000000, 1.049697256412016947E-16, 0.000000000000000000 ) ) ;
#288 = CIRCLE ( 'NONE', #321, 4.999999999999986677 ) ;
#289 = ORIENTED_EDGE ( 'NONE', *, *, #296, .F. ) ;
#290 = ORIENTED_EDGE ( 'NONE', *, *, #28, .F. ) ;
#291 = ORIENTED_EDGE ( 'NONE', *, *, #28, .T. ) ;
#292 = VECTOR ( 'NONE', #220, 1000.000000000000000 ) ;
#293 = ORIENTED_EDGE ( 'NONE', *, *, #239, .F. ) ;
#294 = CARTESIAN_POINT ( 'NONE',  ( -0.5000000000000015543, -4.999999999999989342, 6.123233995736753463E-16 ) ) ;
#295 = CALENDAR_DATE ( 2022, 31, 5 ) ;
#296 = EDGE_CURVE ( 'NONE', #64, #70, #63, .T. ) ;
#297 = DIRECTION ( 'NONE',  ( 1.049697256412017070E-16, 1.000000000000000000, 0.000000000000000000 ) ) ;
#298 = CIRCLE ( 'NONE', #346, 0.5000000000000013323 ) ;
#299 = DIRECTION ( 'NONE',  ( 1.000000000000000000, 1.224646799147353454E-16, -0.000000000000000000 ) ) ;
#300 = CALENDAR_DATE ( 2022, 31, 5 ) ;
#301 = DIRECTION ( 'NONE',  ( 0.000000000000000000, 0.000000000000000000, -1.000000000000000000 ) ) ;
#302 = FACE_OUTER_BOUND ( 'NONE', #266, .T. ) ;
#303 = CC_DESIGN_SECURITY_CLASSIFICATION ( #281, ( #91 ) ) ;
#304 = CIRCLE ( 'NONE', #1, 4.999999999999986677 ) ;
#305 = CIRCLE ( 'NONE', #8, 0.5000000000000013323 ) ;
#306 = DIRECTION ( 'NONE',  ( 1.000000000000000000, -1.049697256412016947E-16, -0.000000000000000000 ) ) ;
#307 = ORIENTED_EDGE ( 'NONE', *, *, #308, .F. ) ;
#308 = EDGE_CURVE ( 'NONE', #53, #231, #6, .T. ) ;
#309 = DIRECTION ( 'NONE',  ( 1.000000000000000000, -1.049697256412016947E-16, -0.000000000000000000 ) ) ;
#310 = LINE ( 'NONE', #315, #39 ) ;
#311 = ORIENTED_EDGE ( 'NONE', *, *, #9, .F. ) ;
#312 = CC_DESIGN_DATE_AND_TIME_ASSIGNMENT ( #236, #325, ( #281 ) ) ;
#313 = DIRECTION ( 'NONE',  ( 1.000000000000000000, 1.224646799147353454E-16, -0.000000000000000000 ) ) ;
#314 = AXIS2_PLACEMENT_3D ( 'NONE', #324, #299, #166 ) ;
#315 = CARTESIAN_POINT ( 'NONE',  ( 5.248486282060073270E-16, 4.999999999999988454, 0.000000000000000000 ) ) ;
#316 = ORIENTED_EDGE ( 'NONE', *, *, #94, .T. ) ;
#317 = APPROVAL_PERSON_ORGANIZATION ( #136, #112, #247 ) ;
#318 = VECTOR ( 'NONE', #271, 1000.000000000000000 ) ;
#319 = DIRECTION ( 'NONE',  ( -1.049697256412016947E-16, -1.000000000000000000, 0.000000000000000000 ) ) ;
#320 = EDGE_LOOP ( 'NONE', ( #209, #150, #36, #289 ) ) ;
#321 = AXIS2_PLACEMENT_3D ( 'NONE', #32, #283, #171 ) ;
#322 = CYLINDRICAL_SURFACE ( 'NONE', #314, 4.999999999999990230 ) ;
#323 = CYLINDRICAL_SURFACE ( 'NONE', #261, 4.999999999999988454 ) ;
#324 = CARTESIAN_POINT ( 'NONE',  ( -14.00000000000000000, 1.469576158976823750E-15, 0.000000000000000000 ) ) ;
#325 = DATE_TIME_ROLE ( 'classification_date' ) ;
#326 = TOROIDAL_SURFACE ( 'NONE', #12, 4.499999999999988454, 0.5000000000000013323 ) ;
#327 = FACE_OUTER_BOUND ( 'NONE', #17, .T. ) ;
#328 = COORDINATED_UNIVERSAL_TIME_OFFSET ( 1, 0, .AHEAD. ) ;
#329 = DIRECTION ( 'NONE',  ( 1.000000000000000000, -1.049697256412016947E-16, -0.000000000000000000 ) ) ;
#330 = APPROVAL_DATE_TIME ( #167, #5 ) ;
#331 = ADVANCED_FACE ( 'NONE', ( #196 ), #203, .T. ) ;
#332 = AXIS2_PLACEMENT_3D ( 'NONE', #3, #82, #173 ) ;
#333 = AXIS2_PLACEMENT_3D ( 'NONE', #336, #338, #149 ) ;
#334 = DIRECTION ( 'NONE',  ( 1.000000000000000000, 1.224646799147353454E-16, -0.000000000000000000 ) ) ;
#335 = ORIENTED_EDGE ( 'NONE', *, *, #59, .T. ) ;
#336 = CARTESIAN_POINT ( 'NONE',  ( 2.865777553544467166E-16, -3.008198835442769078E-32, 0.000000000000000000 ) ) ;
#337 = CC_DESIGN_PERSON_AND_ORGANIZATION_ASSIGNMENT ( #74, #114, ( #281 ) ) ;
#338 = DIRECTION ( 'NONE',  ( 1.000000000000000000, -1.049697256412016947E-16, -0.000000000000000000 ) ) ;
#339 = ORIENTED_EDGE ( 'NONE', *, *, #61, .F. ) ;
#340 = CARTESIAN_POINT ( 'NONE',  ( -14.00000000000000000, 1.469576158976823750E-15, 0.000000000000000000 ) ) ;
#341 = ORIENTED_EDGE ( 'NONE', *, *, #134, .F. ) ;
#342 = ORIENTED_EDGE ( 'NONE', *, *, #216, .T. ) ;
#343 = EDGE_LOOP ( 'NONE', ( #156, #126 ) ) ;
#344 = LOCAL_TIME ( 16, 9, 3.000000000000000000, #23 ) ;
#345 = ORIENTED_EDGE ( 'NONE', *, *, #202, .T. ) ;
#346 = AXIS2_PLACEMENT_3D ( 'NONE', #106, #301, #268 ) ;
#347 = PRODUCT_RELATED_PRODUCT_CATEGORY ( 'detail', '', ( #14 ) ) ;
#348 = PLANE ( 'NONE',  #229 ) ;
#349 = AXIS2_PLACEMENT_3D ( 'NONE', #179, #7, #286 ) ;
#350 = CIRCLE ( 'NONE', #62, 4.999999999999989342 ) ;
#351 = AXIS2_PLACEMENT_3D ( 'NONE', #175, #33, #34 ) ;
#352 = DIRECTION ( 'NONE',  ( 0.000000000000000000, 1.000000000000000000, 0.000000000000000000 ) ) ;
#353 = APPLICATION_PROTOCOL_DEFINITION ( 'international standard', 'config_control_design', 1994, #102 ) ;
#354 = DIRECTION ( 'NONE',  ( 1.000000000000000000, -1.049697256412016947E-16, -0.000000000000000000 ) ) ;
#355 = PERSON_AND_ORGANIZATION ( #127, #19 ) ;
#356 = EDGE_CURVE ( 'NONE', #172, #129, #310, .T. ) ;
#357 = EDGE_CURVE ( 'NONE', #11, #204, #195, .T. ) ;
#358 = DIRECTION ( 'NONE',  ( 1.049697256412016947E-16, 1.000000000000000000, 0.000000000000000000 ) ) ;
#359 = CALENDAR_DATE ( 2022, 31, 5 ) ;
#360 = CC_DESIGN_APPROVAL ( #5, ( #67 ) ) ;
#361 = CARTESIAN_POINT ( 'NONE',  ( -65.00000000000000000, -4.776122516674679455E-15, 0.000000000000000000 ) ) ;
#362 = APPROVAL_STATUS ( 'not_yet_approved' ) ;
#363 = DIRECTION ( 'NONE',  ( 1.049697256412016947E-16, 1.000000000000000000, 0.000000000000000000 ) ) ;
#364 = VERTEX_POINT ( 'NONE', #151 ) ;
#365 = EDGE_CURVE ( 'NONE', #11, #53, #54, .T. ) ;
ENDSEC;
END-ISO-10303-21;
