ISO-10303-21;
HEADER;
FILE_DESCRIPTION (( 'STEP AP203' ),
    '1' );
FILE_NAME ('387472387476.step',
    '2022-05-31T14:09:02',
    ( '' ),
    ( '' ),
    'SwSTEP 2.0',
    'SolidWorks 2019',
    '' );
FILE_SCHEMA (( 'CONFIG_CONTROL_DESIGN' ));
ENDSEC;

DATA;
#1 = ORIENTED_EDGE ( 'NONE', *, *, #172, .T. ) ;
#2 = LOCAL_TIME ( 16, 9, 2.000000000000000000, #78 ) ;
#3 = AXIS2_PLACEMENT_3D ( 'NONE', #42, #321, #4 ) ;
#4 = DIRECTION ( 'NONE',  ( 0.000000000000000000, 1.000000000000000000, 0.000000000000000000 ) ) ;
#5 = LOCAL_TIME ( 16, 9, 2.000000000000000000, #319 ) ;
#6 = DIRECTION ( 'NONE',  ( 1.000000000000000000, 1.224646799147353207E-16, -0.000000000000000000 ) ) ;
#7 = CARTESIAN_POINT ( 'NONE',  ( -4.336808689942017736E-16, 2.999999999999993339, 0.000000000000000000 ) ) ;
#8 = APPROVAL ( #124, 'UNSPECIFIED' ) ;
#9 = PLANE ( 'NONE',  #297 ) ;
#10 = SECURITY_CLASSIFICATION_LEVEL ( 'unclassified' ) ;
#11 = DIRECTION ( 'NONE',  ( -2.041077998578920677E-17, 1.000000000000000000, 0.000000000000000000 ) ) ;
#12 = FACE_OUTER_BOUND ( 'NONE', #337, .T. ) ;
#13 = AXIS2_PLACEMENT_3D ( 'NONE', #107, #180, #41 ) ;
#14 = DIRECTION ( 'NONE',  ( -2.041077998578920677E-17, 1.000000000000000000, 0.000000000000000000 ) ) ;
#15 = CARTESIAN_POINT ( 'NONE',  ( -12.00000000000000000, -2.449293598294704935E-16, 0.000000000000000000 ) ) ;
#16 = EDGE_CURVE ( 'NONE', #46, #149, #309, .T. ) ;
#17 = VECTOR ( 'NONE', #97, 1000.000000000000000 ) ;
#18 = CYLINDRICAL_SURFACE ( 'NONE', #3, 3.999999999999996447 ) ;
#19 = DIRECTION ( 'NONE',  ( 1.000000000000000000, 2.041077998578920677E-17, -0.000000000000000000 ) ) ;
#20 = CARTESIAN_POINT ( 'NONE',  ( -57.20000000000000284, -5.780332891975507355E-15, 0.000000000000000000 ) ) ;
#21 = APPLICATION_PROTOCOL_DEFINITION ( 'international standard', 'config_control_design', 1994, #101 ) ;
#22 = DIRECTION ( 'NONE',  ( 0.000000000000000000, -1.000000000000000000, 1.224646799147352961E-16 ) ) ;
#23 = ORIENTED_EDGE ( 'NONE', *, *, #30, .F. ) ;
#24 = APPLICATION_PROTOCOL_DEFINITION ( 'international standard', 'config_control_design', 1994, #299 ) ;
#25 = VERTEX_POINT ( 'NONE', #7 ) ;
#26 = APPROVAL_PERSON_ORGANIZATION ( #332, #62, #83 ) ;
#27 = COORDINATED_UNIVERSAL_TIME_OFFSET ( 1, 0, .AHEAD. ) ;
#28 = EDGE_LOOP ( 'NONE', ( #113, #146, #308, #338 ) ) ;
#29 = EDGE_LOOP ( 'NONE', ( #256, #340, #173, #23 ) ) ;
#30 = EDGE_CURVE ( 'NONE', #140, #333, #75, .T. ) ;
#31 = VERTEX_POINT ( 'NONE', #249 ) ;
#32 = MANIFOLD_SOLID_BREP ( 'Révolution1', #323 ) ;
#33 = EDGE_LOOP ( 'NONE', ( #283, #111 ) ) ;
#34 = CLOSED_SHELL ( 'NONE', ( #92, #108, #127, #234, #148, #155 ) ) ;
#35 = AXIS2_PLACEMENT_3D ( 'NONE', #246, #213, #69 ) ;
#36 = MANIFOLD_SOLID_BREP ( 'Révolution2', #34 ) ;
#37 = AXIS2_PLACEMENT_3D ( 'NONE', #178, #102, #336 ) ;
#38 = DIRECTION ( 'NONE',  ( -1.224646799147353207E-16, 1.000000000000000000, 0.000000000000000000 ) ) ;
#39 = EDGE_CURVE ( 'NONE', #76, #25, #238, .T. ) ;
#40 = DIRECTION ( 'NONE',  ( -1.000000000000000000, -1.224646799147353207E-16, 0.000000000000000000 ) ) ;
#41 = DIRECTION ( 'NONE',  ( 0.000000000000000000, 1.000000000000000000, 0.000000000000000000 ) ) ;
#42 = CARTESIAN_POINT ( 'NONE',  ( -12.00000000000000000, -2.449293598294704935E-16, 0.000000000000000000 ) ) ;
#43 = DIRECTION ( 'NONE',  ( 1.000000000000000000, 2.041077998578920677E-17, -0.000000000000000000 ) ) ;
#44 = DIRECTION ( 'NONE',  ( -2.041077998578920677E-17, 1.000000000000000000, 0.000000000000000000 ) ) ;
#45 = PLANE ( 'NONE',  #232 ) ;
#46 = VERTEX_POINT ( 'NONE', #295 ) ;
#47 = CARTESIAN_POINT ( 'NONE',  ( -12.00000000000000000, -2.449293598294704442E-16, 0.000000000000000000 ) ) ;
#48 = DIRECTION ( 'NONE',  ( 0.000000000000000000, 1.000000000000000000, 0.000000000000000000 ) ) ;
#49 = APPROVAL_DATE_TIME ( #306, #260 ) ;
#50 = DIRECTION ( 'NONE',  ( -2.499599637769761311E-33, 1.224646799147353207E-16, 1.000000000000000000 ) ) ;
#51 =( NAMED_UNIT ( * ) SI_UNIT ( $, .STERADIAN. ) SOLID_ANGLE_UNIT ( ) );
#52 = EDGE_LOOP ( 'NONE', ( #194, #242, #224, #344 ) ) ;
#53 = CC_DESIGN_PERSON_AND_ORGANIZATION_ASSIGNMENT ( #326, #132, ( #331 ) ) ;
#54 = EDGE_LOOP ( 'NONE', ( #221, #169 ) ) ;
#55 = PERSON_AND_ORGANIZATION_ROLE ( 'design_owner' ) ;
#56 = ORIENTED_EDGE ( 'NONE', *, *, #353, .F. ) ;
#57 = EDGE_CURVE ( 'NONE', #261, #320, #334, .T. ) ;
#58 = AXIS2_PLACEMENT_3D ( 'NONE', #164, #99, #11 ) ;
#59 = EDGE_CURVE ( 'NONE', #261, #149, #298, .T. ) ;
#60 = CIRCLE ( 'NONE', #145, 3.999999999999993339 ) ;
#61 = CARTESIAN_POINT ( 'NONE',  ( 8.164311994315669148E-17, -3.999999999999993339, 4.898587196589404940E-16 ) ) ;
#62 = APPROVAL ( #165, 'UNSPECIFIED' ) ;
#63 = DIRECTION ( 'NONE',  ( 0.000000000000000000, 1.000000000000000000, 0.000000000000000000 ) ) ;
#64 = DIRECTION ( 'NONE',  ( 1.000000000000000000, 1.224646799147353207E-16, -0.000000000000000000 ) ) ;
#65 = FACE_OUTER_BOUND ( 'NONE', #29, .T. ) ;
#66 = CC_DESIGN_APPROVAL ( #62, ( #328 ) ) ;
#67 = CARTESIAN_POINT ( 'NONE',  ( -12.00000000000000000, -2.449293598294704442E-16, 0.000000000000000000 ) ) ;
#68 = ORIENTED_EDGE ( 'NONE', *, *, #115, .T. ) ;
#69 = DIRECTION ( 'NONE',  ( 2.041077998578920677E-17, -1.000000000000000000, 0.000000000000000000 ) ) ;
#70 = CARTESIAN_POINT ( 'NONE',  ( 0.000000000000000000, 0.000000000000000000, 0.000000000000000000 ) ) ;
#71 = DIRECTION ( 'NONE',  ( 1.000000000000000000, 1.224646799147353207E-16, -0.000000000000000000 ) ) ;
#72 = CC_DESIGN_PERSON_AND_ORGANIZATION_ASSIGNMENT ( #134, #223, ( #328 ) ) ;
#73 = TOROIDAL_SURFACE ( 'NONE', #147, 2.999999999999993339, 1.000000000000000222 ) ;
#74 = COORDINATED_UNIVERSAL_TIME_OFFSET ( 1, 0, .AHEAD. ) ;
#75 = LINE ( 'NONE', #301, #167 ) ;
#76 = VERTEX_POINT ( 'NONE', #269 ) ;
#77 =( GEOMETRIC_REPRESENTATION_CONTEXT ( 3 ) GLOBAL_UNCERTAINTY_ASSIGNED_CONTEXT ( ( #90 ) ) GLOBAL_UNIT_ASSIGNED_CONTEXT ( ( #163, #197, #51 ) ) REPRESENTATION_CONTEXT ( 'NONE', 'WORKASPACE' ) );
#78 = COORDINATED_UNIVERSAL_TIME_OFFSET ( 1, 0, .AHEAD. ) ;
#79 = SHAPE_DEFINITION_REPRESENTATION ( #181, #358 ) ;
#80 = ORIENTED_EDGE ( 'NONE', *, *, #353, .T. ) ;
#81 = ORIENTED_EDGE ( 'NONE', *, *, #135, .F. ) ;
#82 = CC_DESIGN_PERSON_AND_ORGANIZATION_ASSIGNMENT ( #250, #55, ( #206 ) ) ;
#83 = APPROVAL_ROLE ( '' ) ;
#84 = EDGE_LOOP ( 'NONE', ( #81, #237, #1, #311 ) ) ;
#85 = AXIS2_PLACEMENT_3D ( 'NONE', #186, #158, #274 ) ;
#86 = CIRCLE ( 'NONE', #291, 3.999999999999998224 ) ;
#87 = EDGE_LOOP ( 'NONE', ( #56, #195, #364, #114 ) ) ;
#88 = ADVANCED_FACE ( 'NONE', ( #65 ), #117, .T. ) ;
#89 = AXIS2_PLACEMENT_3D ( 'NONE', #275, #352, #63 ) ;
#90 = UNCERTAINTY_MEASURE_WITH_UNIT (LENGTH_MEASURE( 1.000000000000000082E-05 ), #163, 'distance_accuracy_value', 'NONE');
#91 = CIRCLE ( 'NONE', #324, 1.000000000000000000 ) ;
#92 = ADVANCED_FACE ( 'NONE', ( #103 ), #133, .T. ) ;
#93 = CIRCLE ( 'NONE', #339, 3.999999999999993339 ) ;
#94 = CARTESIAN_POINT ( 'NONE',  ( -12.00000000000000000, 3.999999999999993339, 0.000000000000000000 ) ) ;
#95 = LINE ( 'NONE', #61, #365 ) ;
#96 = CARTESIAN_POINT ( 'NONE',  ( -57.99999999999999289, -5.878304635907295000E-15, 0.000000000000000000 ) ) ;
#97 = DIRECTION ( 'NONE',  ( 1.000000000000000000, 1.224646799147353207E-16, -0.000000000000000000 ) ) ;
#98 = DATE_AND_TIME ( #244, #5 ) ;
#99 = DIRECTION ( 'NONE',  ( 1.000000000000000000, 2.041077998578920677E-17, -0.000000000000000000 ) ) ;
#100 = PLANE ( 'NONE',  #35 ) ;
#101 = APPLICATION_CONTEXT ( 'configuration controlled 3d designs of mechanical parts and assemblies' ) ;
#102 = DIRECTION ( 'NONE',  ( 1.000000000000000000, 2.041077998578920677E-17, -0.000000000000000000 ) ) ;
#103 = FACE_OUTER_BOUND ( 'NONE', #235, .T. ) ;
#104 = DIRECTION ( 'NONE',  ( 1.000000000000000000, 2.041077998578920677E-17, -0.000000000000000000 ) ) ;
#105 = CARTESIAN_POINT ( 'NONE',  ( -1.000000000000000888, 0.000000000000000000, 0.000000000000000000 ) ) ;
#106 = DATE_AND_TIME ( #355, #289 ) ;
#107 = CARTESIAN_POINT ( 'NONE',  ( -57.20000000000000284, -5.780332891975507355E-15, 0.000000000000000000 ) ) ;
#108 = ADVANCED_FACE ( 'NONE', ( #354 ), #112, .T. ) ;
#109 = DIRECTION ( 'NONE',  ( 0.000000000000000000, 0.000000000000000000, 1.000000000000000000 ) ) ;
#110 = COORDINATED_UNIVERSAL_TIME_OFFSET ( 1, 0, .AHEAD. ) ;
#111 = ORIENTED_EDGE ( 'NONE', *, *, #314, .T. ) ;
#112 = TOROIDAL_SURFACE ( 'NONE', #157, 2.999999999999993339, 1.000000000000000222 ) ;
#113 = ORIENTED_EDGE ( 'NONE', *, *, #228, .T. ) ;
#114 = ORIENTED_EDGE ( 'NONE', *, *, #16, .F. ) ;
#115 = EDGE_CURVE ( 'NONE', #31, #140, #218, .T. ) ;
#116 = CC_DESIGN_SECURITY_CLASSIFICATION ( #331, ( #130 ) ) ;
#117 = CONICAL_SURFACE ( 'NONE', #239, 3.999999999999999112, 0.7853981633974512766 ) ;
#118 = ADVANCED_FACE ( 'NONE', ( #122 ), #209, .T. ) ;
#119 = DIRECTION ( 'NONE',  ( -0.000000000000000000, 0.000000000000000000, -1.000000000000000000 ) ) ;
#120 = APPROVAL_PERSON_ORGANIZATION ( #325, #260, #191 ) ;
#121 = FACE_OUTER_BOUND ( 'NONE', #33, .T. ) ;
#122 = FACE_OUTER_BOUND ( 'NONE', #28, .T. ) ;
#123 = DIRECTION ( 'NONE',  ( 1.000000000000000000, 1.224646799147353207E-16, -0.000000000000000000 ) ) ;
#124 = APPROVAL_STATUS ( 'not_yet_approved' ) ;
#125 = CIRCLE ( 'NONE', #271, 1.000000000000000000 ) ;
#126 = DIRECTION ( 'NONE',  ( 0.000000000000000000, 1.000000000000000000, 0.000000000000000000 ) ) ;
#127 = ADVANCED_FACE ( 'NONE', ( #212 ), #73, .T. ) ;
#128 = CARTESIAN_POINT ( 'NONE',  ( -3.724485290368342981E-16, -7.601964982201647444E-33, 0.000000000000000000 ) ) ;
#129 = DIRECTION ( 'NONE',  ( 0.7071067811865453523, 0.7071067811865497932, 0.000000000000000000 ) ) ;
#130 = PRODUCT_DEFINITION_FORMATION_WITH_SPECIFIED_SOURCE ( 'ANY', '', #206, .NOT_KNOWN. ) ;
#131 = CARTESIAN_POINT ( 'NONE',  ( -57.20000000000000284, -4.000000000000005329, 4.898587196589411843E-16 ) ) ;
#132 = PERSON_AND_ORGANIZATION_ROLE ( 'classification_officer' ) ;
#133 = CYLINDRICAL_SURFACE ( 'NONE', #58, 3.999999999999993339 ) ;
#134 = PERSON_AND_ORGANIZATION ( #279, #184 ) ;
#135 = EDGE_CURVE ( 'NONE', #46, #76, #91, .T. ) ;
#136 = CARTESIAN_POINT ( 'NONE',  ( -57.99999999999999289, 3.199999999999993072, 0.000000000000000000 ) ) ;
#137 = PERSON_AND_ORGANIZATION_ROLE ( 'creator' ) ;
#138 = AXIS2_PLACEMENT_3D ( 'NONE', #170, #109, #168 ) ;
#139 = CALENDAR_DATE ( 2022, 31, 5 ) ;
#140 = VERTEX_POINT ( 'NONE', #136 ) ;
#141 = ORIENTED_EDGE ( 'NONE', *, *, #292, .F. ) ;
#142 = CONICAL_SURFACE ( 'NONE', #13, 3.999999999999999112, 0.7853981633974512766 ) ;
#143 = ADVANCED_FACE ( 'NONE', ( #357 ), #142, .T. ) ;
#144 = VERTEX_POINT ( 'NONE', #152 ) ;
#145 = AXIS2_PLACEMENT_3D ( 'NONE', #47, #64, #304 ) ;
#146 = ORIENTED_EDGE ( 'NONE', *, *, #302, .T. ) ;
#147 = AXIS2_PLACEMENT_3D ( 'NONE', #330, #219, #327 ) ;
#148 = ADVANCED_FACE ( 'NONE', ( #270 ), #100, .T. ) ;
#149 = VERTEX_POINT ( 'NONE', #351 ) ;
#150 = FACE_OUTER_BOUND ( 'NONE', #290, .T. ) ;
#151 = CYLINDRICAL_SURFACE ( 'NONE', #277, 3.999999999999993339 ) ;
#152 = CARTESIAN_POINT ( 'NONE',  ( -12.00000000000000000, -3.999999999999993339, 4.898587196589406912E-16 ) ) ;
#153 = CARTESIAN_POINT ( 'NONE',  ( -12.00000000000000000, 3.999999999999996447, 0.000000000000000000 ) ) ;
#154 = CALENDAR_DATE ( 2022, 31, 5 ) ;
#155 = ADVANCED_FACE ( 'NONE', ( #12 ), #45, .T. ) ;
#156 = DIRECTION ( 'NONE',  ( 1.000000000000000000, 2.041077998578920677E-17, -0.000000000000000000 ) ) ;
#157 = AXIS2_PLACEMENT_3D ( 'NONE', #105, #43, #322 ) ;
#158 = DIRECTION ( 'NONE',  ( 1.000000000000000000, 2.041077998578920677E-17, -0.000000000000000000 ) ) ;
#159 = LINE ( 'NONE', #153, #17 ) ;
#160 = ORIENTED_EDGE ( 'NONE', *, *, #314, .F. ) ;
#161 = CC_DESIGN_APPROVAL ( #8, ( #331 ) ) ;
#162 = EDGE_CURVE ( 'NONE', #25, #76, #341, .T. ) ;
#163 =( LENGTH_UNIT ( ) NAMED_UNIT ( * ) SI_UNIT ( .MILLI., .METRE. ) );
#164 = CARTESIAN_POINT ( 'NONE',  ( 0.000000000000000000, 0.000000000000000000, 0.000000000000000000 ) ) ;
#165 = APPROVAL_STATUS ( 'not_yet_approved' ) ;
#166 = ORIENTED_EDGE ( 'NONE', *, *, #39, .T. ) ;
#167 = VECTOR ( 'NONE', #129, 1000.000000000000114 ) ;
#168 = DIRECTION ( 'NONE',  ( 1.000000000000000000, 0.000000000000000000, 0.000000000000000000 ) ) ;
#169 = ORIENTED_EDGE ( 'NONE', *, *, #231, .F. ) ;
#170 = CARTESIAN_POINT ( 'NONE',  ( 0.000000000000000000, 0.000000000000000000, 0.000000000000000000 ) ) ;
#171 = ORIENTED_EDGE ( 'NONE', *, *, #57, .T. ) ;
#172 = EDGE_CURVE ( 'NONE', #149, #25, #125, .T. ) ;
#173 = ORIENTED_EDGE ( 'NONE', *, *, #228, .F. ) ;
#174 = AXIS2_PLACEMENT_3D ( 'NONE', #128, #233, #296 ) ;
#175 = ORIENTED_EDGE ( 'NONE', *, *, #362, .F. ) ;
#176 = LOCAL_TIME ( 16, 9, 2.000000000000000000, #74 ) ;
#177 = AXIS2_PLACEMENT_3D ( 'NONE', #187, #264, #265 ) ;
#178 = CARTESIAN_POINT ( 'NONE',  ( -1.000000000000000888, -2.041077998578922526E-17, 0.000000000000000000 ) ) ;
#179 = CARTESIAN_POINT ( 'NONE',  ( -12.00000000000000000, -3.999999999999996447, 4.898587196589408884E-16 ) ) ;
#180 = DIRECTION ( 'NONE',  ( 1.000000000000000000, 1.224646799147353207E-16, -0.000000000000000000 ) ) ;
#181 = PRODUCT_DEFINITION_SHAPE ( 'NONE', 'NONE',  #328 ) ;
#182 = DIRECTION ( 'NONE',  ( 1.000000000000000000, 1.224646799147353207E-16, -0.000000000000000000 ) ) ;
#183 = CARTESIAN_POINT ( 'NONE',  ( -12.00000000000000000, -2.449293598294704935E-16, 0.000000000000000000 ) ) ;
#184 = ORGANIZATION ( 'UNSPECIFIED', 'UNSPECIFIED', '' ) ;
#185 = DIRECTION ( 'NONE',  ( 1.000000000000000000, 1.224646799147353207E-16, -0.000000000000000000 ) ) ;
#186 = CARTESIAN_POINT ( 'NONE',  ( -3.724485290368342981E-16, -7.601964982201647444E-33, 0.000000000000000000 ) ) ;
#187 = CARTESIAN_POINT ( 'NONE',  ( -12.00000000000000000, -2.449293598294704935E-16, 0.000000000000000000 ) ) ;
#188 = CARTESIAN_POINT ( 'NONE',  ( -2.474566044757846738E-16, 2.999999999999993339, 0.000000000000000000 ) ) ;
#189 = DIRECTION ( 'NONE',  ( 1.000000000000000000, 2.041077998578920677E-17, -0.000000000000000000 ) ) ;
#190 = ADVANCED_FACE ( 'NONE', ( #150 ), #300, .T. ) ;
#191 = APPROVAL_ROLE ( '' ) ;
#192 = DIRECTION ( 'NONE',  ( 1.000000000000000000, 2.041077998578920677E-17, -0.000000000000000000 ) ) ;
#193 = CALENDAR_DATE ( 2022, 31, 5 ) ;
#194 = ORIENTED_EDGE ( 'NONE', *, *, #362, .T. ) ;
#195 = ORIENTED_EDGE ( 'NONE', *, *, #231, .T. ) ;
#196 = AXIS2_PLACEMENT_3D ( 'NONE', #183, #348, #278 ) ;
#197 =( NAMED_UNIT ( * ) PLANE_ANGLE_UNIT ( ) SI_UNIT ( $, .RADIAN. ) );
#198 = EDGE_CURVE ( 'NONE', #258, #333, #202, .T. ) ;
#199 = ORIENTED_EDGE ( 'NONE', *, *, #115, .F. ) ;
#200 = CC_DESIGN_DATE_AND_TIME_ASSIGNMENT ( #347, #356, ( #331 ) ) ;
#201 = CIRCLE ( 'NONE', #89, 3.199999999999999289 ) ;
#202 = CIRCLE ( 'NONE', #303, 3.999999999999998224 ) ;
#203 = ADVANCED_FACE ( 'NONE', ( #349 ), #18, .T. ) ;
#204 = VECTOR ( 'NONE', #294, 1000.000000000000000 ) ;
#205 = CARTESIAN_POINT ( 'NONE',  ( -12.00000000000000000, -2.449293598294704442E-16, 0.000000000000000000 ) ) ;
#206 = PRODUCT ( '387472387476', '387472387476', '', ( #284 ) ) ;
#207 = CC_DESIGN_DATE_AND_TIME_ASSIGNMENT ( #106, #257, ( #328 ) ) ;
#208 = CARTESIAN_POINT ( 'NONE',  ( -57.20000000000000284, -4.000000000000006217, 4.898587196589412829E-16 ) ) ;
#209 = CYLINDRICAL_SURFACE ( 'NONE', #196, 3.999999999999996447 ) ;
#210 = DIRECTION ( 'NONE',  ( -1.000000000000000000, 0.000000000000000000, 0.000000000000000000 ) ) ;
#211 = APPROVAL_DATE_TIME ( #98, #8 ) ;
#212 = FACE_OUTER_BOUND ( 'NONE', #84, .T. ) ;
#213 = DIRECTION ( 'NONE',  ( -1.000000000000000000, -2.041077998578920677E-17, 0.000000000000000000 ) ) ;
#214 = CC_DESIGN_APPROVAL ( #260, ( #130 ) ) ;
#215 = LINE ( 'NONE', #131, #345 ) ;
#216 = DIRECTION ( 'NONE',  ( 0.000000000000000000, 1.000000000000000000, 0.000000000000000000 ) ) ;
#217 = LINE ( 'NONE', #179, #204 ) ;
#218 = CIRCLE ( 'NONE', #288, 3.199999999999999289 ) ;
#219 = DIRECTION ( 'NONE',  ( 1.000000000000000000, 2.041077998578920677E-17, -0.000000000000000000 ) ) ;
#220 = APPROVAL_DATE_TIME ( #360, #62 ) ;
#221 = ORIENTED_EDGE ( 'NONE', *, *, #57, .F. ) ;
#222 = EDGE_CURVE ( 'NONE', #31, #258, #215, .T. ) ;
#223 = PERSON_AND_ORGANIZATION_ROLE ( 'creator' ) ;
#224 = ORIENTED_EDGE ( 'NONE', *, *, #162, .F. ) ;
#225 = AXIS2_PLACEMENT_3D ( 'NONE', #15, #192, #216 ) ;
#226 = ORIENTED_EDGE ( 'NONE', *, *, #302, .F. ) ;
#227 = APPROVAL_PERSON_ORGANIZATION ( #241, #8, #251 ) ;
#228 = EDGE_CURVE ( 'NONE', #333, #258, #86, .T. ) ;
#229 = ORIENTED_EDGE ( 'NONE', *, *, #198, .F. ) ;
#230 = LOCAL_TIME ( 16, 9, 2.000000000000000000, #27 ) ;
#231 = EDGE_CURVE ( 'NONE', #320, #261, #335, .T. ) ;
#232 = AXIS2_PLACEMENT_3D ( 'NONE', #188, #19, #44 ) ;
#233 = DIRECTION ( 'NONE',  ( 1.000000000000000000, 2.041077998578920677E-17, -0.000000000000000000 ) ) ;
#234 = ADVANCED_FACE ( 'NONE', ( #243 ), #151, .T. ) ;
#235 = EDGE_LOOP ( 'NONE', ( #171, #80, #175, #254 ) ) ;
#236 = CARTESIAN_POINT ( 'NONE',  ( -12.00000000000000000, -3.999999999999993339, 4.898587196589404940E-16 ) ) ;
#237 = ORIENTED_EDGE ( 'NONE', *, *, #16, .T. ) ;
#238 = CIRCLE ( 'NONE', #85, 2.999999999999993339 ) ;
#239 = AXIS2_PLACEMENT_3D ( 'NONE', #20, #245, #350 ) ;
#240 = DIRECTION ( 'NONE',  ( 0.000000000000000000, 1.000000000000000000, 0.000000000000000000 ) ) ;
#241 = PERSON_AND_ORGANIZATION ( #279, #184 ) ;
#242 = ORIENTED_EDGE ( 'NONE', *, *, #135, .T. ) ;
#243 = FACE_OUTER_BOUND ( 'NONE', #87, .T. ) ;
#244 = CALENDAR_DATE ( 2022, 31, 5 ) ;
#245 = DIRECTION ( 'NONE',  ( 1.000000000000000000, 1.224646799147353207E-16, -0.000000000000000000 ) ) ;
#246 = CARTESIAN_POINT ( 'NONE',  ( -12.00000000000000000, -2.449293598294704935E-16, 0.000000000000000000 ) ) ;
#247 = EDGE_CURVE ( 'NONE', #285, #144, #60, .T. ) ;
#248 = CARTESIAN_POINT ( 'NONE',  ( -1.000000000000000888, 2.999999999999993339, 0.000000000000000000 ) ) ;
#249 = CARTESIAN_POINT ( 'NONE',  ( -57.99999999999999289, -3.200000000000005951, 4.408728476930471151E-16 ) ) ;
#250 = PERSON_AND_ORGANIZATION ( #279, #184 ) ;
#251 = APPROVAL_ROLE ( '' ) ;
#252 = ORIENTED_EDGE ( 'NONE', *, *, #286, .T. ) ;
#253 = PERSON_AND_ORGANIZATION ( #279, #184 ) ;
#254 = ORIENTED_EDGE ( 'NONE', *, *, #59, .F. ) ;
#255 = CC_DESIGN_PERSON_AND_ORGANIZATION_ASSIGNMENT ( #273, #268, ( #130 ) ) ;
#256 = ORIENTED_EDGE ( 'NONE', *, *, #292, .T. ) ;
#257 = DATE_TIME_ROLE ( 'creation_date' ) ;
#258 = VERTEX_POINT ( 'NONE', #208 ) ;
#259 = VECTOR ( 'NONE', #189, 1000.000000000000000 ) ;
#260 = APPROVAL ( #329, 'UNSPECIFIED' ) ;
#261 = VERTEX_POINT ( 'NONE', #94 ) ;
#262 = ADVANCED_FACE ( 'NONE', ( #121 ), #9, .T. ) ;
#263 = CC_DESIGN_PERSON_AND_ORGANIZATION_ASSIGNMENT ( #253, #137, ( #130 ) ) ;
#264 = DIRECTION ( 'NONE',  ( 1.000000000000000000, 2.041077998578920677E-17, -0.000000000000000000 ) ) ;
#265 = DIRECTION ( 'NONE',  ( 0.000000000000000000, 1.000000000000000000, 0.000000000000000000 ) ) ;
#266 = CARTESIAN_POINT ( 'NONE',  ( -1.000000000000000888, -2.041077998578922526E-17, 0.000000000000000000 ) ) ;
#267 = DIRECTION ( 'NONE',  ( 0.000000000000000000, 1.000000000000000000, 0.000000000000000000 ) ) ;
#268 = PERSON_AND_ORGANIZATION_ROLE ( 'design_supplier' ) ;
#269 = CARTESIAN_POINT ( 'NONE',  ( -3.112161890794668227E-16, -2.999999999999993339, 4.286263797015727720E-16 ) ) ;
#270 = FACE_OUTER_BOUND ( 'NONE', #54, .T. ) ;
#271 = AXIS2_PLACEMENT_3D ( 'NONE', #248, #119, #210 ) ;
#272 = DIRECTION ( 'NONE',  ( 0.7071067811865455743, -0.7071067811865495711, 8.659560562354958743E-17 ) ) ;
#273 = PERSON_AND_ORGANIZATION ( #279, #184 ) ;
#274 = DIRECTION ( 'NONE',  ( -2.041077998578920368E-17, 1.000000000000000000, 0.000000000000000000 ) ) ;
#275 = CARTESIAN_POINT ( 'NONE',  ( -57.99999999999999289, -5.878304635907295000E-15, 0.000000000000000000 ) ) ;
#276 = CARTESIAN_POINT ( 'NONE',  ( -8.164311994315669148E-17, 3.999999999999993339, 0.000000000000000000 ) ) ;
#277 = AXIS2_PLACEMENT_3D ( 'NONE', #70, #104, #14 ) ;
#278 = DIRECTION ( 'NONE',  ( 0.000000000000000000, 1.000000000000000000, 0.000000000000000000 ) ) ;
#279 = PERSON ( 'UNSPECIFIED', 'UNSPECIFIED', 'UNSPECIFIED', ('UNSPECIFIED'), ('UNSPECIFIED'), ('UNSPECIFIED') ) ;
#280 = ORIENTED_EDGE ( 'NONE', *, *, #222, .F. ) ;
#281 = ORIENTED_EDGE ( 'NONE', *, *, #30, .T. ) ;
#282 = CIRCLE ( 'NONE', #37, 3.999999999999993339 ) ;
#283 = ORIENTED_EDGE ( 'NONE', *, *, #247, .T. ) ;
#284 = MECHANICAL_CONTEXT ( 'NONE', #101, 'mechanical' ) ;
#285 = VERTEX_POINT ( 'NONE', #317 ) ;
#286 = EDGE_CURVE ( 'NONE', #333, #285, #159, .T. ) ;
#287 = ORIENTED_EDGE ( 'NONE', *, *, #162, .T. ) ;
#288 = AXIS2_PLACEMENT_3D ( 'NONE', #96, #71, #126 ) ;
#289 = LOCAL_TIME ( 16, 9, 2.000000000000000000, #110 ) ;
#290 = EDGE_LOOP ( 'NONE', ( #141, #199 ) ) ;
#291 = AXIS2_PLACEMENT_3D ( 'NONE', #346, #182, #267 ) ;
#292 = EDGE_CURVE ( 'NONE', #140, #31, #201, .T. ) ;
#293 = DIRECTION ( 'NONE',  ( 0.000000000000000000, 1.000000000000000000, 0.000000000000000000 ) ) ;
#294 = DIRECTION ( 'NONE',  ( 1.000000000000000000, 1.224646799147353207E-16, -0.000000000000000000 ) ) ;
#295 = CARTESIAN_POINT ( 'NONE',  ( -1.000000000000000888, -3.999999999999993339, 4.898587196589404940E-16 ) ) ;
#296 = DIRECTION ( 'NONE',  ( -2.041077998578920368E-17, 1.000000000000000000, 0.000000000000000000 ) ) ;
#297 = AXIS2_PLACEMENT_3D ( 'NONE', #205, #6, #38 ) ;
#298 = LINE ( 'NONE', #276, #259 ) ;
#299 = APPLICATION_CONTEXT ( 'configuration controlled 3d designs of mechanical parts and assemblies' ) ;
#300 = PLANE ( 'NONE',  #363 ) ;
#301 = CARTESIAN_POINT ( 'NONE',  ( -57.20000000000000284, 3.999999999999993339, 0.000000000000000000 ) ) ;
#302 = EDGE_CURVE ( 'NONE', #258, #144, #217, .T. ) ;
#303 = AXIS2_PLACEMENT_3D ( 'NONE', #315, #123, #240 ) ;
#304 = DIRECTION ( 'NONE',  ( 0.000000000000000000, 1.000000000000000000, 0.000000000000000000 ) ) ;
#305 = CARTESIAN_POINT ( 'NONE',  ( -1.000000000000000888, -2.999999999999993339, 3.673940397442050993E-16 ) ) ;
#306 = DATE_AND_TIME ( #193, #2 ) ;
#307 = DIRECTION ( 'NONE',  ( 1.000000000000000000, 2.041077998578920677E-17, -0.000000000000000000 ) ) ;
#308 = ORIENTED_EDGE ( 'NONE', *, *, #247, .F. ) ;
#309 = CIRCLE ( 'NONE', #316, 3.999999999999993339 ) ;
#310 = EDGE_LOOP ( 'NONE', ( #226, #361, #252, #160 ) ) ;
#311 = ORIENTED_EDGE ( 'NONE', *, *, #39, .F. ) ;
#312 = PRODUCT_RELATED_PRODUCT_CATEGORY ( 'detail', '', ( #206 ) ) ;
#313 = DESIGN_CONTEXT ( 'detailed design', #299, 'design' ) ;
#314 = EDGE_CURVE ( 'NONE', #144, #285, #93, .T. ) ;
#315 = CARTESIAN_POINT ( 'NONE',  ( -57.20000000000000284, -5.780332891975507355E-15, 0.000000000000000000 ) ) ;
#316 = AXIS2_PLACEMENT_3D ( 'NONE', #266, #307, #48 ) ;
#317 = CARTESIAN_POINT ( 'NONE',  ( -12.00000000000000000, 3.999999999999993339, 0.000000000000000000 ) ) ;
#318 = CARTESIAN_POINT ( 'NONE',  ( -58.00000000000000000, -5.878304635907295000E-15, 0.000000000000000000 ) ) ;
#319 = COORDINATED_UNIVERSAL_TIME_OFFSET ( 1, 0, .AHEAD. ) ;
#320 = VERTEX_POINT ( 'NONE', #236 ) ;
#321 = DIRECTION ( 'NONE',  ( 1.000000000000000000, 1.224646799147353207E-16, -0.000000000000000000 ) ) ;
#322 = DIRECTION ( 'NONE',  ( -2.041077998578920677E-17, 1.000000000000000000, 0.000000000000000000 ) ) ;
#323 = CLOSED_SHELL ( 'NONE', ( #118, #88, #190, #143, #203, #262 ) ) ;
#324 = AXIS2_PLACEMENT_3D ( 'NONE', #305, #50, #22 ) ;
#325 = PERSON_AND_ORGANIZATION ( #279, #184 ) ;
#326 = PERSON_AND_ORGANIZATION ( #279, #184 ) ;
#327 = DIRECTION ( 'NONE',  ( -2.041077998578920677E-17, 1.000000000000000000, 0.000000000000000000 ) ) ;
#328 = PRODUCT_DEFINITION ( 'UNKNOWN', '', #130, #313 ) ;
#329 = APPROVAL_STATUS ( 'not_yet_approved' ) ;
#330 = CARTESIAN_POINT ( 'NONE',  ( -1.000000000000000888, 0.000000000000000000, 0.000000000000000000 ) ) ;
#331 = SECURITY_CLASSIFICATION ( '', '', #10 ) ;
#332 = PERSON_AND_ORGANIZATION ( #279, #184 ) ;
#333 = VERTEX_POINT ( 'NONE', #343 ) ;
#334 = CIRCLE ( 'NONE', #225, 3.999999999999993339 ) ;
#335 = CIRCLE ( 'NONE', #177, 3.999999999999993339 ) ;
#336 = DIRECTION ( 'NONE',  ( 0.000000000000000000, 1.000000000000000000, 0.000000000000000000 ) ) ;
#337 = EDGE_LOOP ( 'NONE', ( #287, #166 ) ) ;
#338 = ORIENTED_EDGE ( 'NONE', *, *, #286, .F. ) ;
#339 = AXIS2_PLACEMENT_3D ( 'NONE', #67, #185, #293 ) ;
#340 = ORIENTED_EDGE ( 'NONE', *, *, #222, .T. ) ;
#341 = CIRCLE ( 'NONE', #174, 2.999999999999993339 ) ;
#342 = DIRECTION ( 'NONE',  ( 1.224646799147353207E-16, -1.000000000000000000, 0.000000000000000000 ) ) ;
#343 = CARTESIAN_POINT ( 'NONE',  ( -57.20000000000000284, 3.999999999999992450, 0.000000000000000000 ) ) ;
#344 = ORIENTED_EDGE ( 'NONE', *, *, #172, .F. ) ;
#345 = VECTOR ( 'NONE', #272, 1000.000000000000114 ) ;
#346 = CARTESIAN_POINT ( 'NONE',  ( -57.20000000000000284, -5.780332891975507355E-15, 0.000000000000000000 ) ) ;
#347 = DATE_AND_TIME ( #154, #176 ) ;
#348 = DIRECTION ( 'NONE',  ( 1.000000000000000000, 1.224646799147353207E-16, -0.000000000000000000 ) ) ;
#349 = FACE_OUTER_BOUND ( 'NONE', #310, .T. ) ;
#350 = DIRECTION ( 'NONE',  ( 0.000000000000000000, 1.000000000000000000, 0.000000000000000000 ) ) ;
#351 = CARTESIAN_POINT ( 'NONE',  ( -1.000000000000000888, 3.999999999999993339, 0.000000000000000000 ) ) ;
#352 = DIRECTION ( 'NONE',  ( 1.000000000000000000, 1.224646799147353207E-16, -0.000000000000000000 ) ) ;
#353 = EDGE_CURVE ( 'NONE', #320, #46, #95, .T. ) ;
#354 = FACE_OUTER_BOUND ( 'NONE', #52, .T. ) ;
#355 = CALENDAR_DATE ( 2022, 31, 5 ) ;
#356 = DATE_TIME_ROLE ( 'classification_date' ) ;
#357 = FACE_OUTER_BOUND ( 'NONE', #359, .T. ) ;
#358 = ADVANCED_BREP_SHAPE_REPRESENTATION ( '387472387476', ( #32, #36, #138 ), #77 ) ;
#359 = EDGE_LOOP ( 'NONE', ( #280, #68, #281, #229 ) ) ;
#360 = DATE_AND_TIME ( #139, #230 ) ;
#361 = ORIENTED_EDGE ( 'NONE', *, *, #198, .T. ) ;
#362 = EDGE_CURVE ( 'NONE', #149, #46, #282, .T. ) ;
#363 = AXIS2_PLACEMENT_3D ( 'NONE', #318, #40, #342 ) ;
#364 = ORIENTED_EDGE ( 'NONE', *, *, #59, .T. ) ;
#365 = VECTOR ( 'NONE', #156, 1000.000000000000000 ) ;
ENDSEC;
END-ISO-10303-21;
