ISO-10303-21;
HEADER;
FILE_DESCRIPTION (( 'STEP AP203' ),
    '1' );
FILE_NAME ('387472387475.step',
    '2022-05-31T14:09:01',
    ( '' ),
    ( '' ),
    'SwSTEP 2.0',
    'SolidWorks 2019',
    '' );
FILE_SCHEMA (( 'CONFIG_CONTROL_DESIGN' ));
ENDSEC;

DATA;
#1 = CALENDAR_DATE ( 2022, 31, 5 ) ;
#2 = EDGE_CURVE ( 'NONE', #135, #148, #120, .T. ) ;
#3 = EDGE_LOOP ( 'NONE', ( #217, #312 ) ) ;
#4 =( NAMED_UNIT ( * ) SI_UNIT ( $, .STERADIAN. ) SOLID_ANGLE_UNIT ( ) );
#5 = CARTESIAN_POINT ( 'NONE',  ( -1.823851918451271386E-16, -3.499999999999993339, 4.592425496802566084E-16 ) ) ;
#6 = CIRCLE ( 'NONE', #273, 3.199999999999999289 ) ;
#7 = VERTEX_POINT ( 'NONE', #5 ) ;
#8 = CIRCLE ( 'NONE', #70, 3.999999999999993339 ) ;
#9 = CIRCLE ( 'NONE', #115, 3.999999999999993339 ) ;
#10 = VERTEX_POINT ( 'NONE', #202 ) ;
#11 = EDGE_CURVE ( 'NONE', #26, #190, #8, .T. ) ;
#12 = PRODUCT ( '387472387475', '387472387475', '', ( #288 ) ) ;
#13 = CARTESIAN_POINT ( 'NONE',  ( 8.164311994315669148E-17, -3.999999999999993339, 4.898587196589404940E-16 ) ) ;
#14 = DATE_AND_TIME ( #187, #226 ) ;
#15 = LINE ( 'NONE', #98, #292 ) ;
#16 = AXIS2_PLACEMENT_3D ( 'NONE', #31, #29, #114 ) ;
#17 = APPROVAL_STATUS ( 'not_yet_approved' ) ;
#18 = VECTOR ( 'NONE', #199, 1000.000000000000114 ) ;
#19 = DIRECTION ( 'NONE',  ( -2.041077998578920985E-17, 1.000000000000000000, 0.000000000000000000 ) ) ;
#20 = CARTESIAN_POINT ( 'NONE',  ( 0.000000000000000000, 0.000000000000000000, 0.000000000000000000 ) ) ;
#21 = PERSON_AND_ORGANIZATION ( #310, #302 ) ;
#22 = ORIENTED_EDGE ( 'NONE', *, *, #57, .T. ) ;
#23 = VECTOR ( 'NONE', #245, 1000.000000000000114 ) ;
#24 = DIRECTION ( 'NONE',  ( -2.041077998578920677E-17, 1.000000000000000000, 0.000000000000000000 ) ) ;
#25 = FACE_OUTER_BOUND ( 'NONE', #3, .T. ) ;
#26 = VERTEX_POINT ( 'NONE', #286 ) ;
#27 = CARTESIAN_POINT ( 'NONE',  ( -12.00000000000000000, 3.999999999999996447, 0.000000000000000000 ) ) ;
#28 = VERTEX_POINT ( 'NONE', #89 ) ;
#29 = DIRECTION ( 'NONE',  ( 1.000000000000000000, 2.041077998578920677E-17, -0.000000000000000000 ) ) ;
#30 = MANIFOLD_SOLID_BREP ( 'Révolution1', #209 ) ;
#31 = CARTESIAN_POINT ( 'NONE',  ( -0.5000000000000002220, 0.000000000000000000, 0.000000000000000000 ) ) ;
#32 = EDGE_CURVE ( 'NONE', #28, #163, #284, .T. ) ;
#33 = DIRECTION ( 'NONE',  ( 0.000000000000000000, 1.000000000000000000, 0.000000000000000000 ) ) ;
#34 = CC_DESIGN_APPROVAL ( #117, ( #146 ) ) ;
#35 = DIRECTION ( 'NONE',  ( 1.000000000000000000, 1.224646799147353207E-16, -0.000000000000000000 ) ) ;
#36 = EDGE_CURVE ( 'NONE', #163, #28, #267, .T. ) ;
#37 = APPROVAL_PERSON_ORGANIZATION ( #131, #117, #128 ) ;
#38 = ADVANCED_FACE ( 'NONE', ( #91 ), #198, .T. ) ;
#39 = CALENDAR_DATE ( 2022, 31, 5 ) ;
#40 = APPLICATION_CONTEXT ( 'configuration controlled 3d designs of mechanical parts and assemblies' ) ;
#41 = CARTESIAN_POINT ( 'NONE',  ( -2.538229217953892097E-16, -5.180723812115869270E-33, 0.000000000000000000 ) ) ;
#42 = VERTEX_POINT ( 'NONE', #169 ) ;
#43 = LOCAL_TIME ( 16, 9, 1.000000000000000000, #354 ) ;
#44 = CYLINDRICAL_SURFACE ( 'NONE', #247, 3.999999999999993339 ) ;
#45 = APPROVAL_ROLE ( '' ) ;
#46 = DIRECTION ( 'NONE',  ( 0.000000000000000000, 1.000000000000000000, 0.000000000000000000 ) ) ;
#47 = DIRECTION ( 'NONE',  ( 1.000000000000000000, 1.224646799147353207E-16, -0.000000000000000000 ) ) ;
#48 = ORIENTED_EDGE ( 'NONE', *, *, #80, .F. ) ;
#49 = TOROIDAL_SURFACE ( 'NONE', #16, 3.499999999999993339, 0.5000000000000000000 ) ;
#50 = CARTESIAN_POINT ( 'NONE',  ( -0.5000000000000002220, 0.000000000000000000, 0.000000000000000000 ) ) ;
#51 = EDGE_CURVE ( 'NONE', #148, #163, #63, .T. ) ;
#52 = CARTESIAN_POINT ( 'NONE',  ( -57.99999999999999289, 3.199999999999993072, 0.000000000000000000 ) ) ;
#53 = VECTOR ( 'NONE', #340, 1000.000000000000000 ) ;
#54 = ORIENTED_EDGE ( 'NONE', *, *, #363, .T. ) ;
#55 = DIRECTION ( 'NONE',  ( 1.000000000000000000, 2.041077998578920677E-17, -0.000000000000000000 ) ) ;
#56 = DIRECTION ( 'NONE',  ( 1.000000000000000000, 1.224646799147353207E-16, -0.000000000000000000 ) ) ;
#57 = EDGE_CURVE ( 'NONE', #10, #42, #326, .T. ) ;
#58 = LOCAL_TIME ( 16, 9, 1.000000000000000000, #279 ) ;
#59 = COORDINATED_UNIVERSAL_TIME_OFFSET ( 1, 0, .AHEAD. ) ;
#60 = CARTESIAN_POINT ( 'NONE',  ( -0.5000000000000003331, 3.499999999999993339, 0.000000000000000000 ) ) ;
#61 = ORIENTED_EDGE ( 'NONE', *, *, #68, .F. ) ;
#62 = APPLICATION_PROTOCOL_DEFINITION ( 'international standard', 'config_control_design', 1994, #181 ) ;
#63 = LINE ( 'NONE', #174, #18 ) ;
#64 = FACE_OUTER_BOUND ( 'NONE', #149, .T. ) ;
#65 = AXIS2_PLACEMENT_3D ( 'NONE', #168, #333, #285 ) ;
#66 = CC_DESIGN_DATE_AND_TIME_ASSIGNMENT ( #269, #150, ( #210 ) ) ;
#67 = CIRCLE ( 'NONE', #277, 3.499999999999993339 ) ;
#68 = EDGE_CURVE ( 'NONE', #190, #10, #231, .T. ) ;
#69 = PERSON_AND_ORGANIZATION ( #310, #302 ) ;
#70 = AXIS2_PLACEMENT_3D ( 'NONE', #234, #143, #258 ) ;
#71 = APPROVAL_STATUS ( 'not_yet_approved' ) ;
#72 = CARTESIAN_POINT ( 'NONE',  ( -0.5000000000000001110, -3.999999999999993339, 4.898587196589404940E-16 ) ) ;
#73 = PLANE ( 'NONE',  #336 ) ;
#74 = PERSON_AND_ORGANIZATION ( #310, #302 ) ;
#75 = DIRECTION ( 'NONE',  ( -2.041077998578920677E-17, 1.000000000000000000, 0.000000000000000000 ) ) ;
#76 = CARTESIAN_POINT ( 'NONE',  ( -0.5000000000000001110, -3.499999999999993339, 4.286263797015727720E-16 ) ) ;
#77 = ORIENTED_EDGE ( 'NONE', *, *, #80, .T. ) ;
#78 = DIRECTION ( 'NONE',  ( 0.000000000000000000, 1.000000000000000000, 0.000000000000000000 ) ) ;
#79 = ORIENTED_EDGE ( 'NONE', *, *, #320, .T. ) ;
#80 = EDGE_CURVE ( 'NONE', #26, #129, #239, .T. ) ;
#81 = CARTESIAN_POINT ( 'NONE',  ( -57.20000000000000284, -4.000000000000005329, 4.898587196589411843E-16 ) ) ;
#82 = AXIS2_PLACEMENT_3D ( 'NONE', #76, #303, #327 ) ;
#83 = FACE_OUTER_BOUND ( 'NONE', #341, .T. ) ;
#84 = DIRECTION ( 'NONE',  ( 0.000000000000000000, 1.000000000000000000, 0.000000000000000000 ) ) ;
#85 = AXIS2_PLACEMENT_3D ( 'NONE', #60, #171, #142 ) ;
#86 = AXIS2_PLACEMENT_3D ( 'NONE', #105, #225, #46 ) ;
#87 = PERSON_AND_ORGANIZATION_ROLE ( 'design_owner' ) ;
#88 = APPROVAL_STATUS ( 'not_yet_approved' ) ;
#89 = CARTESIAN_POINT ( 'NONE',  ( -57.20000000000000284, -4.000000000000006217, 4.898587196589412829E-16 ) ) ;
#90 = EDGE_LOOP ( 'NONE', ( #79, #180, #297, #248 ) ) ;
#91 = FACE_OUTER_BOUND ( 'NONE', #324, .T. ) ;
#92 = DIRECTION ( 'NONE',  ( 1.000000000000000000, 2.041077998578920677E-17, -0.000000000000000000 ) ) ;
#93 = EDGE_CURVE ( 'NONE', #129, #10, #197, .T. ) ;
#94 = PRODUCT_DEFINITION_SHAPE ( 'NONE', 'NONE',  #210 ) ;
#95 = APPROVAL_PERSON_ORGANIZATION ( #21, #300, #45 ) ;
#96 = LOCAL_TIME ( 16, 9, 1.000000000000000000, #59 ) ;
#97 = ORIENTED_EDGE ( 'NONE', *, *, #51, .T. ) ;
#98 = CARTESIAN_POINT ( 'NONE',  ( -12.00000000000000000, -3.999999999999996447, 4.898587196589408884E-16 ) ) ;
#99 = FACE_OUTER_BOUND ( 'NONE', #334, .T. ) ;
#100 = DATE_AND_TIME ( #215, #43 ) ;
#101 = ADVANCED_FACE ( 'NONE', ( #321 ), #264, .T. ) ;
#102 = DIRECTION ( 'NONE',  ( 0.000000000000000000, 1.000000000000000000, 0.000000000000000000 ) ) ;
#103 = ORIENTED_EDGE ( 'NONE', *, *, #363, .F. ) ;
#104 = AXIS2_PLACEMENT_3D ( 'NONE', #127, #158, #214 ) ;
#105 = CARTESIAN_POINT ( 'NONE',  ( -12.00000000000000000, -2.449293598294704442E-16, 0.000000000000000000 ) ) ;
#106 = ORIENTED_EDGE ( 'NONE', *, *, #250, .F. ) ;
#107 = EDGE_CURVE ( 'NONE', #28, #166, #15, .T. ) ;
#108 = DIRECTION ( 'NONE',  ( 0.000000000000000000, 1.000000000000000000, 0.000000000000000000 ) ) ;
#109 = ADVANCED_BREP_SHAPE_REPRESENTATION ( '387472387475', ( #30, #151, #323 ), #344 ) ;
#110 = PLANE ( 'NONE',  #296 ) ;
#111 = LOCAL_TIME ( 16, 9, 1.000000000000000000, #304 ) ;
#112 = DIRECTION ( 'NONE',  ( -2.041077998578920985E-17, 1.000000000000000000, 0.000000000000000000 ) ) ;
#113 = DIRECTION ( 'NONE',  ( 0.000000000000000000, 1.000000000000000000, 0.000000000000000000 ) ) ;
#114 = DIRECTION ( 'NONE',  ( -2.041077998578920677E-17, 1.000000000000000000, 0.000000000000000000 ) ) ;
#115 = AXIS2_PLACEMENT_3D ( 'NONE', #170, #55, #113 ) ;
#116 = DIRECTION ( 'NONE',  ( 0.000000000000000000, 0.000000000000000000, 1.000000000000000000 ) ) ;
#117 = APPROVAL ( #17, 'UNSPECIFIED' ) ;
#118 = UNCERTAINTY_MEASURE_WITH_UNIT (LENGTH_MEASURE( 1.000000000000000082E-05 ), #230, 'distance_accuracy_value', 'NONE');
#119 = EDGE_CURVE ( 'NONE', #10, #129, #125, .T. ) ;
#120 = CIRCLE ( 'NONE', #235, 3.199999999999999289 ) ;
#121 = PERSON_AND_ORGANIZATION ( #310, #302 ) ;
#122 = CC_DESIGN_PERSON_AND_ORGANIZATION_ASSIGNMENT ( #290, #241, ( #210 ) ) ;
#123 = PERSON_AND_ORGANIZATION_ROLE ( 'classification_officer' ) ;
#124 = ORIENTED_EDGE ( 'NONE', *, *, #282, .F. ) ;
#125 = CIRCLE ( 'NONE', #228, 3.999999999999993339 ) ;
#126 = AXIS2_PLACEMENT_3D ( 'NONE', #347, #330, #75 ) ;
#127 = CARTESIAN_POINT ( 'NONE',  ( -12.00000000000000000, -2.449293598294704442E-16, 0.000000000000000000 ) ) ;
#128 = APPROVAL_ROLE ( '' ) ;
#129 = VERTEX_POINT ( 'NONE', #72 ) ;
#130 = CYLINDRICAL_SURFACE ( 'NONE', #356, 3.999999999999996447 ) ;
#131 = PERSON_AND_ORGANIZATION ( #310, #302 ) ;
#132 = EDGE_CURVE ( 'NONE', #7, #42, #67, .T. ) ;
#133 = CIRCLE ( 'NONE', #178, 3.999999999999993339 ) ;
#134 = FACE_OUTER_BOUND ( 'NONE', #272, .T. ) ;
#135 = VERTEX_POINT ( 'NONE', #283 ) ;
#136 = FACE_OUTER_BOUND ( 'NONE', #160, .T. ) ;
#137 = DIRECTION ( 'NONE',  ( 1.224646799147353207E-16, -1.000000000000000000, 0.000000000000000000 ) ) ;
#138 = CC_DESIGN_SECURITY_CLASSIFICATION ( #146, ( #176 ) ) ;
#139 = EDGE_LOOP ( 'NONE', ( #301, #257 ) ) ;
#140 = ORIENTED_EDGE ( 'NONE', *, *, #355, .T. ) ;
#141 =( NAMED_UNIT ( * ) PLANE_ANGLE_UNIT ( ) SI_UNIT ( $, .RADIAN. ) );
#142 = DIRECTION ( 'NONE',  ( -1.000000000000000000, 0.000000000000000000, 0.000000000000000000 ) ) ;
#143 = DIRECTION ( 'NONE',  ( 1.000000000000000000, 2.041077998578920677E-17, -0.000000000000000000 ) ) ;
#144 = APPROVAL ( #88, 'UNSPECIFIED' ) ;
#145 = ORIENTED_EDGE ( 'NONE', *, *, #93, .F. ) ;
#146 = SECURITY_CLASSIFICATION ( '', '', #299 ) ;
#147 = DIRECTION ( 'NONE',  ( 1.000000000000000000, 1.224646799147353207E-16, -0.000000000000000000 ) ) ;
#148 = VERTEX_POINT ( 'NONE', #52 ) ;
#149 = EDGE_LOOP ( 'NONE', ( #124, #253, #22, #251 ) ) ;
#150 = DATE_TIME_ROLE ( 'creation_date' ) ;
#151 = MANIFOLD_SOLID_BREP ( 'Révolution2', #322 ) ;
#152 = ORIENTED_EDGE ( 'NONE', *, *, #315, .T. ) ;
#153 = ADVANCED_FACE ( 'NONE', ( #136 ), #155, .T. ) ;
#154 = SHAPE_DEFINITION_REPRESENTATION ( #94, #109 ) ;
#155 = CONICAL_SURFACE ( 'NONE', #260, 3.999999999999999112, 0.7853981633974512766 ) ;
#156 = ORIENTED_EDGE ( 'NONE', *, *, #57, .F. ) ;
#157 = ORIENTED_EDGE ( 'NONE', *, *, #355, .F. ) ;
#158 = DIRECTION ( 'NONE',  ( 1.000000000000000000, 1.224646799147353207E-16, -0.000000000000000000 ) ) ;
#159 = COORDINATED_UNIVERSAL_TIME_OFFSET ( 1, 0, .AHEAD. ) ;
#160 = EDGE_LOOP ( 'NONE', ( #106, #352, #97, #221 ) ) ;
#161 = ADVANCED_FACE ( 'NONE', ( #99 ), #335, .T. ) ;
#162 = CARTESIAN_POINT ( 'NONE',  ( -12.00000000000000000, -2.449293598294704935E-16, 0.000000000000000000 ) ) ;
#163 = VERTEX_POINT ( 'NONE', #192 ) ;
#164 = FACE_OUTER_BOUND ( 'NONE', #280, .T. ) ;
#165 = VECTOR ( 'NONE', #348, 1000.000000000000000 ) ;
#166 = VERTEX_POINT ( 'NONE', #353 ) ;
#167 = DIRECTION ( 'NONE',  ( 1.000000000000000000, 2.041077998578920677E-17, -0.000000000000000000 ) ) ;
#168 = CARTESIAN_POINT ( 'NONE',  ( -57.20000000000000284, -5.780332891975507355E-15, 0.000000000000000000 ) ) ;
#169 = CARTESIAN_POINT ( 'NONE',  ( -3.252606517456513302E-16, 3.499999999999993339, 0.000000000000000000 ) ) ;
#170 = CARTESIAN_POINT ( 'NONE',  ( -12.00000000000000000, -2.449293598294704935E-16, 0.000000000000000000 ) ) ;
#171 = DIRECTION ( 'NONE',  ( -0.000000000000000000, 0.000000000000000000, -1.000000000000000000 ) ) ;
#172 = PERSON_AND_ORGANIZATION ( #310, #302 ) ;
#173 = ADVANCED_FACE ( 'NONE', ( #191 ), #44, .T. ) ;
#174 = CARTESIAN_POINT ( 'NONE',  ( -57.20000000000000284, 3.999999999999993339, 0.000000000000000000 ) ) ;
#175 = CARTESIAN_POINT ( 'NONE',  ( -57.20000000000000284, -5.780332891975507355E-15, 0.000000000000000000 ) ) ;
#176 = PRODUCT_DEFINITION_FORMATION_WITH_SPECIFIED_SOURCE ( 'ANY', '', #12, .NOT_KNOWN. ) ;
#177 = DIRECTION ( 'NONE',  ( 0.000000000000000000, 1.000000000000000000, 0.000000000000000000 ) ) ;
#178 = AXIS2_PLACEMENT_3D ( 'NONE', #364, #196, #313 ) ;
#179 = CC_DESIGN_PERSON_AND_ORGANIZATION_ASSIGNMENT ( #74, #123, ( #146 ) ) ;
#180 = ORIENTED_EDGE ( 'NONE', *, *, #250, .T. ) ;
#181 = APPLICATION_CONTEXT ( 'configuration controlled 3d designs of mechanical parts and assemblies' ) ;
#182 = VERTEX_POINT ( 'NONE', #337 ) ;
#183 = CARTESIAN_POINT ( 'NONE',  ( -0.5000000000000002220, -1.020538999289460801E-17, 0.000000000000000000 ) ) ;
#184 = CALENDAR_DATE ( 2022, 31, 5 ) ;
#185 = ORIENTED_EDGE ( 'NONE', *, *, #36, .T. ) ;
#186 = CARTESIAN_POINT ( 'NONE',  ( -12.00000000000000000, -2.449293598294704935E-16, 0.000000000000000000 ) ) ;
#187 = CALENDAR_DATE ( 2022, 31, 5 ) ;
#188 = DIRECTION ( 'NONE',  ( 1.000000000000000000, 2.041077998578920677E-17, -0.000000000000000000 ) ) ;
#189 = LINE ( 'NONE', #81, #23 ) ;
#190 = VERTEX_POINT ( 'NONE', #360 ) ;
#191 = FACE_OUTER_BOUND ( 'NONE', #346, .T. ) ;
#192 = CARTESIAN_POINT ( 'NONE',  ( -57.20000000000000284, 3.999999999999992450, 0.000000000000000000 ) ) ;
#193 = APPROVAL_PERSON_ORGANIZATION ( #172, #144, #316 ) ;
#194 = PLANE ( 'NONE',  #104 ) ;
#195 = CC_DESIGN_PERSON_AND_ORGANIZATION_ASSIGNMENT ( #69, #349, ( #176 ) ) ;
#196 = DIRECTION ( 'NONE',  ( 1.000000000000000000, 1.224646799147353207E-16, -0.000000000000000000 ) ) ;
#197 = CIRCLE ( 'NONE', #293, 3.999999999999993339 ) ;
#198 = CYLINDRICAL_SURFACE ( 'NONE', #213, 3.999999999999993339 ) ;
#199 = DIRECTION ( 'NONE',  ( 0.7071067811865453523, 0.7071067811865497932, 0.000000000000000000 ) ) ;
#200 = CONICAL_SURFACE ( 'NONE', #65, 3.999999999999999112, 0.7853981633974512766 ) ;
#201 = ADVANCED_FACE ( 'NONE', ( #164 ), #211, .T. ) ;
#202 = CARTESIAN_POINT ( 'NONE',  ( -0.5000000000000003331, 3.999999999999993339, 0.000000000000000000 ) ) ;
#203 = ORIENTED_EDGE ( 'NONE', *, *, #68, .T. ) ;
#204 = DATE_AND_TIME ( #1, #96 ) ;
#205 = CARTESIAN_POINT ( 'NONE',  ( -57.20000000000000284, -5.780332891975507355E-15, 0.000000000000000000 ) ) ;
#206 = CC_DESIGN_APPROVAL ( #144, ( #210 ) ) ;
#207 = ADVANCED_FACE ( 'NONE', ( #134 ), #130, .T. ) ;
#208 = DIRECTION ( 'NONE',  ( -2.710505431213765707E-17, 1.000000000000000000, 0.000000000000000000 ) ) ;
#209 = CLOSED_SHELL ( 'NONE', ( #207, #306, #263, #153, #161, #237 ) ) ;
#210 = PRODUCT_DEFINITION ( 'UNKNOWN', '', #176, #343 ) ;
#211 = TOROIDAL_SURFACE ( 'NONE', #261, 3.499999999999993339, 0.5000000000000000000 ) ;
#212 = DIRECTION ( 'NONE',  ( -2.710505431213765707E-17, 1.000000000000000000, 0.000000000000000000 ) ) ;
#213 = AXIS2_PLACEMENT_3D ( 'NONE', #338, #318, #314 ) ;
#214 = DIRECTION ( 'NONE',  ( -1.224646799147353207E-16, 1.000000000000000000, 0.000000000000000000 ) ) ;
#215 = CALENDAR_DATE ( 2022, 31, 5 ) ;
#216 = PRODUCT_RELATED_PRODUCT_CATEGORY ( 'detail', '', ( #12 ) ) ;
#217 = ORIENTED_EDGE ( 'NONE', *, *, #320, .F. ) ;
#218 = DIRECTION ( 'NONE',  ( 1.000000000000000000, 1.224646799147353207E-16, -0.000000000000000000 ) ) ;
#219 = AXIS2_PLACEMENT_3D ( 'NONE', #259, #319, #112 ) ;
#220 = DIRECTION ( 'NONE',  ( -1.000000000000000000, -2.041077998578920677E-17, 0.000000000000000000 ) ) ;
#221 = ORIENTED_EDGE ( 'NONE', *, *, #32, .F. ) ;
#222 = ORIENTED_EDGE ( 'NONE', *, *, #107, .F. ) ;
#223 = AXIS2_PLACEMENT_3D ( 'NONE', #205, #147, #177 ) ;
#224 = LINE ( 'NONE', #27, #165 ) ;
#225 = DIRECTION ( 'NONE',  ( 1.000000000000000000, 1.224646799147353207E-16, -0.000000000000000000 ) ) ;
#226 = LOCAL_TIME ( 16, 9, 1.000000000000000000, #159 ) ;
#227 = CARTESIAN_POINT ( 'NONE',  ( 0.000000000000000000, 0.000000000000000000, 0.000000000000000000 ) ) ;
#228 = AXIS2_PLACEMENT_3D ( 'NONE', #351, #271, #212 ) ;
#229 = CC_DESIGN_PERSON_AND_ORGANIZATION_ASSIGNMENT ( #339, #87, ( #12 ) ) ;
#230 =( LENGTH_UNIT ( ) NAMED_UNIT ( * ) SI_UNIT ( .MILLI., .METRE. ) );
#231 = LINE ( 'NONE', #291, #53 ) ;
#232 = APPLICATION_PROTOCOL_DEFINITION ( 'international standard', 'config_control_design', 1994, #40 ) ;
#233 = CARTESIAN_POINT ( 'NONE',  ( -57.99999999999999289, -5.878304635907295000E-15, 0.000000000000000000 ) ) ;
#234 = CARTESIAN_POINT ( 'NONE',  ( -12.00000000000000000, -2.449293598294704935E-16, 0.000000000000000000 ) ) ;
#235 = AXIS2_PLACEMENT_3D ( 'NONE', #233, #56, #33 ) ;
#236 = CC_DESIGN_DATE_AND_TIME_ASSIGNMENT ( #244, #325, ( #146 ) ) ;
#237 = ADVANCED_FACE ( 'NONE', ( #309 ), #194, .T. ) ;
#238 = ORIENTED_EDGE ( 'NONE', *, *, #132, .T. ) ;
#239 = LINE ( 'NONE', #13, #265 ) ;
#240 = CIRCLE ( 'NONE', #86, 3.999999999999993339 ) ;
#241 = PERSON_AND_ORGANIZATION_ROLE ( 'creator' ) ;
#242 = DIRECTION ( 'NONE',  ( 1.000000000000000000, 1.224646799147353207E-16, -0.000000000000000000 ) ) ;
#243 = DIRECTION ( 'NONE',  ( 1.000000000000000000, 1.224646799147353207E-16, -0.000000000000000000 ) ) ;
#244 = DATE_AND_TIME ( #184, #111 ) ;
#245 = DIRECTION ( 'NONE',  ( 0.7071067811865455743, -0.7071067811865495711, 8.659560562354958743E-17 ) ) ;
#246 = APPROVAL_DATE_TIME ( #100, #117 ) ;
#247 = AXIS2_PLACEMENT_3D ( 'NONE', #20, #167, #305 ) ;
#248 = ORIENTED_EDGE ( 'NONE', *, *, #51, .F. ) ;
#249 = DIRECTION ( 'NONE',  ( 2.041077998578920677E-17, -1.000000000000000000, 0.000000000000000000 ) ) ;
#250 = EDGE_CURVE ( 'NONE', #135, #28, #189, .T. ) ;
#251 = ORIENTED_EDGE ( 'NONE', *, *, #132, .F. ) ;
#252 = DIRECTION ( 'NONE',  ( 0.000000000000000000, 1.000000000000000000, 0.000000000000000000 ) ) ;
#253 = ORIENTED_EDGE ( 'NONE', *, *, #93, .T. ) ;
#254 = DIRECTION ( 'NONE',  ( 1.000000000000000000, 0.000000000000000000, 0.000000000000000000 ) ) ;
#255 = CIRCLE ( 'NONE', #82, 0.5000000000000000000 ) ;
#256 = ORIENTED_EDGE ( 'NONE', *, *, #119, .F. ) ;
#257 = ORIENTED_EDGE ( 'NONE', *, *, #266, .T. ) ;
#258 = DIRECTION ( 'NONE',  ( 0.000000000000000000, 1.000000000000000000, 0.000000000000000000 ) ) ;
#259 = CARTESIAN_POINT ( 'NONE',  ( -2.538229217953892097E-16, -5.180723812115869270E-33, 0.000000000000000000 ) ) ;
#260 = AXIS2_PLACEMENT_3D ( 'NONE', #307, #47, #78 ) ;
#261 = AXIS2_PLACEMENT_3D ( 'NONE', #50, #281, #24 ) ;
#262 = ORIENTED_EDGE ( 'NONE', *, *, #119, .T. ) ;
#263 = ADVANCED_FACE ( 'NONE', ( #25 ), #110, .T. ) ;
#264 = PLANE ( 'NONE',  #126 ) ;
#265 = VECTOR ( 'NONE', #295, 1000.000000000000000 ) ;
#266 = EDGE_CURVE ( 'NONE', #166, #182, #240, .T. ) ;
#267 = CIRCLE ( 'NONE', #350, 3.999999999999998224 ) ;
#268 = ORIENTED_EDGE ( 'NONE', *, *, #11, .F. ) ;
#269 = DATE_AND_TIME ( #39, #58 ) ;
#270 = ORIENTED_EDGE ( 'NONE', *, *, #107, .T. ) ;
#271 = DIRECTION ( 'NONE',  ( 1.000000000000000000, 2.041077998578920677E-17, -0.000000000000000000 ) ) ;
#272 = EDGE_LOOP ( 'NONE', ( #185, #270, #289, #287 ) ) ;
#273 = AXIS2_PLACEMENT_3D ( 'NONE', #274, #243, #102 ) ;
#274 = CARTESIAN_POINT ( 'NONE',  ( -57.99999999999999289, -5.878304635907295000E-15, 0.000000000000000000 ) ) ;
#275 = APPROVAL_DATE_TIME ( #14, #300 ) ;
#276 = ORIENTED_EDGE ( 'NONE', *, *, #32, .T. ) ;
#277 = AXIS2_PLACEMENT_3D ( 'NONE', #41, #188, #19 ) ;
#278 = DIRECTION ( 'NONE',  ( -1.000000000000000000, -1.224646799147353207E-16, 0.000000000000000000 ) ) ;
#279 = COORDINATED_UNIVERSAL_TIME_OFFSET ( 1, 0, .AHEAD. ) ;
#280 = EDGE_LOOP ( 'NONE', ( #262, #298, #103, #156 ) ) ;
#281 = DIRECTION ( 'NONE',  ( 1.000000000000000000, 2.041077998578920677E-17, -0.000000000000000000 ) ) ;
#282 = EDGE_CURVE ( 'NONE', #129, #7, #255, .T. ) ;
#283 = CARTESIAN_POINT ( 'NONE',  ( -57.99999999999999289, -3.200000000000005951, 4.408728476930471151E-16 ) ) ;
#284 = CIRCLE ( 'NONE', #223, 3.999999999999998224 ) ;
#285 = DIRECTION ( 'NONE',  ( 0.000000000000000000, 1.000000000000000000, 0.000000000000000000 ) ) ;
#286 = CARTESIAN_POINT ( 'NONE',  ( -12.00000000000000000, -3.999999999999993339, 4.898587196589404940E-16 ) ) ;
#287 = ORIENTED_EDGE ( 'NONE', *, *, #315, .F. ) ;
#288 = MECHANICAL_CONTEXT ( 'NONE', #40, 'mechanical' ) ;
#289 = ORIENTED_EDGE ( 'NONE', *, *, #332, .F. ) ;
#290 = PERSON_AND_ORGANIZATION ( #310, #302 ) ;
#291 = CARTESIAN_POINT ( 'NONE',  ( -8.164311994315669148E-17, 3.999999999999993339, 0.000000000000000000 ) ) ;
#292 = VECTOR ( 'NONE', #242, 1000.000000000000000 ) ;
#293 = AXIS2_PLACEMENT_3D ( 'NONE', #183, #92, #208 ) ;
#294 = ADVANCED_FACE ( 'NONE', ( #83 ), #73, .T. ) ;
#295 = DIRECTION ( 'NONE',  ( 1.000000000000000000, 2.041077998578920677E-17, -0.000000000000000000 ) ) ;
#296 = AXIS2_PLACEMENT_3D ( 'NONE', #357, #278, #137 ) ;
#297 = ORIENTED_EDGE ( 'NONE', *, *, #36, .F. ) ;
#298 = ORIENTED_EDGE ( 'NONE', *, *, #282, .T. ) ;
#299 = SECURITY_CLASSIFICATION_LEVEL ( 'unclassified' ) ;
#300 = APPROVAL ( #71, 'UNSPECIFIED' ) ;
#301 = ORIENTED_EDGE ( 'NONE', *, *, #332, .T. ) ;
#302 = ORGANIZATION ( 'UNSPECIFIED', 'UNSPECIFIED', '' ) ;
#303 = DIRECTION ( 'NONE',  ( -2.499599637769761311E-33, 1.224646799147353207E-16, 1.000000000000000000 ) ) ;
#304 = COORDINATED_UNIVERSAL_TIME_OFFSET ( 1, 0, .AHEAD. ) ;
#305 = DIRECTION ( 'NONE',  ( -2.041077998578920677E-17, 1.000000000000000000, 0.000000000000000000 ) ) ;
#306 = ADVANCED_FACE ( 'NONE', ( #311 ), #200, .T. ) ;
#307 = CARTESIAN_POINT ( 'NONE',  ( -57.20000000000000284, -5.780332891975507355E-15, 0.000000000000000000 ) ) ;
#308 = CC_DESIGN_APPROVAL ( #300, ( #176 ) ) ;
#309 = FACE_OUTER_BOUND ( 'NONE', #139, .T. ) ;
#310 = PERSON ( 'UNSPECIFIED', 'UNSPECIFIED', 'UNSPECIFIED', ('UNSPECIFIED'), ('UNSPECIFIED'), ('UNSPECIFIED') ) ;
#311 = FACE_OUTER_BOUND ( 'NONE', #90, .T. ) ;
#312 = ORIENTED_EDGE ( 'NONE', *, *, #2, .F. ) ;
#313 = DIRECTION ( 'NONE',  ( 0.000000000000000000, 1.000000000000000000, 0.000000000000000000 ) ) ;
#314 = DIRECTION ( 'NONE',  ( -2.041077998578920677E-17, 1.000000000000000000, 0.000000000000000000 ) ) ;
#315 = EDGE_CURVE ( 'NONE', #163, #182, #224, .T. ) ;
#316 = APPROVAL_ROLE ( '' ) ;
#317 = CIRCLE ( 'NONE', #219, 3.499999999999993339 ) ;
#318 = DIRECTION ( 'NONE',  ( 1.000000000000000000, 2.041077998578920677E-17, -0.000000000000000000 ) ) ;
#319 = DIRECTION ( 'NONE',  ( 1.000000000000000000, 2.041077998578920677E-17, -0.000000000000000000 ) ) ;
#320 = EDGE_CURVE ( 'NONE', #148, #135, #6, .T. ) ;
#321 = FACE_OUTER_BOUND ( 'NONE', #359, .T. ) ;
#322 = CLOSED_SHELL ( 'NONE', ( #38, #201, #342, #173, #294, #101 ) ) ;
#323 = AXIS2_PLACEMENT_3D ( 'NONE', #227, #116, #254 ) ;
#324 = EDGE_LOOP ( 'NONE', ( #140, #77, #256, #61 ) ) ;
#325 = DATE_TIME_ROLE ( 'classification_date' ) ;
#326 = CIRCLE ( 'NONE', #85, 0.5000000000000001110 ) ;
#327 = DIRECTION ( 'NONE',  ( 0.000000000000000000, -1.000000000000000000, 1.224646799147352468E-16 ) ) ;
#328 = PERSON_AND_ORGANIZATION_ROLE ( 'design_supplier' ) ;
#329 = ORIENTED_EDGE ( 'NONE', *, *, #266, .F. ) ;
#330 = DIRECTION ( 'NONE',  ( 1.000000000000000000, 2.041077998578920677E-17, -0.000000000000000000 ) ) ;
#331 = CARTESIAN_POINT ( 'NONE',  ( -12.00000000000000000, -2.449293598294704935E-16, 0.000000000000000000 ) ) ;
#332 = EDGE_CURVE ( 'NONE', #182, #166, #133, .T. ) ;
#333 = DIRECTION ( 'NONE',  ( 1.000000000000000000, 1.224646799147353207E-16, -0.000000000000000000 ) ) ;
#334 = EDGE_LOOP ( 'NONE', ( #222, #276, #152, #329 ) ) ;
#335 = CYLINDRICAL_SURFACE ( 'NONE', #362, 3.999999999999996447 ) ;
#336 = AXIS2_PLACEMENT_3D ( 'NONE', #186, #220, #249 ) ;
#337 = CARTESIAN_POINT ( 'NONE',  ( -12.00000000000000000, 3.999999999999993339, 0.000000000000000000 ) ) ;
#338 = CARTESIAN_POINT ( 'NONE',  ( 0.000000000000000000, 0.000000000000000000, 0.000000000000000000 ) ) ;
#339 = PERSON_AND_ORGANIZATION ( #310, #302 ) ;
#340 = DIRECTION ( 'NONE',  ( 1.000000000000000000, 2.041077998578920677E-17, -0.000000000000000000 ) ) ;
#341 = EDGE_LOOP ( 'NONE', ( #157, #268 ) ) ;
#342 = ADVANCED_FACE ( 'NONE', ( #64 ), #49, .T. ) ;
#343 = DESIGN_CONTEXT ( 'detailed design', #181, 'design' ) ;
#344 =( GEOMETRIC_REPRESENTATION_CONTEXT ( 3 ) GLOBAL_UNCERTAINTY_ASSIGNED_CONTEXT ( ( #118 ) ) GLOBAL_UNIT_ASSIGNED_CONTEXT ( ( #230, #141, #4 ) ) REPRESENTATION_CONTEXT ( 'NONE', 'WORKASPACE' ) );
#345 = CC_DESIGN_PERSON_AND_ORGANIZATION_ASSIGNMENT ( #121, #328, ( #176 ) ) ;
#346 = EDGE_LOOP ( 'NONE', ( #48, #358, #203, #145 ) ) ;
#347 = CARTESIAN_POINT ( 'NONE',  ( -1.983491908479567253E-16, 3.499999999999993339, 0.000000000000000000 ) ) ;
#348 = DIRECTION ( 'NONE',  ( 1.000000000000000000, 1.224646799147353207E-16, -0.000000000000000000 ) ) ;
#349 = PERSON_AND_ORGANIZATION_ROLE ( 'creator' ) ;
#350 = AXIS2_PLACEMENT_3D ( 'NONE', #175, #35, #84 ) ;
#351 = CARTESIAN_POINT ( 'NONE',  ( -0.5000000000000002220, -1.020538999289460801E-17, 0.000000000000000000 ) ) ;
#352 = ORIENTED_EDGE ( 'NONE', *, *, #2, .T. ) ;
#353 = CARTESIAN_POINT ( 'NONE',  ( -12.00000000000000000, -3.999999999999993339, 4.898587196589406912E-16 ) ) ;
#354 = COORDINATED_UNIVERSAL_TIME_OFFSET ( 1, 0, .AHEAD. ) ;
#355 = EDGE_CURVE ( 'NONE', #190, #26, #9, .T. ) ;
#356 = AXIS2_PLACEMENT_3D ( 'NONE', #331, #361, #252 ) ;
#357 = CARTESIAN_POINT ( 'NONE',  ( -58.00000000000000000, -5.878304635907295000E-15, 0.000000000000000000 ) ) ;
#358 = ORIENTED_EDGE ( 'NONE', *, *, #11, .T. ) ;
#359 = EDGE_LOOP ( 'NONE', ( #54, #238 ) ) ;
#360 = CARTESIAN_POINT ( 'NONE',  ( -12.00000000000000000, 3.999999999999993339, 0.000000000000000000 ) ) ;
#361 = DIRECTION ( 'NONE',  ( 1.000000000000000000, 1.224646799147353207E-16, -0.000000000000000000 ) ) ;
#362 = AXIS2_PLACEMENT_3D ( 'NONE', #162, #218, #108 ) ;
#363 = EDGE_CURVE ( 'NONE', #42, #7, #317, .T. ) ;
#364 = CARTESIAN_POINT ( 'NONE',  ( -12.00000000000000000, -2.449293598294704442E-16, 0.000000000000000000 ) ) ;
#365 = APPROVAL_DATE_TIME ( #204, #144 ) ;
ENDSEC;
END-ISO-10303-21;
