ISO-10303-21;
HEADER;
FILE_DESCRIPTION (( 'STEP AP203' ),
    '1' );
FILE_NAME ('387472387474.step',
    '2022-05-31T14:09:00',
    ( '' ),
    ( '' ),
    'SwSTEP 2.0',
    'SolidWorks 2019',
    '' );
FILE_SCHEMA (( 'CONFIG_CONTROL_DESIGN' ));
ENDSEC;

DATA;
#1 = DIRECTION ( 'NONE',  ( 4.322377234736332950E-16, 1.000000000000000000, 0.000000000000000000 ) ) ;
#2 = ADVANCED_FACE ( 'NONE', ( #323 ), #224, .T. ) ;
#3 = DIRECTION ( 'NONE',  ( 1.000000000000000000, 9.823584624400759393E-17, -0.000000000000000000 ) ) ;
#4 = ORIENTED_EDGE ( 'NONE', *, *, #285, .T. ) ;
#5 =( NAMED_UNIT ( * ) SI_UNIT ( $, .STERADIAN. ) SOLID_ANGLE_UNIT ( ) );
#6 = DIRECTION ( 'NONE',  ( -9.823584624400759393E-17, 1.000000000000000000, 0.000000000000000000 ) ) ;
#7 = DATE_AND_TIME ( #266, #103 ) ;
#8 = ADVANCED_FACE ( 'NONE', ( #76 ), #26, .T. ) ;
#9 = PERSON_AND_ORGANIZATION_ROLE ( 'design_supplier' ) ;
#10 = COORDINATED_UNIVERSAL_TIME_OFFSET ( 1, 0, .AHEAD. ) ;
#11 = AXIS2_PLACEMENT_3D ( 'NONE', #119, #47, #334 ) ;
#12 = PERSON_AND_ORGANIZATION_ROLE ( 'classification_officer' ) ;
#13 = CYLINDRICAL_SURFACE ( 'NONE', #148, 2.999999999999991118 ) ;
#14 = ORIENTED_EDGE ( 'NONE', *, *, #284, .T. ) ;
#15 = DIRECTION ( 'NONE',  ( 1.000000000000000000, 9.823584624400759393E-17, -0.000000000000000000 ) ) ;
#16 = DIRECTION ( 'NONE',  ( 4.322377234736332950E-16, 1.000000000000000000, 0.000000000000000000 ) ) ;
#17 = TOROIDAL_SURFACE ( 'NONE', #60, 1.999999999999993117, 0.9999999999999995559 ) ;
#18 = AXIS2_PLACEMENT_3D ( 'NONE', #154, #15, #71 ) ;
#19 = DIRECTION ( 'NONE',  ( 0.000000000000000000, 1.000000000000000000, 0.000000000000000000 ) ) ;
#20 = ORIENTED_EDGE ( 'NONE', *, *, #239, .F. ) ;
#21 = CC_DESIGN_PERSON_AND_ORGANIZATION_ASSIGNMENT ( #345, #207, ( #153 ) ) ;
#22 = CARTESIAN_POINT ( 'NONE',  ( -1.296713170420895891E-15, -2.999999999999990674, 3.673940397442048035E-16 ) ) ;
#23 = LINE ( 'NONE', #98, #55 ) ;
#24 = CARTESIAN_POINT ( 'NONE',  ( -10.00000000000000000, 4.322377234736333837E-15, 0.000000000000000000 ) ) ;
#25 = PRODUCT_RELATED_PRODUCT_CATEGORY ( 'detail', '', ( #210 ) ) ;
#26 = PLANE ( 'NONE',  #338 ) ;
#27 = MANIFOLD_SOLID_BREP ( 'Révolution1', #212 ) ;
#28 = CARTESIAN_POINT ( 'NONE',  ( -54.00000000000000000, 1.158033778473152845E-32, 0.000000000000000000 ) ) ;
#29 = AXIS2_PLACEMENT_3D ( 'NONE', #43, #246, #356 ) ;
#30 = EDGE_CURVE ( 'NONE', #193, #70, #85, .T. ) ;
#31 = ORIENTED_EDGE ( 'NONE', *, *, #239, .T. ) ;
#32 = ORIENTED_EDGE ( 'NONE', *, *, #251, .F. ) ;
#33 = CONICAL_SURFACE ( 'NONE', #46, 2.999999999999993339, 0.7853981633974453924 ) ;
#34 = APPROVAL_ROLE ( '' ) ;
#35 = DIRECTION ( 'NONE',  ( 1.000000000000000000, 9.823584624400759393E-17, -0.000000000000000000 ) ) ;
#36 = APPROVAL_DATE_TIME ( #138, #194 ) ;
#37 = DATE_TIME_ROLE ( 'classification_date' ) ;
#38 = ADVANCED_FACE ( 'NONE', ( #122 ), #17, .T. ) ;
#39 = DIRECTION ( 'NONE',  ( 1.000000000000000000, 0.000000000000000000, 0.000000000000000000 ) ) ;
#40 = CC_DESIGN_SECURITY_CLASSIFICATION ( #336, ( #282 ) ) ;
#41 = CARTESIAN_POINT ( 'NONE',  ( -53.39999999999999858, 2.999999999999993339, 0.000000000000000000 ) ) ;
#42 = ORIENTED_EDGE ( 'NONE', *, *, #205, .T. ) ;
#43 = CARTESIAN_POINT ( 'NONE',  ( -10.00000000000000178, 4.322377234736333837E-15, 0.000000000000000000 ) ) ;
#44 = CARTESIAN_POINT ( 'NONE',  ( -1.000000000000001776, -2.999999999999992450, 3.673940397442050500E-16 ) ) ;
#45 = AXIS2_PLACEMENT_3D ( 'NONE', #289, #104, #127 ) ;
#46 = AXIS2_PLACEMENT_3D ( 'NONE', #97, #309, #118 ) ;
#47 = DIRECTION ( 'NONE',  ( 0.000000000000000000, 0.000000000000000000, -1.000000000000000000 ) ) ;
#48 = FACE_OUTER_BOUND ( 'NONE', #169, .T. ) ;
#49 = VERTEX_POINT ( 'NONE', #365 ) ;
#50 = PLANE ( 'NONE',  #133 ) ;
#51 = EDGE_CURVE ( 'NONE', #200, #130, #260, .T. ) ;
#52 = DIRECTION ( 'NONE',  ( 0.000000000000000000, 1.000000000000000000, 0.000000000000000000 ) ) ;
#53 = ORIENTED_EDGE ( 'NONE', *, *, #292, .F. ) ;
#54 = ADVANCED_FACE ( 'NONE', ( #340 ), #102, .T. ) ;
#55 = VECTOR ( 'NONE', #281, 1000.000000000000000 ) ;
#56 = CIRCLE ( 'NONE', #234, 1.999999999999993561 ) ;
#57 = EDGE_LOOP ( 'NONE', ( #186, #192 ) ) ;
#58 = DIRECTION ( 'NONE',  ( 0.000000000000000000, 1.000000000000000000, 0.000000000000000000 ) ) ;
#59 = ORIENTED_EDGE ( 'NONE', *, *, #232, .F. ) ;
#60 = AXIS2_PLACEMENT_3D ( 'NONE', #257, #229, #1 ) ;
#61 = CIRCLE ( 'NONE', #11, 0.9999999999999995559 ) ;
#62 = PERSON_AND_ORGANIZATION ( #304, #203 ) ;
#63 = APPROVAL_ROLE ( '' ) ;
#64 = ADVANCED_FACE ( 'NONE', ( #83 ), #13, .T. ) ;
#65 = APPROVAL_STATUS ( 'not_yet_approved' ) ;
#66 = PERSON_AND_ORGANIZATION_ROLE ( 'creator' ) ;
#67 = CC_DESIGN_PERSON_AND_ORGANIZATION_ASSIGNMENT ( #267, #9, ( #282 ) ) ;
#68 = CARTESIAN_POINT ( 'NONE',  ( -10.00000000000000178, 4.322377234736333837E-15, 0.000000000000000000 ) ) ;
#69 = CARTESIAN_POINT ( 'NONE',  ( 0.000000000000000000, 0.000000000000000000, 0.000000000000000000 ) ) ;
#70 = VERTEX_POINT ( 'NONE', #350 ) ;
#71 = DIRECTION ( 'NONE',  ( 0.000000000000000000, 1.000000000000000000, 0.000000000000000000 ) ) ;
#72 = CARTESIAN_POINT ( 'NONE',  ( -53.39999999999999858, -2.999999999999993339, 3.673940397442050993E-16 ) ) ;
#73 = DIRECTION ( 'NONE',  ( 0.000000000000000000, -1.000000000000000000, 1.224646799147352961E-16 ) ) ;
#74 = EDGE_LOOP ( 'NONE', ( #91, #159 ) ) ;
#75 = AXIS2_PLACEMENT_3D ( 'NONE', #69, #176, #39 ) ;
#76 = FACE_OUTER_BOUND ( 'NONE', #112, .T. ) ;
#77 = CARTESIAN_POINT ( 'NONE',  ( -0.9999999999999991118, 2.999999999999993339, 0.000000000000000000 ) ) ;
#78 = ORIENTED_EDGE ( 'NONE', *, *, #361, .F. ) ;
#79 = CARTESIAN_POINT ( 'NONE',  ( -53.39999999999999858, 2.999999999999992895, 0.000000000000000000 ) ) ;
#80 = CARTESIAN_POINT ( 'NONE',  ( 6.490781579707327520E-16, 1.999999999999993561, 0.000000000000000000 ) ) ;
#81 = ADVANCED_BREP_SHAPE_REPRESENTATION ( '387472387474', ( #27, #143, #75 ), #277 ) ;
#82 = VECTOR ( 'NONE', #360, 1000.000000000000000 ) ;
#83 = FACE_OUTER_BOUND ( 'NONE', #178, .T. ) ;
#84 = VERTEX_POINT ( 'NONE', #79 ) ;
#85 = CIRCLE ( 'NONE', #45, 1.999999999999993561 ) ;
#86 = VERTEX_POINT ( 'NONE', #363 ) ;
#87 = CARTESIAN_POINT ( 'NONE',  ( -54.00000000000000000, 0.000000000000000000, 0.000000000000000000 ) ) ;
#88 = VERTEX_POINT ( 'NONE', #222 ) ;
#89 = CLOSED_SHELL ( 'NONE', ( #187, #54, #38, #101, #8, #92 ) ) ;
#90 = CIRCLE ( 'NONE', #134, 0.9999999999999995559 ) ;
#91 = ORIENTED_EDGE ( 'NONE', *, *, #110, .F. ) ;
#92 = ADVANCED_FACE ( 'NONE', ( #337 ), #50, .T. ) ;
#93 = AXIS2_PLACEMENT_3D ( 'NONE', #158, #316, #173 ) ;
#94 = CARTESIAN_POINT ( 'NONE',  ( -53.39999999999999858, 5.894150774640482260E-17, 0.000000000000000000 ) ) ;
#95 = CARTESIAN_POINT ( 'NONE',  ( -10.00000000000000355, -2.999999999999984457, 3.673940397442046556E-16 ) ) ;
#96 = EDGE_CURVE ( 'NONE', #196, #286, #364, .T. ) ;
#97 = CARTESIAN_POINT ( 'NONE',  ( -53.39999999999999858, 5.894150774640482260E-17, 0.000000000000000000 ) ) ;
#98 = CARTESIAN_POINT ( 'NONE',  ( -10.00000000000000178, -2.999999999999986677, 3.673940397442048528E-16 ) ) ;
#99 = DIRECTION ( 'NONE',  ( 0.000000000000000000, 1.000000000000000000, 0.000000000000000000 ) ) ;
#100 = ORIENTED_EDGE ( 'NONE', *, *, #322, .T. ) ;
#101 = ADVANCED_FACE ( 'NONE', ( #117 ), #276, .T. ) ;
#102 = TOROIDAL_SURFACE ( 'NONE', #93, 1.999999999999993117, 0.9999999999999995559 ) ;
#103 = LOCAL_TIME ( 16, 9, 0.000000000000000000, #10 ) ;
#104 = DIRECTION ( 'NONE',  ( 1.000000000000000000, -4.322377234736332950E-16, -0.000000000000000000 ) ) ;
#105 = APPROVAL_ROLE ( '' ) ;
#106 = SHAPE_DEFINITION_REPRESENTATION ( #280, #81 ) ;
#107 = CALENDAR_DATE ( 2022, 31, 5 ) ;
#108 = UNCERTAINTY_MEASURE_WITH_UNIT (LENGTH_MEASURE( 1.000000000000000082E-05 ), #236, 'distance_accuracy_value', 'NONE');
#109 = AXIS2_PLACEMENT_3D ( 'NONE', #24, #278, #19 ) ;
#110 = EDGE_CURVE ( 'NONE', #130, #200, #123, .T. ) ;
#111 = DIRECTION ( 'NONE',  ( 1.000000000000000000, -4.322377234736332950E-16, -0.000000000000000000 ) ) ;
#112 = EDGE_LOOP ( 'NONE', ( #230, #53 ) ) ;
#113 = DIRECTION ( 'NONE',  ( 1.000000000000000000, 9.823584624400759393E-17, -0.000000000000000000 ) ) ;
#114 = VECTOR ( 'NONE', #305, 1000.000000000000114 ) ;
#115 = DIRECTION ( 'NONE',  ( 5.782411586589378346E-16, 1.000000000000000000, 0.000000000000000000 ) ) ;
#116 = ORIENTED_EDGE ( 'NONE', *, *, #284, .F. ) ;
#117 = FACE_OUTER_BOUND ( 'NONE', #301, .T. ) ;
#118 = DIRECTION ( 'NONE',  ( 0.000000000000000000, 1.000000000000000000, 0.000000000000000000 ) ) ;
#119 = CARTESIAN_POINT ( 'NONE',  ( -0.9999999999999991118, 1.999999999999993561, 0.000000000000000000 ) ) ;
#120 = ADVANCED_FACE ( 'NONE', ( #314 ), #253, .T. ) ;
#121 = DIRECTION ( 'NONE',  ( 4.322377234736332950E-16, 1.000000000000000000, 0.000000000000000000 ) ) ;
#122 = FACE_OUTER_BOUND ( 'NONE', #264, .T. ) ;
#123 = CIRCLE ( 'NONE', #217, 2.399999999999993250 ) ;
#124 = CYLINDRICAL_SURFACE ( 'NONE', #160, 2.999999999999990674 ) ;
#125 = APPROVAL_PERSON_ORGANIZATION ( #62, #157, #105 ) ;
#126 = CC_DESIGN_PERSON_AND_ORGANIZATION_ASSIGNMENT ( #346, #177, ( #210 ) ) ;
#127 = DIRECTION ( 'NONE',  ( 4.322377234736332950E-16, 1.000000000000000000, 0.000000000000000000 ) ) ;
#128 = DIRECTION ( 'NONE',  ( -4.322377234736332950E-16, -1.000000000000000000, 0.000000000000000000 ) ) ;
#129 = ORIENTED_EDGE ( 'NONE', *, *, #312, .T. ) ;
#130 = VERTEX_POINT ( 'NONE', #197 ) ;
#131 = CC_DESIGN_DATE_AND_TIME_ASSIGNMENT ( #7, #37, ( #336 ) ) ;
#132 = CARTESIAN_POINT ( 'NONE',  ( -10.00000000000000000, 2.999999999999993339, 0.000000000000000000 ) ) ;
#133 = AXIS2_PLACEMENT_3D ( 'NONE', #80, #156, #121 ) ;
#134 = AXIS2_PLACEMENT_3D ( 'NONE', #216, #331, #73 ) ;
#135 = DIRECTION ( 'NONE',  ( -1.000000000000000000, 4.322377234736332950E-16, 0.000000000000000000 ) ) ;
#136 = VERTEX_POINT ( 'NONE', #132 ) ;
#137 = DESIGN_CONTEXT ( 'detailed design', #163, 'design' ) ;
#138 = DATE_AND_TIME ( #325, #318 ) ;
#139 = CALENDAR_DATE ( 2022, 31, 5 ) ;
#140 = DIRECTION ( 'NONE',  ( 0.000000000000000000, 1.000000000000000000, 0.000000000000000000 ) ) ;
#141 = PERSON_AND_ORGANIZATION ( #304, #203 ) ;
#142 = CALENDAR_DATE ( 2022, 31, 5 ) ;
#143 = MANIFOLD_SOLID_BREP ( 'Révolution2', #89 ) ;
#144 = CARTESIAN_POINT ( 'NONE',  ( 1.296713170420895891E-15, 2.999999999999990674, 0.000000000000000000 ) ) ;
#145 = ORIENTED_EDGE ( 'NONE', *, *, #285, .F. ) ;
#146 = FACE_OUTER_BOUND ( 'NONE', #221, .T. ) ;
#147 = APPROVAL ( #326, 'UNSPECIFIED' ) ;
#148 = AXIS2_PLACEMENT_3D ( 'NONE', #240, #297, #140 ) ;
#149 = DIRECTION ( 'NONE',  ( 5.782411586589378346E-16, 1.000000000000000000, 0.000000000000000000 ) ) ;
#150 = CIRCLE ( 'NONE', #219, 2.999999999999988898 ) ;
#151 = DIRECTION ( 'NONE',  ( 1.000000000000000000, -4.322377234736332950E-16, -0.000000000000000000 ) ) ;
#152 = DIRECTION ( 'NONE',  ( 1.000000000000000000, 9.823584624400759393E-17, -0.000000000000000000 ) ) ;
#153 = PRODUCT_DEFINITION ( 'UNKNOWN', '', #282, #137 ) ;
#154 = CARTESIAN_POINT ( 'NONE',  ( -53.39999999999999858, 5.894150774640482260E-17, 0.000000000000000000 ) ) ;
#155 = ORIENTED_EDGE ( 'NONE', *, *, #312, .F. ) ;
#156 = DIRECTION ( 'NONE',  ( 1.000000000000000000, -4.322377234736332950E-16, -0.000000000000000000 ) ) ;
#157 = APPROVAL ( #204, 'UNSPECIFIED' ) ;
#158 = CARTESIAN_POINT ( 'NONE',  ( -1.000000000000000000, 4.336808689942017736E-16, 0.000000000000000000 ) ) ;
#159 = ORIENTED_EDGE ( 'NONE', *, *, #51, .F. ) ;
#160 = AXIS2_PLACEMENT_3D ( 'NONE', #228, #275, #16 ) ;
#161 = AXIS2_PLACEMENT_3D ( 'NONE', #181, #220, #149 ) ;
#162 = ORIENTED_EDGE ( 'NONE', *, *, #361, .T. ) ;
#163 = APPLICATION_CONTEXT ( 'configuration controlled 3d designs of mechanical parts and assemblies' ) ;
#164 = CC_DESIGN_PERSON_AND_ORGANIZATION_ASSIGNMENT ( #295, #66, ( #282 ) ) ;
#165 = ORIENTED_EDGE ( 'NONE', *, *, #335, .F. ) ;
#166 = CC_DESIGN_APPROVAL ( #147, ( #336 ) ) ;
#167 = EDGE_LOOP ( 'NONE', ( #258, #357, #78, #165 ) ) ;
#168 = AXIS2_PLACEMENT_3D ( 'NONE', #68, #35, #6 ) ;
#169 = EDGE_LOOP ( 'NONE', ( #227, #310, #129, #354 ) ) ;
#170 = DATE_AND_TIME ( #139, #272 ) ;
#171 = PLANE ( 'NONE',  #168 ) ;
#172 = LOCAL_TIME ( 16, 9, 0.000000000000000000, #296 ) ;
#173 = DIRECTION ( 'NONE',  ( 4.322377234736332950E-16, 1.000000000000000000, 0.000000000000000000 ) ) ;
#174 = SECURITY_CLASSIFICATION_LEVEL ( 'unclassified' ) ;
#175 = PERSON_AND_ORGANIZATION ( #304, #203 ) ;
#176 = DIRECTION ( 'NONE',  ( 0.000000000000000000, 0.000000000000000000, 1.000000000000000000 ) ) ;
#177 = PERSON_AND_ORGANIZATION_ROLE ( 'design_owner' ) ;
#178 = EDGE_LOOP ( 'NONE', ( #341, #242, #31, #116 ) ) ;
#179 = DIRECTION ( 'NONE',  ( 4.336808689942028090E-16, 1.000000000000000000, 0.000000000000000000 ) ) ;
#180 = ORIENTED_EDGE ( 'NONE', *, *, #226, .F. ) ;
#181 = CARTESIAN_POINT ( 'NONE',  ( -10.00000000000000178, 4.322377234736333837E-15, 0.000000000000000000 ) ) ;
#182 = ORIENTED_EDGE ( 'NONE', *, *, #30, .F. ) ;
#183 = CARTESIAN_POINT ( 'NONE',  ( 0.000000000000000000, 0.000000000000000000, 0.000000000000000000 ) ) ;
#184 = LINE ( 'NONE', #144, #339 ) ;
#185 = CARTESIAN_POINT ( 'NONE',  ( -54.00000000000000000, -2.399999999999993250, 3.306546357697845352E-16 ) ) ;
#186 = ORIENTED_EDGE ( 'NONE', *, *, #298, .T. ) ;
#187 = ADVANCED_FACE ( 'NONE', ( #261 ), #124, .T. ) ;
#188 = LINE ( 'NONE', #249, #288 ) ;
#189 = VERTEX_POINT ( 'NONE', #95 ) ;
#190 = AXIS2_PLACEMENT_3D ( 'NONE', #252, #306, #179 ) ;
#191 = EDGE_CURVE ( 'NONE', #200, #88, #215, .T. ) ;
#192 = ORIENTED_EDGE ( 'NONE', *, *, #30, .T. ) ;
#193 = VERTEX_POINT ( 'NONE', #358 ) ;
#194 = APPROVAL ( #65, 'UNSPECIFIED' ) ;
#195 = DIRECTION ( 'NONE',  ( 1.000000000000000000, 9.823584624400759393E-17, -0.000000000000000000 ) ) ;
#196 = VERTEX_POINT ( 'NONE', #44 ) ;
#197 = CARTESIAN_POINT ( 'NONE',  ( -54.00000000000000000, 2.399999999999993250, 0.000000000000000000 ) ) ;
#198 = CARTESIAN_POINT ( 'NONE',  ( -10.00000000000000178, 4.322377234736333837E-15, 0.000000000000000000 ) ) ;
#199 = APPROVAL_PERSON_ORGANIZATION ( #175, #147, #63 ) ;
#200 = VERTEX_POINT ( 'NONE', #185 ) ;
#201 = COORDINATED_UNIVERSAL_TIME_OFFSET ( 1, 0, .AHEAD. ) ;
#202 = DATE_AND_TIME ( #142, #172 ) ;
#203 = ORGANIZATION ( 'UNSPECIFIED', 'UNSPECIFIED', '' ) ;
#204 = APPROVAL_STATUS ( 'not_yet_approved' ) ;
#205 = EDGE_CURVE ( 'NONE', #88, #86, #23, .T. ) ;
#206 = ORIENTED_EDGE ( 'NONE', *, *, #226, .T. ) ;
#207 = PERSON_AND_ORGANIZATION_ROLE ( 'creator' ) ;
#208 = LOCAL_TIME ( 16, 9, 0.000000000000000000, #235 ) ;
#209 = DIRECTION ( 'NONE',  ( 1.000000000000000000, -4.322377234736332950E-16, -0.000000000000000000 ) ) ;
#210 = PRODUCT ( '387472387474', '387472387474', '', ( #300 ) ) ;
#211 = CC_DESIGN_PERSON_AND_ORGANIZATION_ASSIGNMENT ( #141, #12, ( #336 ) ) ;
#212 = CLOSED_SHELL ( 'NONE', ( #319, #2, #120, #223, #64, #344 ) ) ;
#213 = APPLICATION_PROTOCOL_DEFINITION ( 'international standard', 'config_control_design', 1994, #269 ) ;
#214 = DIRECTION ( 'NONE',  ( 4.322377234736332950E-16, 1.000000000000000000, 0.000000000000000000 ) ) ;
#215 = LINE ( 'NONE', #72, #287 ) ;
#216 = CARTESIAN_POINT ( 'NONE',  ( -1.000000000000000888, -1.999999999999992673, 2.449293598294698033E-16 ) ) ;
#217 = AXIS2_PLACEMENT_3D ( 'NONE', #256, #3, #58 ) ;
#218 = DIRECTION ( 'NONE',  ( 1.000000000000000000, 9.823584624400759393E-17, -0.000000000000000000 ) ) ;
#219 = AXIS2_PLACEMENT_3D ( 'NONE', #244, #311, #115 ) ;
#220 = DIRECTION ( 'NONE',  ( 1.000000000000000000, -4.322377234736332950E-16, -0.000000000000000000 ) ) ;
#221 = EDGE_LOOP ( 'NONE', ( #206, #42, #32, #20 ) ) ;
#222 = CARTESIAN_POINT ( 'NONE',  ( -53.39999999999999858, -2.999999999999993339, 3.673940397442051486E-16 ) ) ;
#223 = ADVANCED_FACE ( 'NONE', ( #48 ), #33, .T. ) ;
#224 = CONICAL_SURFACE ( 'NONE', #259, 2.999999999999993339, 0.7853981633974453924 ) ;
#225 = AXIS2_PLACEMENT_3D ( 'NONE', #328, #209, #320 ) ;
#226 = EDGE_CURVE ( 'NONE', #84, #88, #243, .T. ) ;
#227 = ORIENTED_EDGE ( 'NONE', *, *, #191, .F. ) ;
#228 = CARTESIAN_POINT ( 'NONE',  ( 0.000000000000000000, 0.000000000000000000, 0.000000000000000000 ) ) ;
#229 = DIRECTION ( 'NONE',  ( 1.000000000000000000, -4.322377234736332950E-16, -0.000000000000000000 ) ) ;
#230 = ORIENTED_EDGE ( 'NONE', *, *, #268, .F. ) ;
#231 = APPROVAL_DATE_TIME ( #327, #157 ) ;
#232 = EDGE_CURVE ( 'NONE', #189, #196, #283, .T. ) ;
#233 = AXIS2_PLACEMENT_3D ( 'NONE', #28, #290, #343 ) ;
#234 = AXIS2_PLACEMENT_3D ( 'NONE', #250, #302, #214 ) ;
#235 = COORDINATED_UNIVERSAL_TIME_OFFSET ( 1, 0, .AHEAD. ) ;
#236 =( LENGTH_UNIT ( ) NAMED_UNIT ( * ) SI_UNIT ( .MILLI., .METRE. ) );
#237 = APPROVAL_DATE_TIME ( #202, #147 ) ;
#238 = CC_DESIGN_APPROVAL ( #194, ( #282 ) ) ;
#239 = EDGE_CURVE ( 'NONE', #84, #49, #188, .T. ) ;
#240 = CARTESIAN_POINT ( 'NONE',  ( -10.00000000000000178, 4.322377234736333837E-15, 0.000000000000000000 ) ) ;
#241 = ORIENTED_EDGE ( 'NONE', *, *, #191, .T. ) ;
#242 = ORIENTED_EDGE ( 'NONE', *, *, #263, .T. ) ;
#243 = CIRCLE ( 'NONE', #18, 2.999999999999993339 ) ;
#244 = CARTESIAN_POINT ( 'NONE',  ( -10.00000000000000178, 4.322377234736333837E-15, 0.000000000000000000 ) ) ;
#245 = ORIENTED_EDGE ( 'NONE', *, *, #322, .F. ) ;
#246 = DIRECTION ( 'NONE',  ( 1.000000000000000000, 9.823584624400759393E-17, -0.000000000000000000 ) ) ;
#247 = EDGE_LOOP ( 'NONE', ( #342, #14 ) ) ;
#248 = DIRECTION ( 'NONE',  ( 0.7071067811865496822, -0.7071067811865453523, 8.659560562354908206E-17 ) ) ;
#249 = CARTESIAN_POINT ( 'NONE',  ( -10.00000000000000178, 2.999999999999995115, 0.000000000000000000 ) ) ;
#250 = CARTESIAN_POINT ( 'NONE',  ( -4.307945779530620554E-16, 1.862056676592161991E-31, 0.000000000000000000 ) ) ;
#251 = EDGE_CURVE ( 'NONE', #49, #86, #347, .T. ) ;
#252 = CARTESIAN_POINT ( 'NONE',  ( -1.000000000000000444, 4.322377234736334922E-16, 0.000000000000000000 ) ) ;
#253 = PLANE ( 'NONE',  #233 ) ;
#254 = AXIS2_PLACEMENT_3D ( 'NONE', #183, #151, #359 ) ;
#255 = AXIS2_PLACEMENT_3D ( 'NONE', #94, #218, #99 ) ;
#256 = CARTESIAN_POINT ( 'NONE',  ( -54.00000000000000000, 0.000000000000000000, 0.000000000000000000 ) ) ;
#257 = CARTESIAN_POINT ( 'NONE',  ( -1.000000000000000000, 4.336808689942017736E-16, 0.000000000000000000 ) ) ;
#258 = ORIENTED_EDGE ( 'NONE', *, *, #268, .T. ) ;
#259 = AXIS2_PLACEMENT_3D ( 'NONE', #299, #333, #355 ) ;
#260 = CIRCLE ( 'NONE', #307, 2.399999999999993250 ) ;
#261 = FACE_OUTER_BOUND ( 'NONE', #167, .T. ) ;
#262 =( NAMED_UNIT ( * ) PLANE_ANGLE_UNIT ( ) SI_UNIT ( $, .RADIAN. ) );
#263 = EDGE_CURVE ( 'NONE', #88, #84, #332, .T. ) ;
#264 = EDGE_LOOP ( 'NONE', ( #245, #329, #4, #182 ) ) ;
#265 = APPLICATION_PROTOCOL_DEFINITION ( 'international standard', 'config_control_design', 1994, #163 ) ;
#266 = CALENDAR_DATE ( 2022, 31, 5 ) ;
#267 = PERSON_AND_ORGANIZATION ( #304, #203 ) ;
#268 = EDGE_CURVE ( 'NONE', #136, #189, #313, .T. ) ;
#269 = APPLICATION_CONTEXT ( 'configuration controlled 3d designs of mechanical parts and assemblies' ) ;
#270 = FACE_OUTER_BOUND ( 'NONE', #247, .T. ) ;
#271 = EDGE_LOOP ( 'NONE', ( #317, #241, #180, #155 ) ) ;
#272 = LOCAL_TIME ( 16, 9, 0.000000000000000000, #201 ) ;
#273 = CYLINDRICAL_SURFACE ( 'NONE', #29, 2.999999999999991118 ) ;
#274 = ORIENTED_EDGE ( 'NONE', *, *, #298, .F. ) ;
#275 = DIRECTION ( 'NONE',  ( 1.000000000000000000, -4.322377234736332950E-16, -0.000000000000000000 ) ) ;
#276 = CYLINDRICAL_SURFACE ( 'NONE', #254, 2.999999999999990674 ) ;
#277 =( GEOMETRIC_REPRESENTATION_CONTEXT ( 3 ) GLOBAL_UNCERTAINTY_ASSIGNED_CONTEXT ( ( #108 ) ) GLOBAL_UNIT_ASSIGNED_CONTEXT ( ( #236, #262, #5 ) ) REPRESENTATION_CONTEXT ( 'NONE', 'WORKASPACE' ) );
#278 = DIRECTION ( 'NONE',  ( 1.000000000000000000, 9.823584624400759393E-17, -0.000000000000000000 ) ) ;
#279 = ORIENTED_EDGE ( 'NONE', *, *, #96, .F. ) ;
#280 = PRODUCT_DEFINITION_SHAPE ( 'NONE', 'NONE',  #153 ) ;
#281 = DIRECTION ( 'NONE',  ( 1.000000000000000000, 9.823584624400759393E-17, -0.000000000000000000 ) ) ;
#282 = PRODUCT_DEFINITION_FORMATION_WITH_SPECIFIED_SOURCE ( 'ANY', '', #210, .NOT_KNOWN. ) ;
#283 = LINE ( 'NONE', #22, #82 ) ;
#284 = EDGE_CURVE ( 'NONE', #86, #49, #293, .T. ) ;
#285 = EDGE_CURVE ( 'NONE', #286, #70, #61, .T. ) ;
#286 = VERTEX_POINT ( 'NONE', #77 ) ;
#287 = VECTOR ( 'NONE', #248, 1000.000000000000000 ) ;
#288 = VECTOR ( 'NONE', #152, 1000.000000000000000 ) ;
#289 = CARTESIAN_POINT ( 'NONE',  ( -4.307945779530620554E-16, 1.862056676592161991E-31, 0.000000000000000000 ) ) ;
#290 = DIRECTION ( 'NONE',  ( -1.000000000000000000, -9.823584624400759393E-17, 0.000000000000000000 ) ) ;
#291 = ORIENTED_EDGE ( 'NONE', *, *, #335, .T. ) ;
#292 = EDGE_CURVE ( 'NONE', #189, #136, #150, .T. ) ;
#293 = CIRCLE ( 'NONE', #109, 2.999999999999988898 ) ;
#294 = PERSON_AND_ORGANIZATION ( #304, #203 ) ;
#295 = PERSON_AND_ORGANIZATION ( #304, #203 ) ;
#296 = COORDINATED_UNIVERSAL_TIME_OFFSET ( 1, 0, .AHEAD. ) ;
#297 = DIRECTION ( 'NONE',  ( 1.000000000000000000, 9.823584624400759393E-17, -0.000000000000000000 ) ) ;
#298 = EDGE_CURVE ( 'NONE', #70, #193, #56, .T. ) ;
#299 = CARTESIAN_POINT ( 'NONE',  ( -53.39999999999999858, 5.894150774640482260E-17, 0.000000000000000000 ) ) ;
#300 = MECHANICAL_CONTEXT ( 'NONE', #269, 'mechanical' ) ;
#301 = EDGE_LOOP ( 'NONE', ( #59, #303, #291, #279 ) ) ;
#302 = DIRECTION ( 'NONE',  ( 1.000000000000000000, -4.322377234736332950E-16, -0.000000000000000000 ) ) ;
#303 = ORIENTED_EDGE ( 'NONE', *, *, #292, .T. ) ;
#304 = PERSON ( 'UNSPECIFIED', 'UNSPECIFIED', 'UNSPECIFIED', ('UNSPECIFIED'), ('UNSPECIFIED'), ('UNSPECIFIED') ) ;
#305 = DIRECTION ( 'NONE',  ( 0.7071067811865493491, 0.7071067811865455743, 0.000000000000000000 ) ) ;
#306 = DIRECTION ( 'NONE',  ( 1.000000000000000000, -4.322377234736332950E-16, -0.000000000000000000 ) ) ;
#307 = AXIS2_PLACEMENT_3D ( 'NONE', #87, #195, #52 ) ;
#308 = AXIS2_PLACEMENT_3D ( 'NONE', #330, #113, #353 ) ;
#309 = DIRECTION ( 'NONE',  ( 1.000000000000000000, 9.823584624400759393E-17, -0.000000000000000000 ) ) ;
#310 = ORIENTED_EDGE ( 'NONE', *, *, #51, .T. ) ;
#311 = DIRECTION ( 'NONE',  ( 1.000000000000000000, -4.322377234736332950E-16, -0.000000000000000000 ) ) ;
#312 = EDGE_CURVE ( 'NONE', #130, #84, #362, .T. ) ;
#313 = CIRCLE ( 'NONE', #161, 2.999999999999988898 ) ;
#314 = FACE_OUTER_BOUND ( 'NONE', #74, .T. ) ;
#315 = EDGE_LOOP ( 'NONE', ( #162, #100, #274, #145 ) ) ;
#316 = DIRECTION ( 'NONE',  ( 1.000000000000000000, -4.322377234736332950E-16, -0.000000000000000000 ) ) ;
#317 = ORIENTED_EDGE ( 'NONE', *, *, #110, .T. ) ;
#318 = LOCAL_TIME ( 16, 9, 0.000000000000000000, #348 ) ;
#319 = ADVANCED_FACE ( 'NONE', ( #146 ), #273, .T. ) ;
#320 = DIRECTION ( 'NONE',  ( 4.336808689942028090E-16, 1.000000000000000000, 0.000000000000000000 ) ) ;
#321 = DATE_TIME_ROLE ( 'creation_date' ) ;
#322 = EDGE_CURVE ( 'NONE', #196, #193, #90, .T. ) ;
#323 = FACE_OUTER_BOUND ( 'NONE', #271, .T. ) ;
#324 = CC_DESIGN_APPROVAL ( #157, ( #153 ) ) ;
#325 = CALENDAR_DATE ( 2022, 31, 5 ) ;
#326 = APPROVAL_STATUS ( 'not_yet_approved' ) ;
#327 = DATE_AND_TIME ( #107, #208 ) ;
#328 = CARTESIAN_POINT ( 'NONE',  ( -1.000000000000000444, 4.322377234736334922E-16, 0.000000000000000000 ) ) ;
#329 = ORIENTED_EDGE ( 'NONE', *, *, #96, .T. ) ;
#330 = CARTESIAN_POINT ( 'NONE',  ( -10.00000000000000000, 4.322377234736333837E-15, 0.000000000000000000 ) ) ;
#331 = DIRECTION ( 'NONE',  ( 5.293385445227238229E-32, 1.224646799147353207E-16, 1.000000000000000000 ) ) ;
#332 = CIRCLE ( 'NONE', #255, 2.999999999999993339 ) ;
#333 = DIRECTION ( 'NONE',  ( 1.000000000000000000, 9.823584624400759393E-17, -0.000000000000000000 ) ) ;
#334 = DIRECTION ( 'NONE',  ( -1.000000000000000000, 0.000000000000000000, 0.000000000000000000 ) ) ;
#335 = EDGE_CURVE ( 'NONE', #136, #286, #184, .T. ) ;
#336 = SECURITY_CLASSIFICATION ( '', '', #174 ) ;
#337 = FACE_OUTER_BOUND ( 'NONE', #57, .T. ) ;
#338 = AXIS2_PLACEMENT_3D ( 'NONE', #198, #135, #128 ) ;
#339 = VECTOR ( 'NONE', #111, 1000.000000000000000 ) ;
#340 = FACE_OUTER_BOUND ( 'NONE', #315, .T. ) ;
#341 = ORIENTED_EDGE ( 'NONE', *, *, #205, .F. ) ;
#342 = ORIENTED_EDGE ( 'NONE', *, *, #251, .T. ) ;
#343 = DIRECTION ( 'NONE',  ( 9.823584624400759393E-17, -1.000000000000000000, 0.000000000000000000 ) ) ;
#344 = ADVANCED_FACE ( 'NONE', ( #270 ), #171, .T. ) ;
#345 = PERSON_AND_ORGANIZATION ( #304, #203 ) ;
#346 = PERSON_AND_ORGANIZATION ( #304, #203 ) ;
#347 = CIRCLE ( 'NONE', #308, 2.999999999999988898 ) ;
#348 = COORDINATED_UNIVERSAL_TIME_OFFSET ( 1, 0, .AHEAD. ) ;
#349 = APPROVAL_PERSON_ORGANIZATION ( #294, #194, #34 ) ;
#350 = CARTESIAN_POINT ( 'NONE',  ( 4.336808689942017736E-16, 1.999999999999993561, 0.000000000000000000 ) ) ;
#351 = CIRCLE ( 'NONE', #225, 2.999999999999992895 ) ;
#352 = CC_DESIGN_DATE_AND_TIME_ASSIGNMENT ( #170, #321, ( #153 ) ) ;
#353 = DIRECTION ( 'NONE',  ( 0.000000000000000000, 1.000000000000000000, 0.000000000000000000 ) ) ;
#354 = ORIENTED_EDGE ( 'NONE', *, *, #263, .F. ) ;
#355 = DIRECTION ( 'NONE',  ( 0.000000000000000000, 1.000000000000000000, 0.000000000000000000 ) ) ;
#356 = DIRECTION ( 'NONE',  ( 0.000000000000000000, 1.000000000000000000, 0.000000000000000000 ) ) ;
#357 = ORIENTED_EDGE ( 'NONE', *, *, #232, .T. ) ;
#358 = CARTESIAN_POINT ( 'NONE',  ( -1.295270024900325884E-15, -1.999999999999993561, 3.061616997868374267E-16 ) ) ;
#359 = DIRECTION ( 'NONE',  ( 4.322377234736332950E-16, 1.000000000000000000, 0.000000000000000000 ) ) ;
#360 = DIRECTION ( 'NONE',  ( 1.000000000000000000, -4.322377234736332950E-16, -0.000000000000000000 ) ) ;
#361 = EDGE_CURVE ( 'NONE', #286, #196, #351, .T. ) ;
#362 = LINE ( 'NONE', #41, #114 ) ;
#363 = CARTESIAN_POINT ( 'NONE',  ( -10.00000000000000000, -2.999999999999984457, 3.673940397442047049E-16 ) ) ;
#364 = CIRCLE ( 'NONE', #190, 2.999999999999992895 ) ;
#365 = CARTESIAN_POINT ( 'NONE',  ( -10.00000000000000000, 2.999999999999993339, 0.000000000000000000 ) ) ;
ENDSEC;
END-ISO-10303-21;
