ISO-10303-21;
HEADER;
FILE_DESCRIPTION (( 'STEP AP203' ),
    '1' );
FILE_NAME ('387472387473.step',
    '2022-05-31T14:08:59',
    ( '' ),
    ( '' ),
    'SwSTEP 2.0',
    'SolidWorks 2019',
    '' );
FILE_SCHEMA (( 'CONFIG_CONTROL_DESIGN' ));
ENDSEC;

DATA;
#1 = APPROVAL_PERSON_ORGANIZATION ( #355, #16, #105 ) ;
#2 = DIRECTION ( 'NONE',  ( 1.000000000000000000, -4.322377234736332950E-16, -0.000000000000000000 ) ) ;
#3 = CARTESIAN_POINT ( 'NONE',  ( -10.00000000000000355, -2.999999999999984457, 3.673940397442047542E-16 ) ) ;
#4 = CALENDAR_DATE ( 2022, 31, 5 ) ;
#5 = CC_DESIGN_PERSON_AND_ORGANIZATION_ASSIGNMENT ( #199, #141, ( #113 ) ) ;
#6 = DIRECTION ( 'NONE',  ( 4.322377234736332950E-16, 1.000000000000000000, 0.000000000000000000 ) ) ;
#7 = EDGE_CURVE ( 'NONE', #349, #164, #150, .T. ) ;
#8 = AXIS2_PLACEMENT_3D ( 'NONE', #255, #307, #163 ) ;
#9 = CARTESIAN_POINT ( 'NONE',  ( -54.00000000000000000, 2.399999999999993250, 0.000000000000000000 ) ) ;
#10 = CC_DESIGN_PERSON_AND_ORGANIZATION_ASSIGNMENT ( #330, #251, ( #306 ) ) ;
#11 = EDGE_CURVE ( 'NONE', #351, #300, #193, .T. ) ;
#12 = ORIENTED_EDGE ( 'NONE', *, *, #317, .F. ) ;
#13 = ORIENTED_EDGE ( 'NONE', *, *, #190, .F. ) ;
#14 = TOROIDAL_SURFACE ( 'NONE', #81, 2.499999999999993339, 0.5000000000000004441 ) ;
#15 = ORIENTED_EDGE ( 'NONE', *, *, #7, .T. ) ;
#16 = APPROVAL ( #106, 'UNSPECIFIED' ) ;
#17 = ORIENTED_EDGE ( 'NONE', *, *, #7, .F. ) ;
#18 = ADVANCED_FACE ( 'NONE', ( #109 ), #104, .T. ) ;
#19 = DIRECTION ( 'NONE',  ( 4.336808689942026611E-16, 1.000000000000000000, 0.000000000000000000 ) ) ;
#20 = APPROVAL_STATUS ( 'not_yet_approved' ) ;
#21 = AXIS2_PLACEMENT_3D ( 'NONE', #293, #54, #258 ) ;
#22 = CARTESIAN_POINT ( 'NONE',  ( -10.00000000000000000, 2.999999999999993339, 0.000000000000000000 ) ) ;
#23 = EDGE_CURVE ( 'NONE', #322, #241, #225, .T. ) ;
#24 = DIRECTION ( 'NONE',  ( -9.823584624400759393E-17, 1.000000000000000000, 0.000000000000000000 ) ) ;
#25 =( LENGTH_UNIT ( ) NAMED_UNIT ( * ) SI_UNIT ( .MILLI., .METRE. ) );
#26 = DIRECTION ( 'NONE',  ( 5.782411586589378346E-16, 1.000000000000000000, 0.000000000000000000 ) ) ;
#27 = PERSON_AND_ORGANIZATION ( #124, #281 ) ;
#28 = CYLINDRICAL_SURFACE ( 'NONE', #97, 2.999999999999991562 ) ;
#29 = DIRECTION ( 'NONE',  ( 4.322377234736332950E-16, 1.000000000000000000, 0.000000000000000000 ) ) ;
#30 = MANIFOLD_SOLID_BREP ( 'Révolution1', #302 ) ;
#31 = FACE_OUTER_BOUND ( 'NONE', #207, .T. ) ;
#32 = CIRCLE ( 'NONE', #270, 0.5000000000000004441 ) ;
#33 = CARTESIAN_POINT ( 'NONE',  ( -0.5000000000000015543, 0.000000000000000000, 0.000000000000000000 ) ) ;
#34 = CARTESIAN_POINT ( 'NONE',  ( -53.39999999999999858, 5.894150774640482260E-17, 0.000000000000000000 ) ) ;
#35 = EDGE_CURVE ( 'NONE', #300, #243, #250, .T. ) ;
#36 = CIRCLE ( 'NONE', #107, 2.499999999999993339 ) ;
#37 = ORIENTED_EDGE ( 'NONE', *, *, #188, .F. ) ;
#38 = EDGE_LOOP ( 'NONE', ( #15, #155, #214, #304 ) ) ;
#39 = DESIGN_CONTEXT ( 'detailed design', #80, 'design' ) ;
#40 = VERTEX_POINT ( 'NONE', #22 ) ;
#41 = DIRECTION ( 'NONE',  ( 1.000000000000000000, -4.322377234736332950E-16, -0.000000000000000000 ) ) ;
#42 = PERSON_AND_ORGANIZATION ( #124, #281 ) ;
#43 = EDGE_LOOP ( 'NONE', ( #159, #98, #361, #267 ) ) ;
#44 = MECHANICAL_CONTEXT ( 'NONE', #238, 'mechanical' ) ;
#45 = CIRCLE ( 'NONE', #328, 0.5000000000000004441 ) ;
#46 = ADVANCED_FACE ( 'NONE', ( #331 ), #195, .T. ) ;
#47 = FACE_OUTER_BOUND ( 'NONE', #237, .T. ) ;
#48 = PERSON_AND_ORGANIZATION ( #124, #281 ) ;
#49 = DIRECTION ( 'NONE',  ( 0.000000000000000000, 1.000000000000000000, 0.000000000000000000 ) ) ;
#50 = DIRECTION ( 'NONE',  ( 1.000000000000000000, 0.000000000000000000, 0.000000000000000000 ) ) ;
#51 = DIRECTION ( 'NONE',  ( -1.000000000000000000, -9.823584624400759393E-17, 0.000000000000000000 ) ) ;
#52 = PERSON_AND_ORGANIZATION_ROLE ( 'classification_officer' ) ;
#53 = VECTOR ( 'NONE', #204, 1000.000000000000000 ) ;
#54 = DIRECTION ( 'NONE',  ( 1.000000000000000000, 9.823584624400759393E-17, -0.000000000000000000 ) ) ;
#55 = LINE ( 'NONE', #319, #345 ) ;
#56 = CYLINDRICAL_SURFACE ( 'NONE', #303, 2.999999999999991562 ) ;
#57 = AXIS2_PLACEMENT_3D ( 'NONE', #341, #178, #173 ) ;
#58 = LINE ( 'NONE', #119, #334 ) ;
#59 = DIRECTION ( 'NONE',  ( 4.336808689942026611E-16, 1.000000000000000000, 0.000000000000000000 ) ) ;
#60 = CARTESIAN_POINT ( 'NONE',  ( -0.5000000000000026645, -2.499999999999993339, 3.061616997868375253E-16 ) ) ;
#61 = VERTEX_POINT ( 'NONE', #191 ) ;
#62 = EDGE_CURVE ( 'NONE', #327, #301, #265, .T. ) ;
#63 = ORIENTED_EDGE ( 'NONE', *, *, #215, .T. ) ;
#64 = ORIENTED_EDGE ( 'NONE', *, *, #23, .F. ) ;
#65 = CC_DESIGN_PERSON_AND_ORGANIZATION_ASSIGNMENT ( #70, #192, ( #113 ) ) ;
#66 = AXIS2_PLACEMENT_3D ( 'NONE', #136, #224, #49 ) ;
#67 = ORIENTED_EDGE ( 'NONE', *, *, #11, .T. ) ;
#68 = UNCERTAINTY_MEASURE_WITH_UNIT (LENGTH_MEASURE( 1.000000000000000082E-05 ), #25, 'distance_accuracy_value', 'NONE');
#69 = CARTESIAN_POINT ( 'NONE',  ( -53.39999999999999858, 2.999999999999993339, 0.000000000000000000 ) ) ;
#70 = PERSON_AND_ORGANIZATION ( #124, #281 ) ;
#71 = DIRECTION ( 'NONE',  ( 1.000000000000000000, -4.322377234736332950E-16, -0.000000000000000000 ) ) ;
#72 = CARTESIAN_POINT ( 'NONE',  ( 0.000000000000000000, 0.000000000000000000, 0.000000000000000000 ) ) ;
#73 = FACE_OUTER_BOUND ( 'NONE', #273, .T. ) ;
#74 = APPROVAL_DATE_TIME ( #333, #16 ) ;
#75 = VECTOR ( 'NONE', #77, 1000.000000000000000 ) ;
#76 = CARTESIAN_POINT ( 'NONE',  ( -0.5000000000000004441, 2.499999999999993339, 0.000000000000000000 ) ) ;
#77 = DIRECTION ( 'NONE',  ( 1.000000000000000000, 9.823584624400759393E-17, -0.000000000000000000 ) ) ;
#78 = DATE_AND_TIME ( #312, #275 ) ;
#79 = DIRECTION ( 'NONE',  ( 1.000000000000000000, -4.322377234736332950E-16, -0.000000000000000000 ) ) ;
#80 = APPLICATION_CONTEXT ( 'configuration controlled 3d designs of mechanical parts and assemblies' ) ;
#81 = AXIS2_PLACEMENT_3D ( 'NONE', #277, #252, #353 ) ;
#82 = CARTESIAN_POINT ( 'NONE',  ( -0.5000000000000017764, 2.161188617368174117E-16, 0.000000000000000000 ) ) ;
#83 = ADVANCED_FACE ( 'NONE', ( #132 ), #28, .T. ) ;
#84 = CARTESIAN_POINT ( 'NONE',  ( -53.39999999999999858, 5.894150774640482260E-17, 0.000000000000000000 ) ) ;
#85 = ORIENTED_EDGE ( 'NONE', *, *, #356, .F. ) ;
#86 = ADVANCED_FACE ( 'NONE', ( #73 ), #283, .T. ) ;
#87 = CARTESIAN_POINT ( 'NONE',  ( -10.00000000000000178, 2.999999999999995115, 0.000000000000000000 ) ) ;
#88 = CIRCLE ( 'NONE', #315, 2.999999999999993339 ) ;
#89 = DIRECTION ( 'NONE',  ( 0.000000000000000000, 1.000000000000000000, 0.000000000000000000 ) ) ;
#90 = DIRECTION ( 'NONE',  ( 0.000000000000000000, -1.000000000000000000, 1.224646799147353454E-16 ) ) ;
#91 = ORIENTED_EDGE ( 'NONE', *, *, #118, .T. ) ;
#92 = ORIENTED_EDGE ( 'NONE', *, *, #23, .T. ) ;
#93 = PRODUCT ( '387472387473', '387472387473', '', ( #44 ) ) ;
#94 = ADVANCED_FACE ( 'NONE', ( #47 ), #14, .T. ) ;
#95 = ORIENTED_EDGE ( 'NONE', *, *, #115, .F. ) ;
#96 = ORIENTED_EDGE ( 'NONE', *, *, #242, .F. ) ;
#97 = AXIS2_PLACEMENT_3D ( 'NONE', #305, #41, #332 ) ;
#98 = ORIENTED_EDGE ( 'NONE', *, *, #284, .T. ) ;
#99 = CC_DESIGN_APPROVAL ( #16, ( #113 ) ) ;
#100 = ADVANCED_FACE ( 'NONE', ( #101 ), #143, .T. ) ;
#101 = FACE_OUTER_BOUND ( 'NONE', #158, .T. ) ;
#102 = DIRECTION ( 'NONE',  ( 0.000000000000000000, 1.000000000000000000, 0.000000000000000000 ) ) ;
#103 = APPROVAL ( #245, 'UNSPECIFIED' ) ;
#104 = CYLINDRICAL_SURFACE ( 'NONE', #8, 2.999999999999991118 ) ;
#105 = APPROVAL_ROLE ( '' ) ;
#106 = APPROVAL_STATUS ( 'not_yet_approved' ) ;
#107 = AXIS2_PLACEMENT_3D ( 'NONE', #316, #180, #324 ) ;
#108 = CC_DESIGN_DATE_AND_TIME_ASSIGNMENT ( #274, #314, ( #340 ) ) ;
#109 = FACE_OUTER_BOUND ( 'NONE', #247, .T. ) ;
#110 = CALENDAR_DATE ( 2022, 31, 5 ) ;
#111 = CARTESIAN_POINT ( 'NONE',  ( -10.00000000000000000, 4.322377234736333837E-15, 0.000000000000000000 ) ) ;
#112 = FACE_OUTER_BOUND ( 'NONE', #184, .T. ) ;
#113 = PRODUCT_DEFINITION_FORMATION_WITH_SPECIFIED_SOURCE ( 'ANY', '', #93, .NOT_KNOWN. ) ;
#114 = DIRECTION ( 'NONE',  ( 0.000000000000000000, 1.000000000000000000, 0.000000000000000000 ) ) ;
#115 = EDGE_CURVE ( 'NONE', #40, #243, #216, .T. ) ;
#116 = APPROVAL_DATE_TIME ( #120, #257 ) ;
#117 = LINE ( 'NONE', #87, #53 ) ;
#118 = EDGE_CURVE ( 'NONE', #327, #61, #45, .T. ) ;
#119 = CARTESIAN_POINT ( 'NONE',  ( -1.296713170420896286E-15, -2.999999999999991562, 3.673940397442049021E-16 ) ) ;
#120 = DATE_AND_TIME ( #4, #217 ) ;
#121 = VECTOR ( 'NONE', #139, 1000.000000000000000 ) ;
#122 = AXIS2_PLACEMENT_3D ( 'NONE', #309, #335, #160 ) ;
#123 = CARTESIAN_POINT ( 'NONE',  ( -54.00000000000000000, -2.399999999999993250, 3.306546357697845352E-16 ) ) ;
#124 = PERSON ( 'UNSPECIFIED', 'UNSPECIFIED', 'UNSPECIFIED', ('UNSPECIFIED'), ('UNSPECIFIED'), ('UNSPECIFIED') ) ;
#125 = ORIENTED_EDGE ( 'NONE', *, *, #365, .T. ) ;
#126 = ORIENTED_EDGE ( 'NONE', *, *, #236, .T. ) ;
#127 = ADVANCED_FACE ( 'NONE', ( #231 ), #262, .T. ) ;
#128 = AXIS2_PLACEMENT_3D ( 'NONE', #221, #169, #19 ) ;
#129 = ORIENTED_EDGE ( 'NONE', *, *, #118, .F. ) ;
#130 = EDGE_LOOP ( 'NONE', ( #279, #67, #37, #64 ) ) ;
#131 = ORIENTED_EDGE ( 'NONE', *, *, #365, .F. ) ;
#132 = FACE_OUTER_BOUND ( 'NONE', #43, .T. ) ;
#133 = APPROVAL_ROLE ( '' ) ;
#134 = CARTESIAN_POINT ( 'NONE',  ( -54.00000000000000000, 1.158033778473152845E-32, 0.000000000000000000 ) ) ;
#135 = DATE_AND_TIME ( #110, #350 ) ;
#136 = CARTESIAN_POINT ( 'NONE',  ( -10.00000000000000000, 4.322377234736333837E-15, 0.000000000000000000 ) ) ;
#137 = APPLICATION_PROTOCOL_DEFINITION ( 'international standard', 'config_control_design', 1994, #80 ) ;
#138 = EDGE_CURVE ( 'NONE', #164, #301, #58, .T. ) ;
#139 = DIRECTION ( 'NONE',  ( 0.7071067811865496822, -0.7071067811865453523, 8.659560562354908206E-17 ) ) ;
#140 = ADVANCED_FACE ( 'NONE', ( #31 ), #318, .T. ) ;
#141 = PERSON_AND_ORGANIZATION_ROLE ( 'design_supplier' ) ;
#142 = AXIS2_PLACEMENT_3D ( 'NONE', #34, #176, #338 ) ;
#143 = PLANE ( 'NONE',  #183 ) ;
#144 = CARTESIAN_POINT ( 'NONE',  ( -53.39999999999999858, 5.894150774640482260E-17, 0.000000000000000000 ) ) ;
#145 = DIRECTION ( 'NONE',  ( 1.000000000000000000, -4.322377234736332950E-16, -0.000000000000000000 ) ) ;
#146 = CIRCLE ( 'NONE', #321, 2.999999999999993783 ) ;
#147 = DIRECTION ( 'NONE',  ( 4.322377234736333443E-16, 1.000000000000000000, 0.000000000000000000 ) ) ;
#148 = DIRECTION ( 'NONE',  ( 4.322377234736333443E-16, 1.000000000000000000, 0.000000000000000000 ) ) ;
#149 = CARTESIAN_POINT ( 'NONE',  ( -0.5000000000000004441, 2.999999999999993783, 0.000000000000000000 ) ) ;
#150 = CIRCLE ( 'NONE', #233, 2.999999999999988898 ) ;
#151 = AXIS2_PLACEMENT_3D ( 'NONE', #111, #364, #89 ) ;
#152 = ORIENTED_EDGE ( 'NONE', *, *, #242, .T. ) ;
#153 = ORIENTED_EDGE ( 'NONE', *, *, #317, .T. ) ;
#154 = EDGE_CURVE ( 'NONE', #61, #189, #261, .T. ) ;
#155 = ORIENTED_EDGE ( 'NONE', *, *, #138, .T. ) ;
#156 = MANIFOLD_SOLID_BREP ( 'Révolution2', #161 ) ;
#157 = CIRCLE ( 'NONE', #151, 2.999999999999988898 ) ;
#158 = EDGE_LOOP ( 'NONE', ( #198, #152 ) ) ;
#159 = ORIENTED_EDGE ( 'NONE', *, *, #138, .F. ) ;
#160 = DIRECTION ( 'NONE',  ( -4.322377234736332950E-16, -1.000000000000000000, 0.000000000000000000 ) ) ;
#161 = CLOSED_SHELL ( 'NONE', ( #206, #294, #94, #83, #86, #127 ) ) ;
#162 = CONICAL_SURFACE ( 'NONE', #282, 2.999999999999993339, 0.7853981633974453924 ) ;
#163 = DIRECTION ( 'NONE',  ( 0.000000000000000000, 1.000000000000000000, 0.000000000000000000 ) ) ;
#164 = VERTEX_POINT ( 'NONE', #3 ) ;
#165 = COORDINATED_UNIVERSAL_TIME_OFFSET ( 1, 0, .AHEAD. ) ;
#166 = CC_DESIGN_PERSON_AND_ORGANIZATION_ASSIGNMENT ( #27, #362, ( #93 ) ) ;
#167 = ORIENTED_EDGE ( 'NONE', *, *, #190, .T. ) ;
#168 = PERSON_AND_ORGANIZATION ( #124, #281 ) ;
#169 = DIRECTION ( 'NONE',  ( 1.000000000000000000, -4.322377234736332950E-16, -0.000000000000000000 ) ) ;
#170 = VECTOR ( 'NONE', #276, 1000.000000000000114 ) ;
#171 = CIRCLE ( 'NONE', #57, 2.999999999999993339 ) ;
#172 = DIRECTION ( 'NONE',  ( 0.000000000000000000, 0.000000000000000000, 1.000000000000000000 ) ) ;
#173 = DIRECTION ( 'NONE',  ( 0.000000000000000000, 1.000000000000000000, 0.000000000000000000 ) ) ;
#174 = EDGE_CURVE ( 'NONE', #349, #327, #55, .T. ) ;
#175 = DIRECTION ( 'NONE',  ( 5.782411586589378346E-16, 1.000000000000000000, 0.000000000000000000 ) ) ;
#176 = DIRECTION ( 'NONE',  ( 1.000000000000000000, 9.823584624400759393E-17, -0.000000000000000000 ) ) ;
#177 = AXIS2_PLACEMENT_3D ( 'NONE', #134, #51, #354 ) ;
#178 = DIRECTION ( 'NONE',  ( 1.000000000000000000, 9.823584624400759393E-17, -0.000000000000000000 ) ) ;
#179 = CC_DESIGN_PERSON_AND_ORGANIZATION_ASSIGNMENT ( #48, #52, ( #340 ) ) ;
#180 = DIRECTION ( 'NONE',  ( 1.000000000000000000, -4.322377234736332950E-16, -0.000000000000000000 ) ) ;
#181 = CARTESIAN_POINT ( 'NONE',  ( -54.00000000000000000, 0.000000000000000000, 0.000000000000000000 ) ) ;
#182 = EDGE_LOOP ( 'NONE', ( #85, #131 ) ) ;
#183 = AXIS2_PLACEMENT_3D ( 'NONE', #357, #219, #24 ) ;
#184 = EDGE_LOOP ( 'NONE', ( #268, #125, #92, #13 ) ) ;
#185 = ORIENTED_EDGE ( 'NONE', *, *, #35, .T. ) ;
#186 = ORIENTED_EDGE ( 'NONE', *, *, #358, .T. ) ;
#187 = CIRCLE ( 'NONE', #246, 2.399999999999993250 ) ;
#188 = EDGE_CURVE ( 'NONE', #241, #300, #171, .T. ) ;
#189 = VERTEX_POINT ( 'NONE', #342 ) ;
#190 = EDGE_CURVE ( 'NONE', #300, #241, #88, .T. ) ;
#191 = CARTESIAN_POINT ( 'NONE',  ( 0.000000000000000000, 2.499999999999993339, 0.000000000000000000 ) ) ;
#192 = PERSON_AND_ORGANIZATION_ROLE ( 'creator' ) ;
#193 = LINE ( 'NONE', #329, #121 ) ;
#194 = CC_DESIGN_APPROVAL ( #103, ( #306 ) ) ;
#195 = PLANE ( 'NONE',  #177 ) ;
#196 = SECURITY_CLASSIFICATION_LEVEL ( 'unclassified' ) ;
#197 = DIRECTION ( 'NONE',  ( 0.000000000000000000, 0.000000000000000000, -1.000000000000000000 ) ) ;
#198 = ORIENTED_EDGE ( 'NONE', *, *, #115, .T. ) ;
#199 = PERSON_AND_ORGANIZATION ( #124, #281 ) ;
#200 = CARTESIAN_POINT ( 'NONE',  ( -53.39999999999999858, -2.999999999999993339, 3.673940397442051486E-16 ) ) ;
#201 = TOROIDAL_SURFACE ( 'NONE', #229, 2.499999999999993339, 0.5000000000000004441 ) ;
#202 = LOCAL_TIME ( 16, 8, 59.00000000000000000, #165 ) ;
#203 = DIRECTION ( 'NONE',  ( 1.000000000000000000, -4.322377234736332950E-16, -0.000000000000000000 ) ) ;
#204 = DIRECTION ( 'NONE',  ( 1.000000000000000000, 9.823584624400759393E-17, -0.000000000000000000 ) ) ;
#205 = CARTESIAN_POINT ( 'NONE',  ( 5.402971543420402506E-16, 2.499999999999993339, 0.000000000000000000 ) ) ;
#206 = ADVANCED_FACE ( 'NONE', ( #344 ), #56, .T. ) ;
#207 = EDGE_LOOP ( 'NONE', ( #313, #167, #126, #96 ) ) ;
#208 =( GEOMETRIC_REPRESENTATION_CONTEXT ( 3 ) GLOBAL_UNCERTAINTY_ASSIGNED_CONTEXT ( ( #68 ) ) GLOBAL_UNIT_ASSIGNED_CONTEXT ( ( #25, #352, #308 ) ) REPRESENTATION_CONTEXT ( 'NONE', 'WORKASPACE' ) );
#209 = CARTESIAN_POINT ( 'NONE',  ( -0.5000000000000029976, -2.999999999999993783, 3.673940397442051979E-16 ) ) ;
#210 = CARTESIAN_POINT ( 'NONE',  ( -54.00000000000000000, 0.000000000000000000, 0.000000000000000000 ) ) ;
#211 = ORIENTED_EDGE ( 'NONE', *, *, #62, .T. ) ;
#212 = LOCAL_TIME ( 16, 8, 59.00000000000000000, #285 ) ;
#213 = ORIENTED_EDGE ( 'NONE', *, *, #236, .F. ) ;
#214 = ORIENTED_EDGE ( 'NONE', *, *, #62, .F. ) ;
#215 = EDGE_CURVE ( 'NONE', #301, #327, #146, .T. ) ;
#216 = CIRCLE ( 'NONE', #66, 2.999999999999988898 ) ;
#217 = LOCAL_TIME ( 16, 8, 59.00000000000000000, #248 ) ;
#218 = CARTESIAN_POINT ( 'NONE',  ( -10.00000000000000178, 4.322377234736333837E-15, 0.000000000000000000 ) ) ;
#219 = DIRECTION ( 'NONE',  ( 1.000000000000000000, 9.823584624400759393E-17, -0.000000000000000000 ) ) ;
#220 = APPLICATION_PROTOCOL_DEFINITION ( 'international standard', 'config_control_design', 1994, #238 ) ;
#221 = CARTESIAN_POINT ( 'NONE',  ( -0.5000000000000017764, 2.161188617368174117E-16, 0.000000000000000000 ) ) ;
#222 = ADVANCED_FACE ( 'NONE', ( #290 ), #162, .T. ) ;
#223 = AXIS2_PLACEMENT_3D ( 'NONE', #343, #2, #147 ) ;
#224 = DIRECTION ( 'NONE',  ( 1.000000000000000000, 9.823584624400759393E-17, -0.000000000000000000 ) ) ;
#225 = LINE ( 'NONE', #69, #170 ) ;
#226 = CALENDAR_DATE ( 2022, 31, 5 ) ;
#227 = DIRECTION ( 'NONE',  ( 1.000000000000000000, -4.322377234736332950E-16, -0.000000000000000000 ) ) ;
#228 = CARTESIAN_POINT ( 'NONE',  ( -10.00000000000000000, -2.999999999999984457, 3.673940397442047049E-16 ) ) ;
#229 = AXIS2_PLACEMENT_3D ( 'NONE', #33, #323, #148 ) ;
#230 = CC_DESIGN_APPROVAL ( #257, ( #340 ) ) ;
#231 = FACE_OUTER_BOUND ( 'NONE', #271, .T. ) ;
#232 = DIRECTION ( 'NONE',  ( 1.000000000000000000, 9.823584624400759393E-17, -0.000000000000000000 ) ) ;
#233 = AXIS2_PLACEMENT_3D ( 'NONE', #218, #71, #26 ) ;
#234 = AXIS2_PLACEMENT_3D ( 'NONE', #205, #363, #6 ) ;
#235 = DIRECTION ( 'NONE',  ( 0.000000000000000000, 1.000000000000000000, 0.000000000000000000 ) ) ;
#236 = EDGE_CURVE ( 'NONE', #241, #40, #117, .T. ) ;
#237 = EDGE_LOOP ( 'NONE', ( #299, #63, #91, #12 ) ) ;
#238 = APPLICATION_CONTEXT ( 'configuration controlled 3d designs of mechanical parts and assemblies' ) ;
#239 = ORIENTED_EDGE ( 'NONE', *, *, #154, .F. ) ;
#240 = CONICAL_SURFACE ( 'NONE', #142, 2.999999999999993339, 0.7853981633974453924 ) ;
#241 = VERTEX_POINT ( 'NONE', #259 ) ;
#242 = EDGE_CURVE ( 'NONE', #243, #40, #157, .T. ) ;
#243 = VERTEX_POINT ( 'NONE', #228 ) ;
#244 = PRODUCT_DEFINITION_SHAPE ( 'NONE', 'NONE',  #306 ) ;
#245 = APPROVAL_STATUS ( 'not_yet_approved' ) ;
#246 = AXIS2_PLACEMENT_3D ( 'NONE', #181, #264, #235 ) ;
#247 = EDGE_LOOP ( 'NONE', ( #289, #185, #95, #213 ) ) ;
#248 = COORDINATED_UNIVERSAL_TIME_OFFSET ( 1, 0, .AHEAD. ) ;
#249 = CC_DESIGN_DATE_AND_TIME_ASSIGNMENT ( #78, #310, ( #306 ) ) ;
#250 = LINE ( 'NONE', #337, #75 ) ;
#251 = PERSON_AND_ORGANIZATION_ROLE ( 'creator' ) ;
#252 = DIRECTION ( 'NONE',  ( 1.000000000000000000, -4.322377234736332950E-16, -0.000000000000000000 ) ) ;
#253 = COORDINATED_UNIVERSAL_TIME_OFFSET ( 1, 0, .AHEAD. ) ;
#254 = AXIS2_PLACEMENT_3D ( 'NONE', #72, #172, #50 ) ;
#255 = CARTESIAN_POINT ( 'NONE',  ( -10.00000000000000178, 4.322377234736333837E-15, 0.000000000000000000 ) ) ;
#256 = APPROVAL_ROLE ( '' ) ;
#257 = APPROVAL ( #20, 'UNSPECIFIED' ) ;
#258 = DIRECTION ( 'NONE',  ( 0.000000000000000000, 1.000000000000000000, 0.000000000000000000 ) ) ;
#259 = CARTESIAN_POINT ( 'NONE',  ( -53.39999999999999858, 2.999999999999992895, 0.000000000000000000 ) ) ;
#260 = DIRECTION ( 'NONE',  ( 1.000000000000000000, 9.823584624400759393E-17, -0.000000000000000000 ) ) ;
#261 = CIRCLE ( 'NONE', #223, 2.499999999999993339 ) ;
#262 = PLANE ( 'NONE',  #234 ) ;
#263 = DIRECTION ( 'NONE',  ( 1.000000000000000000, -4.322377234736332950E-16, -0.000000000000000000 ) ) ;
#264 = DIRECTION ( 'NONE',  ( 1.000000000000000000, 9.823584624400759393E-17, -0.000000000000000000 ) ) ;
#265 = CIRCLE ( 'NONE', #128, 2.999999999999993783 ) ;
#266 = APPROVAL_PERSON_ORGANIZATION ( #42, #257, #133 ) ;
#267 = ORIENTED_EDGE ( 'NONE', *, *, #215, .F. ) ;
#268 = ORIENTED_EDGE ( 'NONE', *, *, #11, .F. ) ;
#269 = ADVANCED_FACE ( 'NONE', ( #112 ), #240, .T. ) ;
#270 = AXIS2_PLACEMENT_3D ( 'NONE', #60, #347, #90 ) ;
#271 = EDGE_LOOP ( 'NONE', ( #296, #153 ) ) ;
#272 = ADVANCED_BREP_SHAPE_REPRESENTATION ( '387472387473', ( #30, #156, #254 ), #208 ) ;
#273 = EDGE_LOOP ( 'NONE', ( #17, #326 ) ) ;
#274 = DATE_AND_TIME ( #226, #202 ) ;
#275 = LOCAL_TIME ( 16, 8, 59.00000000000000000, #359 ) ;
#276 = DIRECTION ( 'NONE',  ( 0.7071067811865493491, 0.7071067811865455743, 0.000000000000000000 ) ) ;
#277 = CARTESIAN_POINT ( 'NONE',  ( -0.5000000000000015543, 0.000000000000000000, 0.000000000000000000 ) ) ;
#278 = APPROVAL_DATE_TIME ( #135, #103 ) ;
#279 = ORIENTED_EDGE ( 'NONE', *, *, #356, .T. ) ;
#280 = CALENDAR_DATE ( 2022, 31, 5 ) ;
#281 = ORGANIZATION ( 'UNSPECIFIED', 'UNSPECIFIED', '' ) ;
#282 = AXIS2_PLACEMENT_3D ( 'NONE', #144, #260, #114 ) ;
#283 = PLANE ( 'NONE',  #122 ) ;
#284 = EDGE_CURVE ( 'NONE', #164, #349, #339, .T. ) ;
#285 = COORDINATED_UNIVERSAL_TIME_OFFSET ( 1, 0, .AHEAD. ) ;
#286 = CARTESIAN_POINT ( 'NONE',  ( 0.000000000000000000, 0.000000000000000000, 0.000000000000000000 ) ) ;
#287 = PRODUCT_RELATED_PRODUCT_CATEGORY ( 'detail', '', ( #93 ) ) ;
#288 = FACE_OUTER_BOUND ( 'NONE', #348, .T. ) ;
#289 = ORIENTED_EDGE ( 'NONE', *, *, #188, .T. ) ;
#290 = FACE_OUTER_BOUND ( 'NONE', #130, .T. ) ;
#291 = AXIS2_PLACEMENT_3D ( 'NONE', #320, #79, #175 ) ;
#292 = DIRECTION ( 'NONE',  ( 0.000000000000000000, 1.000000000000000000, 0.000000000000000000 ) ) ;
#293 = CARTESIAN_POINT ( 'NONE',  ( -10.00000000000000178, 4.322377234736333837E-15, 0.000000000000000000 ) ) ;
#294 = ADVANCED_FACE ( 'NONE', ( #288 ), #201, .T. ) ;
#295 = CARTESIAN_POINT ( 'NONE',  ( -10.00000000000000000, 2.999999999999993339, 0.000000000000000000 ) ) ;
#296 = ORIENTED_EDGE ( 'NONE', *, *, #154, .T. ) ;
#297 = CIRCLE ( 'NONE', #360, 2.399999999999993250 ) ;
#298 = CC_DESIGN_SECURITY_CLASSIFICATION ( #340, ( #113 ) ) ;
#299 = ORIENTED_EDGE ( 'NONE', *, *, #358, .F. ) ;
#300 = VERTEX_POINT ( 'NONE', #200 ) ;
#301 = VERTEX_POINT ( 'NONE', #209 ) ;
#302 = CLOSED_SHELL ( 'NONE', ( #18, #222, #46, #269, #140, #100 ) ) ;
#303 = AXIS2_PLACEMENT_3D ( 'NONE', #286, #145, #29 ) ;
#304 = ORIENTED_EDGE ( 'NONE', *, *, #174, .F. ) ;
#305 = CARTESIAN_POINT ( 'NONE',  ( 0.000000000000000000, 0.000000000000000000, 0.000000000000000000 ) ) ;
#306 = PRODUCT_DEFINITION ( 'UNKNOWN', '', #113, #39 ) ;
#307 = DIRECTION ( 'NONE',  ( 1.000000000000000000, 9.823584624400759393E-17, -0.000000000000000000 ) ) ;
#308 =( NAMED_UNIT ( * ) SI_UNIT ( $, .STERADIAN. ) SOLID_ANGLE_UNIT ( ) );
#309 = CARTESIAN_POINT ( 'NONE',  ( -10.00000000000000178, 4.322377234736333837E-15, 0.000000000000000000 ) ) ;
#310 = DATE_TIME_ROLE ( 'creation_date' ) ;
#311 = DIRECTION ( 'NONE',  ( -1.000000000000000000, 0.000000000000000000, 0.000000000000000000 ) ) ;
#312 = CALENDAR_DATE ( 2022, 31, 5 ) ;
#313 = ORIENTED_EDGE ( 'NONE', *, *, #35, .F. ) ;
#314 = DATE_TIME_ROLE ( 'classification_date' ) ;
#315 = AXIS2_PLACEMENT_3D ( 'NONE', #84, #232, #292 ) ;
#316 = CARTESIAN_POINT ( 'NONE',  ( -1.080594308684080501E-15, 4.670736239841715120E-31, 0.000000000000000000 ) ) ;
#317 = EDGE_CURVE ( 'NONE', #189, #61, #36, .T. ) ;
#318 = CYLINDRICAL_SURFACE ( 'NONE', #21, 2.999999999999991118 ) ;
#319 = CARTESIAN_POINT ( 'NONE',  ( 1.296713170420896286E-15, 2.999999999999991562, 0.000000000000000000 ) ) ;
#320 = CARTESIAN_POINT ( 'NONE',  ( -10.00000000000000178, 4.322377234736333837E-15, 0.000000000000000000 ) ) ;
#321 = AXIS2_PLACEMENT_3D ( 'NONE', #82, #227, #59 ) ;
#322 = VERTEX_POINT ( 'NONE', #9 ) ;
#323 = DIRECTION ( 'NONE',  ( 1.000000000000000000, -4.322377234736332950E-16, -0.000000000000000000 ) ) ;
#324 = DIRECTION ( 'NONE',  ( 4.322377234736333443E-16, 1.000000000000000000, 0.000000000000000000 ) ) ;
#325 = APPROVAL_PERSON_ORGANIZATION ( #168, #103, #256 ) ;
#326 = ORIENTED_EDGE ( 'NONE', *, *, #284, .F. ) ;
#327 = VERTEX_POINT ( 'NONE', #149 ) ;
#328 = AXIS2_PLACEMENT_3D ( 'NONE', #76, #197, #311 ) ;
#329 = CARTESIAN_POINT ( 'NONE',  ( -53.39999999999999858, -2.999999999999993339, 3.673940397442050993E-16 ) ) ;
#330 = PERSON_AND_ORGANIZATION ( #124, #281 ) ;
#331 = FACE_OUTER_BOUND ( 'NONE', #182, .T. ) ;
#332 = DIRECTION ( 'NONE',  ( 4.322377234736332950E-16, 1.000000000000000000, 0.000000000000000000 ) ) ;
#333 = DATE_AND_TIME ( #280, #212 ) ;
#334 = VECTOR ( 'NONE', #203, 1000.000000000000000 ) ;
#335 = DIRECTION ( 'NONE',  ( -1.000000000000000000, 4.322377234736332950E-16, 0.000000000000000000 ) ) ;
#336 = DIRECTION ( 'NONE',  ( 1.000000000000000000, 9.823584624400759393E-17, -0.000000000000000000 ) ) ;
#337 = CARTESIAN_POINT ( 'NONE',  ( -10.00000000000000178, -2.999999999999986677, 3.673940397442048528E-16 ) ) ;
#338 = DIRECTION ( 'NONE',  ( 0.000000000000000000, 1.000000000000000000, 0.000000000000000000 ) ) ;
#339 = CIRCLE ( 'NONE', #291, 2.999999999999988898 ) ;
#340 = SECURITY_CLASSIFICATION ( '', '', #196 ) ;
#341 = CARTESIAN_POINT ( 'NONE',  ( -53.39999999999999858, 5.894150774640482260E-17, 0.000000000000000000 ) ) ;
#342 = CARTESIAN_POINT ( 'NONE',  ( -2.161188617368161002E-15, -2.499999999999993339, 3.367778697655213616E-16 ) ) ;
#343 = CARTESIAN_POINT ( 'NONE',  ( -1.080594308684080501E-15, 4.670736239841715120E-31, 0.000000000000000000 ) ) ;
#344 = FACE_OUTER_BOUND ( 'NONE', #38, .T. ) ;
#345 = VECTOR ( 'NONE', #263, 1000.000000000000000 ) ;
#346 = SHAPE_DEFINITION_REPRESENTATION ( #244, #272 ) ;
#347 = DIRECTION ( 'NONE',  ( 5.293385445227238229E-32, 1.224646799147353207E-16, 1.000000000000000000 ) ) ;
#348 = EDGE_LOOP ( 'NONE', ( #211, #186, #239, #129 ) ) ;
#349 = VERTEX_POINT ( 'NONE', #295 ) ;
#350 = LOCAL_TIME ( 16, 8, 59.00000000000000000, #253 ) ;
#351 = VERTEX_POINT ( 'NONE', #123 ) ;
#352 =( NAMED_UNIT ( * ) PLANE_ANGLE_UNIT ( ) SI_UNIT ( $, .RADIAN. ) );
#353 = DIRECTION ( 'NONE',  ( 4.322377234736333443E-16, 1.000000000000000000, 0.000000000000000000 ) ) ;
#354 = DIRECTION ( 'NONE',  ( 9.823584624400759393E-17, -1.000000000000000000, 0.000000000000000000 ) ) ;
#355 = PERSON_AND_ORGANIZATION ( #124, #281 ) ;
#356 = EDGE_CURVE ( 'NONE', #322, #351, #187, .T. ) ;
#357 = CARTESIAN_POINT ( 'NONE',  ( -10.00000000000000178, 4.322377234736333837E-15, 0.000000000000000000 ) ) ;
#358 = EDGE_CURVE ( 'NONE', #301, #189, #32, .T. ) ;
#359 = COORDINATED_UNIVERSAL_TIME_OFFSET ( 1, 0, .AHEAD. ) ;
#360 = AXIS2_PLACEMENT_3D ( 'NONE', #210, #336, #102 ) ;
#361 = ORIENTED_EDGE ( 'NONE', *, *, #174, .T. ) ;
#362 = PERSON_AND_ORGANIZATION_ROLE ( 'design_owner' ) ;
#363 = DIRECTION ( 'NONE',  ( 1.000000000000000000, -4.322377234736332950E-16, -0.000000000000000000 ) ) ;
#364 = DIRECTION ( 'NONE',  ( 1.000000000000000000, 9.823584624400759393E-17, -0.000000000000000000 ) ) ;
#365 = EDGE_CURVE ( 'NONE', #351, #322, #297, .T. ) ;
ENDSEC;
END-ISO-10303-21;
