ISO-10303-21;
HEADER;
FILE_DESCRIPTION (( 'STEP AP203' ),
    '1' );
FILE_NAME ('387472387472.step',
    '2022-05-31T14:08:58',
    ( '' ),
    ( '' ),
    'SwSTEP 2.0',
    'SolidWorks 2019',
    '' );
FILE_SCHEMA (( 'CONFIG_CONTROL_DESIGN' ));
ENDSEC;

DATA;
#1 = CIRCLE ( 'NONE', #240, 2.999999999999993339 ) ;
#2 = VECTOR ( 'NONE', #129, 1000.000000000000000 ) ;
#3 = CYLINDRICAL_SURFACE ( 'NONE', #220, 2.999999999999991118 ) ;
#4 = APPLICATION_CONTEXT ( 'configuration controlled 3d designs of mechanical parts and assemblies' ) ;
#5 = DIRECTION ( 'NONE',  ( 1.000000000000000000, 9.823584624400759393E-17, -0.000000000000000000 ) ) ;
#6 = PERSON_AND_ORGANIZATION ( #12, #45 ) ;
#7 = CC_DESIGN_PERSON_AND_ORGANIZATION_ASSIGNMENT ( #274, #143, ( #87 ) ) ;
#8 = DIRECTION ( 'NONE',  ( -1.000000000000000000, 4.322377234736332950E-16, 0.000000000000000000 ) ) ;
#9 = CARTESIAN_POINT ( 'NONE',  ( -53.39999999999999858, -2.999999999999993339, 3.673940397442050993E-16 ) ) ;
#10 = AXIS2_PLACEMENT_3D ( 'NONE', #340, #96, #37 ) ;
#11 = EDGE_CURVE ( 'NONE', #47, #41, #1, .T. ) ;
#12 = PERSON ( 'UNSPECIFIED', 'UNSPECIFIED', 'UNSPECIFIED', ('UNSPECIFIED'), ('UNSPECIFIED'), ('UNSPECIFIED') ) ;
#13 = EDGE_LOOP ( 'NONE', ( #83, #55, #298, #300 ) ) ;
#14 =( GEOMETRIC_REPRESENTATION_CONTEXT ( 3 ) GLOBAL_UNCERTAINTY_ASSIGNED_CONTEXT ( ( #110 ) ) GLOBAL_UNIT_ASSIGNED_CONTEXT ( ( #145, #112, #53 ) ) REPRESENTATION_CONTEXT ( 'NONE', 'WORKASPACE' ) );
#15 = EDGE_CURVE ( 'NONE', #225, #18, #186, .T. ) ;
#16 = ORIENTED_EDGE ( 'NONE', *, *, #304, .F. ) ;
#17 = EDGE_CURVE ( 'NONE', #19, #345, #221, .T. ) ;
#18 = VERTEX_POINT ( 'NONE', #333 ) ;
#19 = VERTEX_POINT ( 'NONE', #250 ) ;
#20 = DIRECTION ( 'NONE',  ( 1.000000000000000000, 9.823584624400759393E-17, -0.000000000000000000 ) ) ;
#21 = DIRECTION ( 'NONE',  ( 0.000000000000000000, 1.000000000000000000, 0.000000000000000000 ) ) ;
#22 = PLANE ( 'NONE',  #307 ) ;
#23 = CARTESIAN_POINT ( 'NONE',  ( -1.167041853378806026E-15, 5.044395139029048195E-31, 0.000000000000000000 ) ) ;
#24 = EDGE_LOOP ( 'NONE', ( #77, #130 ) ) ;
#25 = VECTOR ( 'NONE', #261, 1000.000000000000000 ) ;
#26 = AXIS2_PLACEMENT_3D ( 'NONE', #107, #179, #123 ) ;
#27 = ADVANCED_FACE ( 'NONE', ( #305 ), #32, .T. ) ;
#28 = CC_DESIGN_APPROVAL ( #354, ( #65 ) ) ;
#29 = DIRECTION ( 'NONE',  ( 1.000000000000000000, -4.322377234736332950E-16, -0.000000000000000000 ) ) ;
#30 = LINE ( 'NONE', #284, #237 ) ;
#31 = DIRECTION ( 'NONE',  ( 1.000000000000000000, -4.322377234736332950E-16, -0.000000000000000000 ) ) ;
#32 = CONICAL_SURFACE ( 'NONE', #349, 2.999999999999993339, 0.7853981633974453924 ) ;
#33 = AXIS2_PLACEMENT_3D ( 'NONE', #183, #257, #120 ) ;
#34 = CARTESIAN_POINT ( 'NONE',  ( -10.00000000000000000, -2.999999999999984457, 3.673940397442047049E-16 ) ) ;
#35 = MANIFOLD_SOLID_BREP ( 'Révolution1', #285 ) ;
#36 = DIRECTION ( 'NONE',  ( 0.000000000000000000, 1.000000000000000000, 0.000000000000000000 ) ) ;
#37 = DIRECTION ( 'NONE',  ( 5.782411586589378346E-16, 1.000000000000000000, 0.000000000000000000 ) ) ;
#38 = APPROVAL_DATE_TIME ( #289, #354 ) ;
#39 = AXIS2_PLACEMENT_3D ( 'NONE', #80, #336, #352 ) ;
#40 = COORDINATED_UNIVERSAL_TIME_OFFSET ( 1, 0, .AHEAD. ) ;
#41 = VERTEX_POINT ( 'NONE', #88 ) ;
#42 = APPROVAL_STATUS ( 'not_yet_approved' ) ;
#43 = CIRCLE ( 'NONE', #293, 2.999999999999988898 ) ;
#44 = EDGE_LOOP ( 'NONE', ( #144, #239, #213, #328 ) ) ;
#45 = ORGANIZATION ( 'UNSPECIFIED', 'UNSPECIFIED', '' ) ;
#46 = ORIENTED_EDGE ( 'NONE', *, *, #171, .T. ) ;
#47 = VERTEX_POINT ( 'NONE', #169 ) ;
#48 = DATE_TIME_ROLE ( 'creation_date' ) ;
#49 = FACE_OUTER_BOUND ( 'NONE', #44, .T. ) ;
#50 = CIRCLE ( 'NONE', #161, 2.999999999999993339 ) ;
#51 = LOCAL_TIME ( 16, 8, 58.00000000000000000, #166 ) ;
#52 = ORIENTED_EDGE ( 'NONE', *, *, #74, .F. ) ;
#53 =( NAMED_UNIT ( * ) SI_UNIT ( $, .STERADIAN. ) SOLID_ANGLE_UNIT ( ) );
#54 = CARTESIAN_POINT ( 'NONE',  ( -10.00000000000000000, 4.322377234736333837E-15, 0.000000000000000000 ) ) ;
#55 = ORIENTED_EDGE ( 'NONE', *, *, #152, .T. ) ;
#56 = APPLICATION_PROTOCOL_DEFINITION ( 'international standard', 'config_control_design', 1994, #4 ) ;
#57 = CLOSED_SHELL ( 'NONE', ( #224, #263, #282, #103, #146, #267 ) ) ;
#58 = LOCAL_TIME ( 16, 8, 58.00000000000000000, #105 ) ;
#59 = CARTESIAN_POINT ( 'NONE',  ( -0.3000000000000010991, 0.000000000000000000, 0.000000000000000000 ) ) ;
#60 = CARTESIAN_POINT ( 'NONE',  ( -10.00000000000000178, 4.322377234736333837E-15, 0.000000000000000000 ) ) ;
#61 = ADVANCED_BREP_SHAPE_REPRESENTATION ( '387472387472', ( #35, #160, #260 ), #14 ) ;
#62 = CC_DESIGN_PERSON_AND_ORGANIZATION_ASSIGNMENT ( #343, #98, ( #65 ) ) ;
#63 = DIRECTION ( 'NONE',  ( 0.000000000000000000, 1.000000000000000000, 0.000000000000000000 ) ) ;
#64 = PERSON_AND_ORGANIZATION_ROLE ( 'design_supplier' ) ;
#65 = SECURITY_CLASSIFICATION ( '', '', #127 ) ;
#66 = DIRECTION ( 'NONE',  ( 4.322377234736332950E-16, 1.000000000000000000, 0.000000000000000000 ) ) ;
#67 = LINE ( 'NONE', #232, #25 ) ;
#68 = EDGE_CURVE ( 'NONE', #345, #326, #50, .T. ) ;
#69 = DATE_AND_TIME ( #292, #268 ) ;
#70 = ORIENTED_EDGE ( 'NONE', *, *, #17, .F. ) ;
#71 = ADVANCED_FACE ( 'NONE', ( #49 ), #132, .T. ) ;
#72 = AXIS2_PLACEMENT_3D ( 'NONE', #59, #235, #126 ) ;
#73 = EDGE_LOOP ( 'NONE', ( #191, #188 ) ) ;
#74 = EDGE_CURVE ( 'NONE', #294, #41, #228, .T. ) ;
#75 = CIRCLE ( 'NONE', #128, 2.999999999999993339 ) ;
#76 = AXIS2_PLACEMENT_3D ( 'NONE', #248, #255, #202 ) ;
#77 = ORIENTED_EDGE ( 'NONE', *, *, #218, .F. ) ;
#78 = CIRCLE ( 'NONE', #10, 2.999999999999988898 ) ;
#79 = ORIENTED_EDGE ( 'NONE', *, *, #15, .T. ) ;
#80 = CARTESIAN_POINT ( 'NONE',  ( -1.167041853378806026E-15, 5.044395139029048195E-31, 0.000000000000000000 ) ) ;
#81 = SHAPE_DEFINITION_REPRESENTATION ( #330, #61 ) ;
#82 = EDGE_LOOP ( 'NONE', ( #331, #106 ) ) ;
#83 = ORIENTED_EDGE ( 'NONE', *, *, #171, .F. ) ;
#84 = VECTOR ( 'NONE', #90, 1000.000000000000114 ) ;
#85 = PERSON_AND_ORGANIZATION_ROLE ( 'creator' ) ;
#86 = CIRCLE ( 'NONE', #360, 2.399999999999993250 ) ;
#87 = PRODUCT ( '387472387472', '387472387472', '', ( #329 ) ) ;
#88 = CARTESIAN_POINT ( 'NONE',  ( -53.39999999999999858, 2.999999999999992895, 0.000000000000000000 ) ) ;
#89 = COORDINATED_UNIVERSAL_TIME_OFFSET ( 1, 0, .AHEAD. ) ;
#90 = DIRECTION ( 'NONE',  ( 0.7071067811865493491, 0.7071067811865455743, 0.000000000000000000 ) ) ;
#91 = DIRECTION ( 'NONE',  ( -9.823584624400759393E-17, 1.000000000000000000, 0.000000000000000000 ) ) ;
#92 = DIRECTION ( 'NONE',  ( 1.000000000000000000, -4.322377234736332950E-16, -0.000000000000000000 ) ) ;
#93 = CARTESIAN_POINT ( 'NONE',  ( -0.3000000000000023204, -2.699999999999993072, 3.306546357697845352E-16 ) ) ;
#94 = EDGE_CURVE ( 'NONE', #194, #140, #43, .T. ) ;
#95 = CARTESIAN_POINT ( 'NONE',  ( -54.00000000000000000, 0.000000000000000000, 0.000000000000000000 ) ) ;
#96 = DIRECTION ( 'NONE',  ( 1.000000000000000000, -4.322377234736332950E-16, -0.000000000000000000 ) ) ;
#97 = PLANE ( 'NONE',  #204 ) ;
#98 = PERSON_AND_ORGANIZATION_ROLE ( 'classification_officer' ) ;
#99 = DIRECTION ( 'NONE',  ( 1.000000000000000000, -4.322377234736332950E-16, -0.000000000000000000 ) ) ;
#100 = ORIENTED_EDGE ( 'NONE', *, *, #218, .T. ) ;
#101 = AXIS2_PLACEMENT_3D ( 'NONE', #264, #99, #344 ) ;
#102 = ORIENTED_EDGE ( 'NONE', *, *, #208, .T. ) ;
#103 = ADVANCED_FACE ( 'NONE', ( #165 ), #172, .T. ) ;
#104 = ORIENTED_EDGE ( 'NONE', *, *, #68, .T. ) ;
#105 = COORDINATED_UNIVERSAL_TIME_OFFSET ( 1, 0, .AHEAD. ) ;
#106 = ORIENTED_EDGE ( 'NONE', *, *, #357, .T. ) ;
#107 = CARTESIAN_POINT ( 'NONE',  ( -10.00000000000000178, 4.322377234736333837E-15, 0.000000000000000000 ) ) ;
#108 = ADVANCED_FACE ( 'NONE', ( #277 ), #348, .T. ) ;
#109 = APPROVAL_DATE_TIME ( #350, #249 ) ;
#110 = UNCERTAINTY_MEASURE_WITH_UNIT (LENGTH_MEASURE( 1.000000000000000082E-05 ), #145, 'distance_accuracy_value', 'NONE');
#111 = DIRECTION ( 'NONE',  ( 4.322377234736333443E-16, 1.000000000000000000, 0.000000000000000000 ) ) ;
#112 =( NAMED_UNIT ( * ) PLANE_ANGLE_UNIT ( ) SI_UNIT ( $, .RADIAN. ) );
#113 = PRODUCT_DEFINITION ( 'UNKNOWN', '', #253, #137 ) ;
#114 = ORIENTED_EDGE ( 'NONE', *, *, #152, .F. ) ;
#115 = PERSON_AND_ORGANIZATION ( #12, #45 ) ;
#116 = DIRECTION ( 'NONE',  ( 0.000000000000000000, 1.000000000000000000, 0.000000000000000000 ) ) ;
#117 = EDGE_CURVE ( 'NONE', #41, #194, #317, .T. ) ;
#118 = ORIENTED_EDGE ( 'NONE', *, *, #357, .F. ) ;
#119 = APPLICATION_CONTEXT ( 'configuration controlled 3d designs of mechanical parts and assemblies' ) ;
#120 = DIRECTION ( 'NONE',  ( -1.000000000000000000, 0.000000000000000000, 0.000000000000000000 ) ) ;
#121 = CARTESIAN_POINT ( 'NONE',  ( -10.00000000000000178, 2.999999999999995115, 0.000000000000000000 ) ) ;
#122 = CIRCLE ( 'NONE', #233, 2.399999999999993250 ) ;
#123 = DIRECTION ( 'NONE',  ( 0.000000000000000000, 1.000000000000000000, 0.000000000000000000 ) ) ;
#124 = PERSON_AND_ORGANIZATION_ROLE ( 'creator' ) ;
#125 = DIRECTION ( 'NONE',  ( -1.000000000000000000, -9.823584624400759393E-17, 0.000000000000000000 ) ) ;
#126 = DIRECTION ( 'NONE',  ( 4.322377234736333443E-16, 1.000000000000000000, 0.000000000000000000 ) ) ;
#127 = SECURITY_CLASSIFICATION_LEVEL ( 'unclassified' ) ;
#128 = AXIS2_PLACEMENT_3D ( 'NONE', #287, #31, #177 ) ;
#129 = DIRECTION ( 'NONE',  ( 0.7071067811865496822, -0.7071067811865453523, 8.659560562354908206E-17 ) ) ;
#130 = ORIENTED_EDGE ( 'NONE', *, *, #208, .F. ) ;
#131 = EDGE_CURVE ( 'NONE', #324, #326, #30, .T. ) ;
#132 = CONICAL_SURFACE ( 'NONE', #219, 2.999999999999993339, 0.7853981633974453924 ) ;
#133 = TOROIDAL_SURFACE ( 'NONE', #101, 2.699999999999993072, 0.2999999999999999334 ) ;
#134 = ORIENTED_EDGE ( 'NONE', *, *, #136, .T. ) ;
#135 = ORIENTED_EDGE ( 'NONE', *, *, #131, .T. ) ;
#136 = EDGE_CURVE ( 'NONE', #47, #140, #67, .T. ) ;
#137 = DESIGN_CONTEXT ( 'detailed design', #4, 'design' ) ;
#138 = ORIENTED_EDGE ( 'NONE', *, *, #11, .T. ) ;
#139 = APPROVAL_PERSON_ORGANIZATION ( #322, #354, #243 ) ;
#140 = VERTEX_POINT ( 'NONE', #34 ) ;
#141 = FACE_OUTER_BOUND ( 'NONE', #82, .T. ) ;
#142 = DIRECTION ( 'NONE',  ( 0.000000000000000000, 1.000000000000000000, 0.000000000000000000 ) ) ;
#143 = PERSON_AND_ORGANIZATION_ROLE ( 'design_owner' ) ;
#144 = ORIENTED_EDGE ( 'NONE', *, *, #315, .F. ) ;
#145 =( LENGTH_UNIT ( ) NAMED_UNIT ( * ) SI_UNIT ( .MILLI., .METRE. ) );
#146 = ADVANCED_FACE ( 'NONE', ( #157 ), #283, .T. ) ;
#147 = DIRECTION ( 'NONE',  ( 1.000000000000000000, -4.322377234736332950E-16, -0.000000000000000000 ) ) ;
#148 = VECTOR ( 'NONE', #203, 1000.000000000000000 ) ;
#149 = CALENDAR_DATE ( 2022, 31, 5 ) ;
#150 = DIRECTION ( 'NONE',  ( 1.000000000000000000, -4.322377234736332950E-16, -0.000000000000000000 ) ) ;
#151 = CC_DESIGN_PERSON_AND_ORGANIZATION_ASSIGNMENT ( #6, #64, ( #253 ) ) ;
#152 = EDGE_CURVE ( 'NONE', #326, #345, #75, .T. ) ;
#153 = DIRECTION ( 'NONE',  ( 4.322377234736332950E-16, 1.000000000000000000, 0.000000000000000000 ) ) ;
#154 = DIRECTION ( 'NONE',  ( 5.782411586589378346E-16, 1.000000000000000000, 0.000000000000000000 ) ) ;
#155 = CIRCLE ( 'NONE', #39, 2.699999999999990852 ) ;
#156 = DIRECTION ( 'NONE',  ( 1.000000000000000000, -4.322377234736332950E-16, -0.000000000000000000 ) ) ;
#157 = FACE_OUTER_BOUND ( 'NONE', #24, .T. ) ;
#158 = LINE ( 'NONE', #9, #2 ) ;
#159 = ORIENTED_EDGE ( 'NONE', *, *, #17, .T. ) ;
#160 = MANIFOLD_SOLID_BREP ( 'Révolution2', #57 ) ;
#161 = AXIS2_PLACEMENT_3D ( 'NONE', #254, #358, #275 ) ;
#162 = AXIS2_PLACEMENT_3D ( 'NONE', #339, #205, #154 ) ;
#163 = EDGE_LOOP ( 'NONE', ( #216, #244, #16, #52 ) ) ;
#164 = EDGE_LOOP ( 'NONE', ( #252, #138, #265, #118 ) ) ;
#165 = FACE_OUTER_BOUND ( 'NONE', #323, .T. ) ;
#166 = COORDINATED_UNIVERSAL_TIME_OFFSET ( 1, 0, .AHEAD. ) ;
#167 = CIRCLE ( 'NONE', #33, 0.2999999999999999334 ) ;
#168 = CARTESIAN_POINT ( 'NONE',  ( -54.00000000000000000, 0.000000000000000000, 0.000000000000000000 ) ) ;
#169 = CARTESIAN_POINT ( 'NONE',  ( -53.39999999999999858, -2.999999999999993339, 3.673940397442051486E-16 ) ) ;
#170 = DIRECTION ( 'NONE',  ( 1.000000000000000000, 9.823584624400759393E-17, -0.000000000000000000 ) ) ;
#171 = EDGE_CURVE ( 'NONE', #326, #225, #325, .T. ) ;
#172 = CYLINDRICAL_SURFACE ( 'NONE', #299, 2.999999999999991118 ) ;
#173 = APPROVAL_ROLE ( '' ) ;
#174 = CARTESIAN_POINT ( 'NONE',  ( 1.296713170420896089E-15, 2.999999999999991118, 0.000000000000000000 ) ) ;
#175 = AXIS2_PLACEMENT_3D ( 'NONE', #93, #210, #318 ) ;
#176 = PERSON_AND_ORGANIZATION ( #12, #45 ) ;
#177 = DIRECTION ( 'NONE',  ( 4.336808689942027597E-16, 1.000000000000000000, 0.000000000000000000 ) ) ;
#178 = CYLINDRICAL_SURFACE ( 'NONE', #278, 2.999999999999991118 ) ;
#179 = DIRECTION ( 'NONE',  ( 1.000000000000000000, 9.823584624400759393E-17, -0.000000000000000000 ) ) ;
#180 = LOCAL_TIME ( 16, 8, 58.00000000000000000, #89 ) ;
#181 = FACE_OUTER_BOUND ( 'NONE', #311, .T. ) ;
#182 = APPROVAL ( #303, 'UNSPECIFIED' ) ;
#183 = CARTESIAN_POINT ( 'NONE',  ( -0.2999999999999999334, 2.699999999999993072, 0.000000000000000000 ) ) ;
#184 = CARTESIAN_POINT ( 'NONE',  ( -53.39999999999999858, 5.894150774640482260E-17, 0.000000000000000000 ) ) ;
#185 = ORIENTED_EDGE ( 'NONE', *, *, #117, .F. ) ;
#186 = CIRCLE ( 'NONE', #214, 2.699999999999990852 ) ;
#187 = ADVANCED_FACE ( 'NONE', ( #262 ), #178, .T. ) ;
#188 = ORIENTED_EDGE ( 'NONE', *, *, #242, .F. ) ;
#189 = DATE_TIME_ROLE ( 'classification_date' ) ;
#190 = ORIENTED_EDGE ( 'NONE', *, *, #304, .T. ) ;
#191 = ORIENTED_EDGE ( 'NONE', *, *, #356, .F. ) ;
#192 = VERTEX_POINT ( 'NONE', #234 ) ;
#193 = EDGE_LOOP ( 'NONE', ( #190, #134, #297, #185 ) ) ;
#194 = VERTEX_POINT ( 'NONE', #341 ) ;
#195 = CARTESIAN_POINT ( 'NONE',  ( -0.3000000000000020983, 2.999999999999993339, 0.000000000000000000 ) ) ;
#196 = VECTOR ( 'NONE', #29, 1000.000000000000000 ) ;
#197 = LOCAL_TIME ( 16, 8, 58.00000000000000000, #251 ) ;
#198 = ORIENTED_EDGE ( 'NONE', *, *, #68, .F. ) ;
#199 = ORIENTED_EDGE ( 'NONE', *, *, #365, .F. ) ;
#200 = CALENDAR_DATE ( 2022, 31, 5 ) ;
#201 = EDGE_LOOP ( 'NONE', ( #100, #135, #198, #70 ) ) ;
#202 = DIRECTION ( 'NONE',  ( 0.000000000000000000, 1.000000000000000000, 0.000000000000000000 ) ) ;
#203 = DIRECTION ( 'NONE',  ( 1.000000000000000000, 9.823584624400759393E-17, -0.000000000000000000 ) ) ;
#204 = AXIS2_PLACEMENT_3D ( 'NONE', #281, #92, #153 ) ;
#205 = DIRECTION ( 'NONE',  ( 1.000000000000000000, -4.322377234736332950E-16, -0.000000000000000000 ) ) ;
#206 = DIRECTION ( 'NONE',  ( 1.000000000000000000, 9.823584624400759393E-17, -0.000000000000000000 ) ) ;
#207 = DIRECTION ( 'NONE',  ( 1.000000000000000000, -4.322377234736332950E-16, -0.000000000000000000 ) ) ;
#208 = EDGE_CURVE ( 'NONE', #324, #19, #241, .T. ) ;
#209 = CIRCLE ( 'NONE', #272, 2.999999999999993339 ) ;
#210 = DIRECTION ( 'NONE',  ( 5.293385445227238229E-32, 1.224646799147353207E-16, 1.000000000000000000 ) ) ;
#211 = CARTESIAN_POINT ( 'NONE',  ( -54.00000000000000000, 2.399999999999993250, 0.000000000000000000 ) ) ;
#212 = ADVANCED_FACE ( 'NONE', ( #314 ), #288, .T. ) ;
#213 = ORIENTED_EDGE ( 'NONE', *, *, #74, .T. ) ;
#214 = AXIS2_PLACEMENT_3D ( 'NONE', #23, #147, #111 ) ;
#215 = CC_DESIGN_APPROVAL ( #182, ( #113 ) ) ;
#216 = ORIENTED_EDGE ( 'NONE', *, *, #356, .T. ) ;
#217 = CALENDAR_DATE ( 2022, 31, 5 ) ;
#218 = EDGE_CURVE ( 'NONE', #19, #324, #78, .T. ) ;
#219 = AXIS2_PLACEMENT_3D ( 'NONE', #273, #335, #116 ) ;
#220 = AXIS2_PLACEMENT_3D ( 'NONE', #316, #207, #66 ) ;
#221 = LINE ( 'NONE', #174, #196 ) ;
#222 = CARTESIAN_POINT ( 'NONE',  ( 0.000000000000000000, 0.000000000000000000, 0.000000000000000000 ) ) ;
#223 = DIRECTION ( 'NONE',  ( 0.000000000000000000, 1.000000000000000000, 0.000000000000000000 ) ) ;
#224 = ADVANCED_FACE ( 'NONE', ( #231 ), #3, .T. ) ;
#225 = VERTEX_POINT ( 'NONE', #364 ) ;
#226 = DATE_AND_TIME ( #149, #197 ) ;
#227 = CC_DESIGN_APPROVAL ( #249, ( #253 ) ) ;
#228 = LINE ( 'NONE', #309, #84 ) ;
#229 = DIRECTION ( 'NONE',  ( 1.000000000000000000, 9.823584624400759393E-17, -0.000000000000000000 ) ) ;
#230 = CALENDAR_DATE ( 2022, 31, 5 ) ;
#231 = FACE_OUTER_BOUND ( 'NONE', #201, .T. ) ;
#232 = CARTESIAN_POINT ( 'NONE',  ( -10.00000000000000178, -2.999999999999986677, 3.673940397442048528E-16 ) ) ;
#233 = AXIS2_PLACEMENT_3D ( 'NONE', #168, #170, #276 ) ;
#234 = CARTESIAN_POINT ( 'NONE',  ( -54.00000000000000000, -2.399999999999993250, 3.306546357697845352E-16 ) ) ;
#235 = DIRECTION ( 'NONE',  ( 1.000000000000000000, -4.322377234736332950E-16, -0.000000000000000000 ) ) ;
#236 = AXIS2_PLACEMENT_3D ( 'NONE', #258, #8, #319 ) ;
#237 = VECTOR ( 'NONE', #156, 1000.000000000000000 ) ;
#238 = DIRECTION ( 'NONE',  ( 1.000000000000000000, 9.823584624400759393E-17, -0.000000000000000000 ) ) ;
#239 = ORIENTED_EDGE ( 'NONE', *, *, #242, .T. ) ;
#240 = AXIS2_PLACEMENT_3D ( 'NONE', #270, #229, #142 ) ;
#241 = CIRCLE ( 'NONE', #162, 2.999999999999988898 ) ;
#242 = EDGE_CURVE ( 'NONE', #192, #294, #86, .T. ) ;
#243 = APPROVAL_ROLE ( '' ) ;
#244 = ORIENTED_EDGE ( 'NONE', *, *, #315, .T. ) ;
#245 = APPROVAL_STATUS ( 'not_yet_approved' ) ;
#246 = ORIENTED_EDGE ( 'NONE', *, *, #365, .T. ) ;
#247 = EDGE_CURVE ( 'NONE', #345, #18, #167, .T. ) ;
#248 = CARTESIAN_POINT ( 'NONE',  ( -10.00000000000000000, 4.322377234736333837E-15, 0.000000000000000000 ) ) ;
#249 = APPROVAL ( #245, 'UNSPECIFIED' ) ;
#250 = CARTESIAN_POINT ( 'NONE',  ( -10.00000000000000000, 2.999999999999993339, 0.000000000000000000 ) ) ;
#251 = COORDINATED_UNIVERSAL_TIME_OFFSET ( 1, 0, .AHEAD. ) ;
#252 = ORIENTED_EDGE ( 'NONE', *, *, #136, .F. ) ;
#253 = PRODUCT_DEFINITION_FORMATION_WITH_SPECIFIED_SOURCE ( 'ANY', '', #87, .NOT_KNOWN. ) ;
#254 = CARTESIAN_POINT ( 'NONE',  ( -0.3000000000000033751, 1.296713170420914676E-16, 0.000000000000000000 ) ) ;
#255 = DIRECTION ( 'NONE',  ( 1.000000000000000000, 9.823584624400759393E-17, -0.000000000000000000 ) ) ;
#256 = CC_DESIGN_PERSON_AND_ORGANIZATION_ASSIGNMENT ( #176, #85, ( #113 ) ) ;
#257 = DIRECTION ( 'NONE',  ( 0.000000000000000000, 0.000000000000000000, -1.000000000000000000 ) ) ;
#258 = CARTESIAN_POINT ( 'NONE',  ( -10.00000000000000178, 4.322377234736333837E-15, 0.000000000000000000 ) ) ;
#259 = DIRECTION ( 'NONE',  ( 9.823584624400759393E-17, -1.000000000000000000, 0.000000000000000000 ) ) ;
#260 = AXIS2_PLACEMENT_3D ( 'NONE', #222, #306, #359 ) ;
#261 = DIRECTION ( 'NONE',  ( 1.000000000000000000, 9.823584624400759393E-17, -0.000000000000000000 ) ) ;
#262 = FACE_OUTER_BOUND ( 'NONE', #193, .T. ) ;
#263 = ADVANCED_FACE ( 'NONE', ( #181 ), #286, .T. ) ;
#264 = CARTESIAN_POINT ( 'NONE',  ( -0.3000000000000010991, 0.000000000000000000, 0.000000000000000000 ) ) ;
#265 = ORIENTED_EDGE ( 'NONE', *, *, #117, .T. ) ;
#266 = CC_DESIGN_PERSON_AND_ORGANIZATION_ASSIGNMENT ( #327, #124, ( #253 ) ) ;
#267 = ADVANCED_FACE ( 'NONE', ( #342 ), #97, .T. ) ;
#268 = LOCAL_TIME ( 16, 8, 58.00000000000000000, #40 ) ;
#269 = EDGE_LOOP ( 'NONE', ( #246, #79 ) ) ;
#270 = CARTESIAN_POINT ( 'NONE',  ( -53.39999999999999858, 5.894150774640482260E-17, 0.000000000000000000 ) ) ;
#271 = CARTESIAN_POINT ( 'NONE',  ( -10.00000000000000355, -2.999999999999984457, 3.673940397442047049E-16 ) ) ;
#272 = AXIS2_PLACEMENT_3D ( 'NONE', #184, #238, #320 ) ;
#273 = CARTESIAN_POINT ( 'NONE',  ( -53.39999999999999858, 5.894150774640482260E-17, 0.000000000000000000 ) ) ;
#274 = PERSON_AND_ORGANIZATION ( #12, #45 ) ;
#275 = DIRECTION ( 'NONE',  ( 4.336808689942027597E-16, 1.000000000000000000, 0.000000000000000000 ) ) ;
#276 = DIRECTION ( 'NONE',  ( 0.000000000000000000, 1.000000000000000000, 0.000000000000000000 ) ) ;
#277 = FACE_OUTER_BOUND ( 'NONE', #164, .T. ) ;
#278 = AXIS2_PLACEMENT_3D ( 'NONE', #60, #5, #36 ) ;
#279 = DIRECTION ( 'NONE',  ( 1.000000000000000000, 9.823584624400759393E-17, -0.000000000000000000 ) ) ;
#280 = DATE_AND_TIME ( #200, #180 ) ;
#281 = CARTESIAN_POINT ( 'NONE',  ( 5.835209266894030131E-16, 2.699999999999990852, 0.000000000000000000 ) ) ;
#282 = ADVANCED_FACE ( 'NONE', ( #291 ), #133, .T. ) ;
#283 = PLANE ( 'NONE',  #236 ) ;
#284 = CARTESIAN_POINT ( 'NONE',  ( -1.296713170420896089E-15, -2.999999999999991118, 3.673940397442048528E-16 ) ) ;
#285 = CLOSED_SHELL ( 'NONE', ( #187, #27, #212, #71, #108, #337 ) ) ;
#286 = TOROIDAL_SURFACE ( 'NONE', #72, 2.699999999999993072, 0.2999999999999999334 ) ;
#287 = CARTESIAN_POINT ( 'NONE',  ( -0.3000000000000033751, 1.296713170420914676E-16, 0.000000000000000000 ) ) ;
#288 = PLANE ( 'NONE',  #295 ) ;
#289 = DATE_AND_TIME ( #217, #58 ) ;
#290 = CC_DESIGN_DATE_AND_TIME_ASSIGNMENT ( #280, #48, ( #113 ) ) ;
#291 = FACE_OUTER_BOUND ( 'NONE', #13, .T. ) ;
#292 = CALENDAR_DATE ( 2022, 31, 5 ) ;
#293 = AXIS2_PLACEMENT_3D ( 'NONE', #54, #279, #21 ) ;
#294 = VERTEX_POINT ( 'NONE', #211 ) ;
#295 = AXIS2_PLACEMENT_3D ( 'NONE', #363, #125, #259 ) ;
#296 = PRODUCT_RELATED_PRODUCT_CATEGORY ( 'detail', '', ( #87 ) ) ;
#297 = ORIENTED_EDGE ( 'NONE', *, *, #94, .F. ) ;
#298 = ORIENTED_EDGE ( 'NONE', *, *, #247, .T. ) ;
#299 = AXIS2_PLACEMENT_3D ( 'NONE', #351, #150, #353 ) ;
#300 = ORIENTED_EDGE ( 'NONE', *, *, #15, .F. ) ;
#301 = CC_DESIGN_DATE_AND_TIME_ASSIGNMENT ( #69, #189, ( #65 ) ) ;
#302 = ORIENTED_EDGE ( 'NONE', *, *, #131, .F. ) ;
#303 = APPROVAL_STATUS ( 'not_yet_approved' ) ;
#304 = EDGE_CURVE ( 'NONE', #41, #47, #209, .T. ) ;
#305 = FACE_OUTER_BOUND ( 'NONE', #163, .T. ) ;
#306 = DIRECTION ( 'NONE',  ( 0.000000000000000000, 0.000000000000000000, 1.000000000000000000 ) ) ;
#307 = AXIS2_PLACEMENT_3D ( 'NONE', #362, #20, #91 ) ;
#308 = CARTESIAN_POINT ( 'NONE',  ( -53.39999999999999858, 5.894150774640482260E-17, 0.000000000000000000 ) ) ;
#309 = CARTESIAN_POINT ( 'NONE',  ( -53.39999999999999858, 2.999999999999993339, 0.000000000000000000 ) ) ;
#310 = PERSON_AND_ORGANIZATION ( #12, #45 ) ;
#311 = EDGE_LOOP ( 'NONE', ( #104, #46, #199, #346 ) ) ;
#312 = APPLICATION_PROTOCOL_DEFINITION ( 'international standard', 'config_control_design', 1994, #119 ) ;
#313 = APPROVAL_PERSON_ORGANIZATION ( #115, #182, #334 ) ;
#314 = FACE_OUTER_BOUND ( 'NONE', #73, .T. ) ;
#315 = EDGE_CURVE ( 'NONE', #192, #47, #158, .T. ) ;
#316 = CARTESIAN_POINT ( 'NONE',  ( 0.000000000000000000, 0.000000000000000000, 0.000000000000000000 ) ) ;
#317 = LINE ( 'NONE', #121, #148 ) ;
#318 = DIRECTION ( 'NONE',  ( 0.000000000000000000, -1.000000000000000000, 1.224646799147353207E-16 ) ) ;
#319 = DIRECTION ( 'NONE',  ( -4.322377234736332950E-16, -1.000000000000000000, 0.000000000000000000 ) ) ;
#320 = DIRECTION ( 'NONE',  ( 0.000000000000000000, 1.000000000000000000, 0.000000000000000000 ) ) ;
#321 = CIRCLE ( 'NONE', #76, 2.999999999999988898 ) ;
#322 = PERSON_AND_ORGANIZATION ( #12, #45 ) ;
#323 = EDGE_LOOP ( 'NONE', ( #302, #102, #159, #114 ) ) ;
#324 = VERTEX_POINT ( 'NONE', #271 ) ;
#325 = CIRCLE ( 'NONE', #175, 0.2999999999999999334 ) ;
#326 = VERTEX_POINT ( 'NONE', #355 ) ;
#327 = PERSON_AND_ORGANIZATION ( #12, #45 ) ;
#328 = ORIENTED_EDGE ( 'NONE', *, *, #11, .F. ) ;
#329 = MECHANICAL_CONTEXT ( 'NONE', #119, 'mechanical' ) ;
#330 = PRODUCT_DEFINITION_SHAPE ( 'NONE', 'NONE',  #113 ) ;
#331 = ORIENTED_EDGE ( 'NONE', *, *, #94, .T. ) ;
#332 = APPROVAL_DATE_TIME ( #226, #182 ) ;
#333 = CARTESIAN_POINT ( 'NONE',  ( 0.000000000000000000, 2.699999999999990852, 0.000000000000000000 ) ) ;
#334 = APPROVAL_ROLE ( '' ) ;
#335 = DIRECTION ( 'NONE',  ( 1.000000000000000000, 9.823584624400759393E-17, -0.000000000000000000 ) ) ;
#336 = DIRECTION ( 'NONE',  ( 1.000000000000000000, -4.322377234736332950E-16, -0.000000000000000000 ) ) ;
#337 = ADVANCED_FACE ( 'NONE', ( #141 ), #22, .T. ) ;
#338 = CC_DESIGN_SECURITY_CLASSIFICATION ( #65, ( #253 ) ) ;
#339 = CARTESIAN_POINT ( 'NONE',  ( -10.00000000000000178, 4.322377234736333837E-15, 0.000000000000000000 ) ) ;
#340 = CARTESIAN_POINT ( 'NONE',  ( -10.00000000000000178, 4.322377234736333837E-15, 0.000000000000000000 ) ) ;
#341 = CARTESIAN_POINT ( 'NONE',  ( -10.00000000000000000, 2.999999999999993339, 0.000000000000000000 ) ) ;
#342 = FACE_OUTER_BOUND ( 'NONE', #269, .T. ) ;
#343 = PERSON_AND_ORGANIZATION ( #12, #45 ) ;
#344 = DIRECTION ( 'NONE',  ( 4.322377234736333443E-16, 1.000000000000000000, 0.000000000000000000 ) ) ;
#345 = VERTEX_POINT ( 'NONE', #195 ) ;
#346 = ORIENTED_EDGE ( 'NONE', *, *, #247, .F. ) ;
#347 = APPROVAL_PERSON_ORGANIZATION ( #310, #249, #173 ) ;
#348 = CYLINDRICAL_SURFACE ( 'NONE', #26, 2.999999999999991118 ) ;
#349 = AXIS2_PLACEMENT_3D ( 'NONE', #308, #361, #223 ) ;
#350 = DATE_AND_TIME ( #230, #51 ) ;
#351 = CARTESIAN_POINT ( 'NONE',  ( 0.000000000000000000, 0.000000000000000000, 0.000000000000000000 ) ) ;
#352 = DIRECTION ( 'NONE',  ( 4.322377234736333443E-16, 1.000000000000000000, 0.000000000000000000 ) ) ;
#353 = DIRECTION ( 'NONE',  ( 4.322377234736332950E-16, 1.000000000000000000, 0.000000000000000000 ) ) ;
#354 = APPROVAL ( #42, 'UNSPECIFIED' ) ;
#355 = CARTESIAN_POINT ( 'NONE',  ( -0.3000000000000047073, -2.999999999999993339, 3.673940397442050993E-16 ) ) ;
#356 = EDGE_CURVE ( 'NONE', #294, #192, #122, .T. ) ;
#357 = EDGE_CURVE ( 'NONE', #140, #194, #321, .T. ) ;
#358 = DIRECTION ( 'NONE',  ( 1.000000000000000000, -4.322377234736332950E-16, -0.000000000000000000 ) ) ;
#359 = DIRECTION ( 'NONE',  ( 1.000000000000000000, 0.000000000000000000, 0.000000000000000000 ) ) ;
#360 = AXIS2_PLACEMENT_3D ( 'NONE', #95, #206, #63 ) ;
#361 = DIRECTION ( 'NONE',  ( 1.000000000000000000, 9.823584624400759393E-17, -0.000000000000000000 ) ) ;
#362 = CARTESIAN_POINT ( 'NONE',  ( -10.00000000000000178, 4.322377234736333837E-15, 0.000000000000000000 ) ) ;
#363 = CARTESIAN_POINT ( 'NONE',  ( -54.00000000000000000, 1.158033778473152845E-32, 0.000000000000000000 ) ) ;
#364 = CARTESIAN_POINT ( 'NONE',  ( -2.334083706757612052E-15, -2.699999999999990852, 3.490243377569946693E-16 ) ) ;
#365 = EDGE_CURVE ( 'NONE', #18, #225, #155, .T. ) ;
ENDSEC;
END-ISO-10303-21;
