ISO-10303-21;
HEADER;
FILE_DESCRIPTION (( 'STEP AP203' ),
    '1' );
FILE_NAME ('38613.step',
    '2021-11-01T09:45:34',
    ( '' ),
    ( '' ),
    'SwSTEP 2.0',
    'SolidWorks 2019',
    '' );
FILE_SCHEMA (( 'CONFIG_CONTROL_DESIGN' ));
ENDSEC;

DATA;
#1 = CARTESIAN_POINT ( 'NONE',  ( 2.318251723926781399E-14, 1.499999999999995337, 6.639736830714124238 ) ) ;
#2 = PERSON_AND_ORGANIZATION_ROLE ( 'design_supplier' ) ;
#3 = APPLICATION_PROTOCOL_DEFINITION ( 'international standard', 'config_control_design', 1994, #57 ) ;
#4 = LOCAL_TIME ( 10, 45, 34.00000000000000000, #53 ) ;
#5 = EDGE_LOOP ( 'NONE', ( #126 ) ) ;
#6 = ADVANCED_FACE ( 'NONE', ( #72, #21 ), #171, .T. ) ;
#7 = EDGE_LOOP ( 'NONE', ( #124 ) ) ;
#8 = ADVANCED_FACE ( 'NONE', ( #142, #85 ), #129, .T. ) ;
#9 = CARTESIAN_POINT ( 'NONE',  ( 1.316288464743861212E-13, 1.499999999999993117, 37.69999999999999574 ) ) ;
#10 = DIRECTION ( 'NONE',  ( 0.0000000000000000000, -1.000000000000000000, 0.0000000000000000000 ) ) ;
#11 = AXIS2_PLACEMENT_3D ( 'NONE', #29, #111, #10 ) ;
#12 = DIRECTION ( 'NONE',  ( 4.275831445896958607E-31, 1.000000000000000000, 1.224646799147353207E-16 ) ) ;
#13 = CC_DESIGN_DATE_AND_TIME_ASSIGNMENT ( #137, #116, ( #141 ) ) ;
#14 = CARTESIAN_POINT ( 'NONE',  ( 1.326762908760390423E-13, -4.653657836759941941E-15, 38.00000000000000000 ) ) ;
#15 = CARTESIAN_POINT ( 'NONE',  ( -6.413731847436034514E-31, 0.0000000000000000000, -1.836965810494968570E-16 ) ) ;
#16 = CALENDAR_DATE ( 2021, 1, 11 ) ;
#17 = CC_DESIGN_PERSON_AND_ORGANIZATION_ASSIGNMENT ( #205, #20, ( #18 ) ) ;
#18 = PRODUCT ( '38613', '38613', '', ( #35 ) ) ;
#19 = CC_DESIGN_PERSON_AND_ORGANIZATION_ASSIGNMENT ( #188, #166, ( #140 ) ) ;
#20 = PERSON_AND_ORGANIZATION_ROLE ( 'design_owner' ) ;
#21 = FACE_OUTER_BOUND ( 'NONE', #104, .T. ) ;
#22 = ORIENTED_EDGE ( 'NONE', *, *, #218, .T. ) ;
#23 =( GEOMETRIC_REPRESENTATION_CONTEXT ( 3 ) GLOBAL_UNCERTAINTY_ASSIGNED_CONTEXT ( ( #186 ) ) GLOBAL_UNIT_ASSIGNED_CONTEXT ( ( #189, #222, #32 ) ) REPRESENTATION_CONTEXT ( 'NONE', 'WORKASPACE' ) );
#24 = ORIENTED_EDGE ( 'NONE', *, *, #218, .F. ) ;
#25 = CIRCLE ( 'NONE', #215, 0.8999999999999989120 ) ;
#26 = PLANE ( 'NONE',  #109 ) ;
#27 = MANIFOLD_SOLID_BREP ( 'Corps-Déplacer/Copier1[1]', #170 ) ;
#28 = DIRECTION ( 'NONE',  ( 3.491481338843133355E-15, -1.227517819005651059E-16, 1.000000000000000000 ) ) ;
#29 = CARTESIAN_POINT ( 'NONE',  ( 1.256933281983527377E-14, -4.419064148420342233E-16, 3.599999999999998312 ) ) ;
#30 = FACE_OUTER_BOUND ( 'NONE', #102, .T. ) ;
#31 = DIRECTION ( 'NONE',  ( 3.491481338843133355E-15, -1.224646799147353207E-16, 1.000000000000000000 ) ) ;
#32 =( NAMED_UNIT ( * ) SI_UNIT ( $, .STERADIAN. ) SOLID_ANGLE_UNIT ( ) );
#33 = CALENDAR_DATE ( 2021, 1, 11 ) ;
#34 = PERSON_AND_ORGANIZATION_ROLE ( 'classification_officer' ) ;
#35 = MECHANICAL_CONTEXT ( 'NONE', #113, 'mechanical' ) ;
#36 = TOROIDAL_SURFACE ( 'NONE', #184, 8.899999999999998579, 8.000000000000000000 ) ;
#37 = ORIENTED_EDGE ( 'NONE', *, *, #168, .F. ) ;
#38 = ORIENTED_EDGE ( 'NONE', *, *, #168, .T. ) ;
#39 = APPROVAL_PERSON_ORGANIZATION ( #204, #143, #206 ) ;
#40 = CARTESIAN_POINT ( 'NONE',  ( 0.0000000000000000000, 0.0000000000000000000, 0.0000000000000000000 ) ) ;
#41 = DIRECTION ( 'NONE',  ( 3.491481338843133355E-15, -1.227517819005651059E-16, 1.000000000000000000 ) ) ;
#42 = CC_DESIGN_APPROVAL ( #143, ( #141 ) ) ;
#43 = CARTESIAN_POINT ( 'NONE',  ( 1.256933281983527377E-14, -0.8999999999999989120, 3.599999999999998312 ) ) ;
#44 = FACE_OUTER_BOUND ( 'NONE', #195, .T. ) ;
#45 = CARTESIAN_POINT ( 'NONE',  ( 1.326762908760390423E-13, 8.998558695971062171E-33, 38.00000000000000000 ) ) ;
#46 = CIRCLE ( 'NONE', #196, 1.199999999999997957 ) ;
#47 = DIRECTION ( 'NONE',  ( -3.491481338843133355E-15, 1.224646799147353207E-16, -1.000000000000000000 ) ) ;
#48 = DATE_AND_TIME ( #115, #50 ) ;
#49 = APPROVAL_STATUS ( 'not_yet_approved' ) ;
#50 = LOCAL_TIME ( 10, 45, 34.00000000000000000, #96 ) ;
#51 = CC_DESIGN_PERSON_AND_ORGANIZATION_ASSIGNMENT ( #67, #2, ( #140 ) ) ;
#52 = PERSON_AND_ORGANIZATION ( #88, #134 ) ;
#53 = COORDINATED_UNIVERSAL_TIME_OFFSET ( 1, 0, .AHEAD. ) ;
#54 = COORDINATED_UNIVERSAL_TIME_OFFSET ( 1, 0, .AHEAD. ) ;
#55 = ADVANCED_FACE ( 'NONE', ( #182 ), #110, .F. ) ;
#56 = CC_DESIGN_APPROVAL ( #139, ( #140 ) ) ;
#57 = APPLICATION_CONTEXT ( 'configuration controlled 3d designs of mechanical parts and assemblies' ) ;
#58 = EDGE_LOOP ( 'NONE', ( #38 ) ) ;
#59 = VERTEX_POINT ( 'NONE', #128 ) ;
#60 = CIRCLE ( 'NONE', #11, 0.8999999999999984679 ) ;
#61 = PLANE ( 'NONE',  #202 ) ;
#62 = DIRECTION ( 'NONE',  ( -4.364421517928610533E-31, -1.000000000000000000, -1.227517819005651059E-16 ) ) ;
#63 = DIRECTION ( 'NONE',  ( -3.491481338843133355E-15, 1.224646799147353207E-16, -1.000000000000000000 ) ) ;
#64 = CC_DESIGN_APPROVAL ( #121, ( #68 ) ) ;
#65 = CARTESIAN_POINT ( 'NONE',  ( 1.326762908760390423E-13, -4.653657836759941941E-15, 38.00000000000000000 ) ) ;
#66 = DIRECTION ( 'NONE',  ( 1.000000000000000000, 0.0000000000000000000, 0.0000000000000000000 ) ) ;
#67 = PERSON_AND_ORGANIZATION ( #88, #134 ) ;
#68 = SECURITY_CLASSIFICATION ( '', '', #209 ) ;
#69 = APPLICATION_PROTOCOL_DEFINITION ( 'international standard', 'config_control_design', 1994, #113 ) ;
#70 = ADVANCED_FACE ( 'NONE', ( #183, #44 ), #36, .F. ) ;
#71 = ADVANCED_FACE ( 'NONE', ( #30 ), #135, .F. ) ;
#72 = FACE_OUTER_BOUND ( 'NONE', #5, .T. ) ;
#73 = AXIS2_PLACEMENT_3D ( 'NONE', #145, #47, #93 ) ;
#74 = VERTEX_POINT ( 'NONE', #43 ) ;
#75 = AXIS2_PLACEMENT_3D ( 'NONE', #65, #146, #214 ) ;
#76 = VERTEX_POINT ( 'NONE', #9 ) ;
#77 = DIRECTION ( 'NONE',  ( -3.491481338843133355E-15, 1.224646799147353207E-16, -1.000000000000000000 ) ) ;
#78 = CYLINDRICAL_SURFACE ( 'NONE', #203, 0.8999999999999986899 ) ;
#79 = APPROVAL_STATUS ( 'not_yet_approved' ) ;
#80 = DATE_AND_TIME ( #33, #160 ) ;
#81 = EDGE_CURVE ( 'NONE', #59, #59, #101, .T. ) ;
#82 = APPROVAL_ROLE ( '' ) ;
#83 = PRODUCT_DEFINITION_SHAPE ( 'NONE', 'NONE',  #141 ) ;
#84 = VERTEX_POINT ( 'NONE', #1 ) ;
#85 = FACE_BOUND ( 'NONE', #58, .T. ) ;
#86 = ORIENTED_EDGE ( 'NONE', *, *, #147, .T. ) ;
#87 = ORIENTED_EDGE ( 'NONE', *, *, #91, .F. ) ;
#88 = PERSON ( 'UNSPECIFIED', 'UNSPECIFIED', 'UNSPECIFIED', ('UNSPECIFIED'), ('UNSPECIFIED'), ('UNSPECIFIED') ) ;
#89 = LOCAL_TIME ( 10, 45, 34.00000000000000000, #54 ) ;
#90 = CARTESIAN_POINT ( 'NONE',  ( 2.318251723926781399E-14, -3.731331124789355328E-16, 6.639736830714124238 ) ) ;
#91 = EDGE_CURVE ( 'NONE', #76, #76, #207, .T. ) ;
#92 = CARTESIAN_POINT ( 'NONE',  ( 1.326762908760390423E-13, 1.199999999999993294, 38.00000000000000000 ) ) ;
#93 = DIRECTION ( 'NONE',  ( 0.0000000000000000000, 1.000000000000000000, 0.0000000000000000000 ) ) ;
#94 = DIRECTION ( 'NONE',  ( 0.0000000000000000000, -1.000000000000000000, 0.0000000000000000000 ) ) ;
#95 = DIRECTION ( 'NONE',  ( 3.491481338843133355E-15, -1.227517819005651059E-16, 1.000000000000000000 ) ) ;
#96 = COORDINATED_UNIVERSAL_TIME_OFFSET ( 1, 0, .AHEAD. ) ;
#97 = AXIS2_PLACEMENT_3D ( 'NONE', #149, #132, #144 ) ;
#98 = APPROVAL_DATE_TIME ( #48, #143 ) ;
#99 = MANIFOLD_SOLID_BREP ( 'Corps-Déplacer/Copier1[2]', #173 ) ;
#100 = DATE_TIME_ROLE ( 'classification_date' ) ;
#101 = CIRCLE ( 'NONE', #210, 0.8999999999999984679 ) ;
#102 = EDGE_LOOP ( 'NONE', ( #213 ) ) ;
#103 = SHAPE_DEFINITION_REPRESENTATION ( #83, #169 ) ;
#104 = EDGE_LOOP ( 'NONE', ( #24 ) ) ;
#105 = ADVANCED_FACE ( 'NONE', ( #217 ), #61, .T. ) ;
#106 = DIRECTION ( 'NONE',  ( 4.275831445896958607E-31, 1.000000000000000000, 1.224646799147353207E-16 ) ) ;
#107 = EDGE_LOOP ( 'NONE', ( #123 ) ) ;
#108 = CARTESIAN_POINT ( 'NONE',  ( 1.256933281983527692E-14, -2.081668171172177191E-15, 3.599999999999999201 ) ) ;
#109 = AXIS2_PLACEMENT_3D ( 'NONE', #45, #77, #12 ) ;
#110 = PLANE ( 'NONE',  #152 ) ;
#111 = DIRECTION ( 'NONE',  ( 3.491481338843133355E-15, -1.227517819005651059E-16, 1.000000000000000000 ) ) ;
#112 = CARTESIAN_POINT ( 'NONE',  ( 1.256933281983527692E-14, -2.081668171172177191E-15, 3.599999999999999201 ) ) ;
#113 = APPLICATION_CONTEXT ( 'configuration controlled 3d designs of mechanical parts and assemblies' ) ;
#114 = VERTEX_POINT ( 'NONE', #92 ) ;
#115 = CALENDAR_DATE ( 2021, 1, 11 ) ;
#116 = DATE_TIME_ROLE ( 'creation_date' ) ;
#117 = AXIS2_PLACEMENT_3D ( 'NONE', #90, #157, #201 ) ;
#118 = PERSON_AND_ORGANIZATION_ROLE ( 'creator' ) ;
#119 = APPROVAL_STATUS ( 'not_yet_approved' ) ;
#120 = DATE_AND_TIME ( #150, #4 ) ;
#121 = APPROVAL ( #119, 'UNSPECIFIED' ) ;
#122 = CALENDAR_DATE ( 2021, 1, 11 ) ;
#123 = ORIENTED_EDGE ( 'NONE', *, *, #147, .F. ) ;
#124 = ORIENTED_EDGE ( 'NONE', *, *, #81, .T. ) ;
#125 = CIRCLE ( 'NONE', #117, 1.499999999999995781 ) ;
#126 = ORIENTED_EDGE ( 'NONE', *, *, #91, .T. ) ;
#127 = CC_DESIGN_PERSON_AND_ORGANIZATION_ASSIGNMENT ( #185, #118, ( #141 ) ) ;
#128 = CARTESIAN_POINT ( 'NONE',  ( 1.256933281983527377E-14, -0.8999999999999989120, 3.599999999999998312 ) ) ;
#129 = CONICAL_SURFACE ( 'NONE', #75, 1.199999999999997957, 0.7853981633974450594 ) ;
#130 = FACE_OUTER_BOUND ( 'NONE', #107, .T. ) ;
#131 = EDGE_CURVE ( 'NONE', #148, #148, #25, .T. ) ;
#132 = DIRECTION ( 'NONE',  ( 3.491481338843133355E-15, -1.224646799147353207E-16, 1.000000000000000000 ) ) ;
#133 = CARTESIAN_POINT ( 'NONE',  ( -3.857270002340083222E-31, -8.987882689079823035E-33, -1.104766037105084572E-16 ) ) ;
#134 = ORGANIZATION ( 'UNSPECIFIED', 'UNSPECIFIED', '' ) ;
#135 = PLANE ( 'NONE',  #97 ) ;
#136 = CARTESIAN_POINT ( 'NONE',  ( 0.0000000000000000000, 0.0000000000000000000, 0.0000000000000000000 ) ) ;
#137 = DATE_AND_TIME ( #16, #156 ) ;
#138 = AXIS2_PLACEMENT_3D ( 'NONE', #136, #208, #66 ) ;
#139 = APPROVAL ( #79, 'UNSPECIFIED' ) ;
#140 = PRODUCT_DEFINITION_FORMATION_WITH_SPECIFIED_SOURCE ( 'ANY', '', #18, .NOT_KNOWN. ) ;
#141 = PRODUCT_DEFINITION ( 'UNKNOWN', '', #140, #221 ) ;
#142 = FACE_OUTER_BOUND ( 'NONE', #175, .T. ) ;
#143 = APPROVAL ( #49, 'UNSPECIFIED' ) ;
#144 = DIRECTION ( 'NONE',  ( -4.275831445896958607E-31, -1.000000000000000000, -1.224646799147353207E-16 ) ) ;
#145 = CARTESIAN_POINT ( 'NONE',  ( 1.316288464743861212E-13, -4.616918432785521081E-15, 37.69999999999999574 ) ) ;
#146 = DIRECTION ( 'NONE',  ( -3.491481338843133355E-15, 1.224646799147353207E-16, -1.000000000000000000 ) ) ;
#147 = EDGE_CURVE ( 'NONE', #74, #74, #60, .T. ) ;
#148 = VERTEX_POINT ( 'NONE', #219 ) ;
#149 = CARTESIAN_POINT ( 'NONE',  ( -6.413803915257455362E-31, 2.249659577954771652E-32, -1.836986451539392583E-16 ) ) ;
#150 = CALENDAR_DATE ( 2021, 1, 11 ) ;
#151 = APPROVAL_DATE_TIME ( #80, #139 ) ;
#152 = AXIS2_PLACEMENT_3D ( 'NONE', #112, #216, #181 ) ;
#153 = EDGE_LOOP ( 'NONE', ( #86 ) ) ;
#154 = EDGE_LOOP ( 'NONE', ( #176 ) ) ;
#155 = CC_DESIGN_DATE_AND_TIME_ASSIGNMENT ( #120, #100, ( #68 ) ) ;
#156 = LOCAL_TIME ( 10, 45, 34.00000000000000000, #164 ) ;
#157 = DIRECTION ( 'NONE',  ( -3.491481338843133355E-15, 1.227517819005651059E-16, -1.000000000000000000 ) ) ;
#158 = CARTESIAN_POINT ( 'NONE',  ( 1.256933281983527377E-14, -4.419064148420342233E-16, 3.599999999999998312 ) ) ;
#159 = FACE_OUTER_BOUND ( 'NONE', #211, .T. ) ;
#160 = LOCAL_TIME ( 10, 45, 34.00000000000000000, #187 ) ;
#161 = FACE_OUTER_BOUND ( 'NONE', #154, .T. ) ;
#162 = DIRECTION ( 'NONE',  ( -4.285855558155653280E-31, -1.000000000000000000, -1.227517819005651059E-16 ) ) ;
#163 = ADVANCED_FACE ( 'NONE', ( #161, #130 ), #78, .T. ) ;
#164 = COORDINATED_UNIVERSAL_TIME_OFFSET ( 1, 0, .AHEAD. ) ;
#165 = CC_DESIGN_SECURITY_CLASSIFICATION ( #68, ( #140 ) ) ;
#166 = PERSON_AND_ORGANIZATION_ROLE ( 'creator' ) ;
#167 = PERSON_AND_ORGANIZATION ( #88, #134 ) ;
#168 = EDGE_CURVE ( 'NONE', #114, #114, #46, .T. ) ;
#169 = ADVANCED_BREP_SHAPE_REPRESENTATION ( '38613', ( #27, #99, #138 ), #23 ) ;
#170 = CLOSED_SHELL ( 'NONE', ( #6, #8, #177, #70, #55 ) ) ;
#171 = CYLINDRICAL_SURFACE ( 'NONE', #179, 1.499999999999995781 ) ;
#172 = APPROVAL_DATE_TIME ( #190, #121 ) ;
#173 = CLOSED_SHELL ( 'NONE', ( #105, #163, #71 ) ) ;
#174 = APPROVAL_PERSON_ORGANIZATION ( #52, #139, #82 ) ;
#175 = EDGE_LOOP ( 'NONE', ( #87 ) ) ;
#176 = ORIENTED_EDGE ( 'NONE', *, *, #131, .T. ) ;
#177 = ADVANCED_FACE ( 'NONE', ( #159 ), #26, .F. ) ;
#178 = ORIENTED_EDGE ( 'NONE', *, *, #81, .F. ) ;
#179 = AXIS2_PLACEMENT_3D ( 'NONE', #40, #194, #106 ) ;
#180 = DIRECTION ( 'NONE',  ( -4.285855558155653280E-31, -1.000000000000000000, -1.227517819005651305E-16 ) ) ;
#181 = DIRECTION ( 'NONE',  ( -4.275831445896958607E-31, -1.000000000000000000, -1.224646799147353207E-16 ) ) ;
#182 = FACE_OUTER_BOUND ( 'NONE', #192, .T. ) ;
#183 = FACE_OUTER_BOUND ( 'NONE', #7, .T. ) ;
#184 = AXIS2_PLACEMENT_3D ( 'NONE', #197, #220, #62 ) ;
#185 = PERSON_AND_ORGANIZATION ( #88, #134 ) ;
#186 = UNCERTAINTY_MEASURE_WITH_UNIT (LENGTH_MEASURE( 1.000000000000000082E-05 ), #189, 'distance_accuracy_value', 'NONE');
#187 = COORDINATED_UNIVERSAL_TIME_OFFSET ( 1, 0, .AHEAD. ) ;
#188 = PERSON_AND_ORGANIZATION ( #88, #134 ) ;
#189 =( LENGTH_UNIT ( ) NAMED_UNIT ( * ) SI_UNIT ( .MILLI., .METRE. ) );
#190 = DATE_AND_TIME ( #122, #89 ) ;
#191 = PRODUCT_RELATED_PRODUCT_CATEGORY ( 'detail', '', ( #18 ) ) ;
#192 = EDGE_LOOP ( 'NONE', ( #178 ) ) ;
#193 = APPROVAL_PERSON_ORGANIZATION ( #167, #121, #212 ) ;
#194 = DIRECTION ( 'NONE',  ( -3.491481338843133355E-15, 1.224646799147353207E-16, -1.000000000000000000 ) ) ;
#195 = EDGE_LOOP ( 'NONE', ( #22 ) ) ;
#196 = AXIS2_PLACEMENT_3D ( 'NONE', #14, #63, #198 ) ;
#197 = CARTESIAN_POINT ( 'NONE',  ( 1.256933281983527219E-14, 0.0000000000000000000, 3.599999999999997868 ) ) ;
#198 = DIRECTION ( 'NONE',  ( 0.0000000000000000000, 1.000000000000000000, 0.0000000000000000000 ) ) ;
#199 = DIRECTION ( 'NONE',  ( -4.275831445896958607E-31, -1.000000000000000000, -1.224646799147353207E-16 ) ) ;
#200 = CC_DESIGN_PERSON_AND_ORGANIZATION_ASSIGNMENT ( #223, #34, ( #68 ) ) ;
#201 = DIRECTION ( 'NONE',  ( 0.0000000000000000000, 1.000000000000000000, 0.0000000000000000000 ) ) ;
#202 = AXIS2_PLACEMENT_3D ( 'NONE', #108, #31, #199 ) ;
#203 = AXIS2_PLACEMENT_3D ( 'NONE', #15, #28, #180 ) ;
#204 = PERSON_AND_ORGANIZATION ( #88, #134 ) ;
#205 = PERSON_AND_ORGANIZATION ( #88, #134 ) ;
#206 = APPROVAL_ROLE ( '' ) ;
#207 = CIRCLE ( 'NONE', #73, 1.499999999999997558 ) ;
#208 = DIRECTION ( 'NONE',  ( 0.0000000000000000000, 0.0000000000000000000, 1.000000000000000000 ) ) ;
#209 = SECURITY_CLASSIFICATION_LEVEL ( 'unclassified' ) ;
#210 = AXIS2_PLACEMENT_3D ( 'NONE', #158, #41, #94 ) ;
#211 = EDGE_LOOP ( 'NONE', ( #37 ) ) ;
#212 = APPROVAL_ROLE ( '' ) ;
#213 = ORIENTED_EDGE ( 'NONE', *, *, #131, .F. ) ;
#214 = DIRECTION ( 'NONE',  ( 0.0000000000000000000, 1.000000000000000000, 0.0000000000000000000 ) ) ;
#215 = AXIS2_PLACEMENT_3D ( 'NONE', #133, #95, #162 ) ;
#216 = DIRECTION ( 'NONE',  ( 3.491481338843133355E-15, -1.224646799147353207E-16, 1.000000000000000000 ) ) ;
#217 = FACE_OUTER_BOUND ( 'NONE', #153, .T. ) ;
#218 = EDGE_CURVE ( 'NONE', #84, #84, #125, .T. ) ;
#219 = CARTESIAN_POINT ( 'NONE',  ( -7.714540004680166444E-31, -0.8999999999999989120, -2.209532074210169144E-16 ) ) ;
#220 = DIRECTION ( 'NONE',  ( 3.491481338843133355E-15, -1.227517819005651059E-16, 1.000000000000000000 ) ) ;
#221 = DESIGN_CONTEXT ( 'detailed design', #57, 'design' ) ;
#222 =( NAMED_UNIT ( * ) PLANE_ANGLE_UNIT ( ) SI_UNIT ( $, .RADIAN. ) );
#223 = PERSON_AND_ORGANIZATION ( #88, #134 ) ;
ENDSEC;
END-ISO-10303-21;
