ISO-10303-21;
HEADER;
FILE_DESCRIPTION (( 'STEP AP203' ),
    '1' );
FILE_NAME ('38493.step',
    '2021-11-01T09:16:09',
    ( '' ),
    ( '' ),
    'SwSTEP 2.0',
    'SolidWorks 2019',
    '' );
FILE_SCHEMA (( 'CONFIG_CONTROL_DESIGN' ));
ENDSEC;

DATA;
#1 = EDGE_LOOP ( 'NONE', ( #35 ) ) ;
#2 = FACE_OUTER_BOUND ( 'NONE', #52, .T. ) ;
#3 = SECURITY_CLASSIFICATION ( '', '', #214 ) ;
#4 = DIRECTION ( 'NONE',  ( 0.0000000000000000000, -1.000000000000000000, 0.0000000000000000000 ) ) ;
#5 = DIRECTION ( 'NONE',  ( 0.0000000000000000000, 1.000000000000000000, 0.0000000000000000000 ) ) ;
#6 = PRODUCT_RELATED_PRODUCT_CATEGORY ( 'detail', '', ( #111 ) ) ;
#7 = PRODUCT_DEFINITION_SHAPE ( 'NONE', 'NONE',  #190 ) ;
#8 = CARTESIAN_POINT ( 'NONE',  ( 1.316288464743861212E-13, -4.616918432785521081E-15, 37.69999999999999574 ) ) ;
#9 = AXIS2_PLACEMENT_3D ( 'NONE', #213, #175, #158 ) ;
#10 = APPROVAL_PERSON_ORGANIZATION ( #48, #218, #81 ) ;
#11 = COORDINATED_UNIVERSAL_TIME_OFFSET ( 1, 0, .AHEAD. ) ;
#12 = VERTEX_POINT ( 'NONE', #95 ) ;
#13 = ORGANIZATION ( 'UNSPECIFIED', 'UNSPECIFIED', '' ) ;
#14 = PERSON_AND_ORGANIZATION ( #160, #13 ) ;
#15 = ADVANCED_FACE ( 'NONE', ( #58, #60 ), #22, .F. ) ;
#16 = ADVANCED_FACE ( 'NONE', ( #21 ), #110, .T. ) ;
#17 = CALENDAR_DATE ( 2021, 1, 11 ) ;
#18 = ORIENTED_EDGE ( 'NONE', *, *, #33, .T. ) ;
#19 = CIRCLE ( 'NONE', #79, 0.9499999999999999556 ) ;
#20 = DIRECTION ( 'NONE',  ( 3.491481338843133355E-15, -1.224646799147353207E-16, 1.000000000000000000 ) ) ;
#21 = FACE_OUTER_BOUND ( 'NONE', #40, .T. ) ;
#22 = TOROIDAL_SURFACE ( 'NONE', #185, 8.949999999999999289, 8.000000000000000000 ) ;
#23 = ADVANCED_FACE ( 'NONE', ( #176, #25 ), #137, .T. ) ;
#24 = DIRECTION ( 'NONE',  ( -3.491481338843133355E-15, 1.224646799147353207E-16, -1.000000000000000000 ) ) ;
#25 = FACE_BOUND ( 'NONE', #36, .T. ) ;
#26 = DIRECTION ( 'NONE',  ( -4.285855558155651528E-31, -1.000000000000000000, -1.227517819005651059E-16 ) ) ;
#27 = AXIS2_PLACEMENT_3D ( 'NONE', #8, #156, #106 ) ;
#28 = ADVANCED_FACE ( 'NONE', ( #92 ), #78, .F. ) ;
#29 = CARTESIAN_POINT ( 'NONE',  ( 1.316288464743861212E-13, 1.499999999999991340, 37.69999999999999574 ) ) ;
#30 = APPROVAL_DATE_TIME ( #117, #218 ) ;
#31 = PRODUCT_DEFINITION_FORMATION_WITH_SPECIFIED_SOURCE ( 'ANY', '', #111, .NOT_KNOWN. ) ;
#32 = VERTEX_POINT ( 'NONE', #215 ) ;
#33 = EDGE_CURVE ( 'NONE', #12, #12, #109, .T. ) ;
#34 = CLOSED_SHELL ( 'NONE', ( #223, #23, #67, #15, #28 ) ) ;
#35 = ORIENTED_EDGE ( 'NONE', *, *, #80, .T. ) ;
#36 = EDGE_LOOP ( 'NONE', ( #205 ) ) ;
#37 = AXIS2_PLACEMENT_3D ( 'NONE', #126, #173, #44 ) ;
#38 = EDGE_CURVE ( 'NONE', #32, #32, #19, .T. ) ;
#39 = CARTESIAN_POINT ( 'NONE',  ( -4.071562780247868689E-31, -8.234482691091618427E-33, -1.166141928055367939E-16 ) ) ;
#40 = EDGE_LOOP ( 'NONE', ( #87 ) ) ;
#41 = CYLINDRICAL_SURFACE ( 'NONE', #9, 0.9499999999999996225 ) ;
#42 = APPROVAL_PERSON_ORGANIZATION ( #149, #198, #99 ) ;
#43 = DIRECTION ( 'NONE',  ( 3.491481338843133355E-15, -1.227517819005651059E-16, 1.000000000000000000 ) ) ;
#44 = DIRECTION ( 'NONE',  ( -4.275831445896958607E-31, -1.000000000000000000, -1.224646799147353207E-16 ) ) ;
#45 = EDGE_CURVE ( 'NONE', #64, #64, #140, .T. ) ;
#46 = CIRCLE ( 'NONE', #55, 1.499999999999994005 ) ;
#47 = MECHANICAL_CONTEXT ( 'NONE', #54, 'mechanical' ) ;
#48 = PERSON_AND_ORGANIZATION ( #160, #13 ) ;
#49 = APPROVAL ( #101, 'UNSPECIFIED' ) ;
#50 = APPROVAL_STATUS ( 'not_yet_approved' ) ;
#51 = EDGE_LOOP ( 'NONE', ( #191 ) ) ;
#52 = EDGE_LOOP ( 'NONE', ( #136 ) ) ;
#53 = EDGE_LOOP ( 'NONE', ( #203 ) ) ;
#54 = APPLICATION_CONTEXT ( 'configuration controlled 3d designs of mechanical parts and assemblies' ) ;
#55 = AXIS2_PLACEMENT_3D ( 'NONE', #93, #113, #174 ) ;
#56 = LOCAL_TIME ( 10, 16, 9.000000000000000000, #216 ) ;
#57 = CARTESIAN_POINT ( 'NONE',  ( 1.396592535537253342E-14, 1.124819836996386500E-32, 4.000000000000000000 ) ) ;
#58 = FACE_OUTER_BOUND ( 'NONE', #119, .T. ) ;
#59 = DIRECTION ( 'NONE',  ( -4.275831445896958607E-31, -1.000000000000000000, -1.224646799147353207E-16 ) ) ;
#60 = FACE_OUTER_BOUND ( 'NONE', #189, .T. ) ;
#61 = AXIS2_PLACEMENT_3D ( 'NONE', #211, #20, #59 ) ;
#62 = DIRECTION ( 'NONE',  ( -3.491481338843133355E-15, 1.224646799147353207E-16, -1.000000000000000000 ) ) ;
#63 = VERTEX_POINT ( 'NONE', #29 ) ;
#64 = VERTEX_POINT ( 'NONE', #150 ) ;
#65 = AXIS2_PLACEMENT_3D ( 'NONE', #195, #157, #142 ) ;
#66 = DATE_AND_TIME ( #186, #56 ) ;
#67 = ADVANCED_FACE ( 'NONE', ( #89 ), #210, .F. ) ;
#68 = APPROVAL_STATUS ( 'not_yet_approved' ) ;
#69 =( NAMED_UNIT ( * ) PLANE_ANGLE_UNIT ( ) SI_UNIT ( $, .RADIAN. ) );
#70 = COORDINATED_UNIVERSAL_TIME_OFFSET ( 1, 0, .AHEAD. ) ;
#71 = EDGE_LOOP ( 'NONE', ( #102 ) ) ;
#72 = LOCAL_TIME ( 10, 16, 9.000000000000000000, #11 ) ;
#73 = CC_DESIGN_APPROVAL ( #218, ( #31 ) ) ;
#74 = PERSON_AND_ORGANIZATION ( #160, #13 ) ;
#75 = CARTESIAN_POINT ( 'NONE',  ( 1.396592535537253027E-14, -4.910071276022603248E-16, 3.999999999999999112 ) ) ;
#76 = DIRECTION ( 'NONE',  ( 4.275831445896958607E-31, 1.000000000000000000, 1.224646799147353207E-16 ) ) ;
#77 = DIRECTION ( 'NONE',  ( 0.0000000000000000000, -1.000000000000000000, 0.0000000000000000000 ) ) ;
#78 = PLANE ( 'NONE',  #61 ) ;
#79 = AXIS2_PLACEMENT_3D ( 'NONE', #75, #107, #4 ) ;
#80 = EDGE_CURVE ( 'NONE', #63, #63, #121, .T. ) ;
#81 = APPROVAL_ROLE ( '' ) ;
#82 = VERTEX_POINT ( 'NONE', #84 ) ;
#83 = AXIS2_PLACEMENT_3D ( 'NONE', #196, #100, #199 ) ;
#84 = CARTESIAN_POINT ( 'NONE',  ( 1.326762908760390423E-13, 1.199999999999991074, 38.00000000000000000 ) ) ;
#85 = APPLICATION_PROTOCOL_DEFINITION ( 'international standard', 'config_control_design', 1994, #220 ) ;
#86 = CALENDAR_DATE ( 2021, 1, 11 ) ;
#87 = ORIENTED_EDGE ( 'NONE', *, *, #38, .T. ) ;
#88 = AXIS2_PLACEMENT_3D ( 'NONE', #57, #192, #212 ) ;
#89 = FACE_OUTER_BOUND ( 'NONE', #221, .T. ) ;
#90 = CC_DESIGN_PERSON_AND_ORGANIZATION_ASSIGNMENT ( #98, #166, ( #31 ) ) ;
#91 = CARTESIAN_POINT ( 'NONE',  ( 1.326762908760390423E-13, 8.998558695971044381E-33, 38.00000000000000000 ) ) ;
#92 = FACE_OUTER_BOUND ( 'NONE', #51, .T. ) ;
#93 = CARTESIAN_POINT ( 'NONE',  ( 2.414375814928371314E-14, -3.578272343716901798E-16, 6.915047169429667129 ) ) ;
#94 = CARTESIAN_POINT ( 'NONE',  ( 0.0000000000000000000, 0.0000000000000000000, 0.0000000000000000000 ) ) ;
#95 = CARTESIAN_POINT ( 'NONE',  ( 1.396592535537253027E-14, -0.9500000000000005107, 3.999999999999999112 ) ) ;
#96 = EDGE_CURVE ( 'NONE', #146, #146, #46, .T. ) ;
#97 = PERSON_AND_ORGANIZATION_ROLE ( 'creator' ) ;
#98 = PERSON_AND_ORGANIZATION ( #160, #13 ) ;
#99 = APPROVAL_ROLE ( '' ) ;
#100 = DIRECTION ( 'NONE',  ( 0.0000000000000000000, 0.0000000000000000000, 1.000000000000000000 ) ) ;
#101 = APPROVAL_STATUS ( 'not_yet_approved' ) ;
#102 = ORIENTED_EDGE ( 'NONE', *, *, #80, .F. ) ;
#103 = CIRCLE ( 'NONE', #65, 1.199999999999995515 ) ;
#104 = AXIS2_PLACEMENT_3D ( 'NONE', #39, #43, #26 ) ;
#105 = CC_DESIGN_SECURITY_CLASSIFICATION ( #3, ( #31 ) ) ;
#106 = DIRECTION ( 'NONE',  ( 0.0000000000000000000, 1.000000000000000000, 0.0000000000000000000 ) ) ;
#107 = DIRECTION ( 'NONE',  ( 3.491481338843133355E-15, -1.227517819005651059E-16, 1.000000000000000000 ) ) ;
#108 = MANIFOLD_SOLID_BREP ( 'Corps-Déplacer/Copier1[1]', #34 ) ;
#109 = CIRCLE ( 'NONE', #207, 0.9499999999999999556 ) ;
#110 = PLANE ( 'NONE',  #88 ) ;
#111 = PRODUCT ( '38493', '38493', '', ( #47 ) ) ;
#112 = DIRECTION ( 'NONE',  ( 4.275831445896958607E-31, 1.000000000000000000, 1.224646799147353207E-16 ) ) ;
#113 = DIRECTION ( 'NONE',  ( -3.491481338843133355E-15, 1.227517819005651059E-16, -1.000000000000000000 ) ) ;
#114 = LOCAL_TIME ( 10, 16, 9.000000000000000000, #165 ) ;
#115 = CALENDAR_DATE ( 2021, 1, 11 ) ;
#116 = CALENDAR_DATE ( 2021, 1, 11 ) ;
#117 = DATE_AND_TIME ( #116, #114 ) ;
#118 = PERSON_AND_ORGANIZATION ( #160, #13 ) ;
#119 = EDGE_LOOP ( 'NONE', ( #18 ) ) ;
#120 = ORIENTED_EDGE ( 'NONE', *, *, #38, .F. ) ;
#121 = CIRCLE ( 'NONE', #27, 1.499999999999996003 ) ;
#122 = DIRECTION ( 'NONE',  ( 3.491481338843133355E-15, -1.227517819005651059E-16, 1.000000000000000000 ) ) ;
#123 = DIRECTION ( 'NONE',  ( 3.491481338843133355E-15, -1.227517819005651059E-16, 1.000000000000000000 ) ) ;
#124 = CC_DESIGN_DATE_AND_TIME_ASSIGNMENT ( #66, #129, ( #190 ) ) ;
#125 = CARTESIAN_POINT ( 'NONE',  ( 1.326762908760390423E-13, -4.653657836759941941E-15, 38.00000000000000000 ) ) ;
#126 = CARTESIAN_POINT ( 'NONE',  ( -1.068955699180124799E-30, 3.749391872347842254E-32, -3.061610804811898009E-16 ) ) ;
#127 = CARTESIAN_POINT ( 'NONE',  ( 2.414375814928371314E-14, 1.499999999999993561, 6.915047169429667129 ) ) ;
#128 = LOCAL_TIME ( 10, 16, 9.000000000000000000, #70 ) ;
#129 = DATE_TIME_ROLE ( 'creation_date' ) ;
#130 = APPLICATION_PROTOCOL_DEFINITION ( 'international standard', 'config_control_design', 1994, #54 ) ;
#131 = PERSON_AND_ORGANIZATION_ROLE ( 'design_supplier' ) ;
#132 = CC_DESIGN_APPROVAL ( #49, ( #3 ) ) ;
#133 = SHAPE_DEFINITION_REPRESENTATION ( #7, #162 ) ;
#134 = EDGE_CURVE ( 'NONE', #82, #82, #103, .T. ) ;
#135 = PERSON_AND_ORGANIZATION_ROLE ( 'classification_officer' ) ;
#136 = ORIENTED_EDGE ( 'NONE', *, *, #96, .F. ) ;
#137 = CONICAL_SURFACE ( 'NONE', #187, 1.199999999999995515, 0.7853981633974461696 ) ;
#138 = APPROVAL_DATE_TIME ( #167, #49 ) ;
#139 = FACE_OUTER_BOUND ( 'NONE', #188, .T. ) ;
#140 = CIRCLE ( 'NONE', #104, 0.9499999999999995115 ) ;
#141 = CYLINDRICAL_SURFACE ( 'NONE', #168, 1.499999999999994005 ) ;
#142 = DIRECTION ( 'NONE',  ( 0.0000000000000000000, 1.000000000000000000, 0.0000000000000000000 ) ) ;
#143 = CC_DESIGN_PERSON_AND_ORGANIZATION_ASSIGNMENT ( #118, #97, ( #190 ) ) ;
#144 = DIRECTION ( 'NONE',  ( -4.348522919579275296E-31, -1.000000000000000000, -1.227517819005651059E-16 ) ) ;
#145 = PLANE ( 'NONE',  #37 ) ;
#146 = VERTEX_POINT ( 'NONE', #127 ) ;
#147 =( LENGTH_UNIT ( ) NAMED_UNIT ( * ) SI_UNIT ( .MILLI., .METRE. ) );
#148 =( GEOMETRIC_REPRESENTATION_CONTEXT ( 3 ) GLOBAL_UNCERTAINTY_ASSIGNED_CONTEXT ( ( #197 ) ) GLOBAL_UNIT_ASSIGNED_CONTEXT ( ( #147, #69, #183 ) ) REPRESENTATION_CONTEXT ( 'NONE', 'WORKASPACE' ) );
#149 = PERSON_AND_ORGANIZATION ( #160, #13 ) ;
#150 = CARTESIAN_POINT ( 'NONE',  ( -8.143125560495735626E-31, -0.9499999999999995115, -2.332283856110735877E-16 ) ) ;
#151 = CC_DESIGN_PERSON_AND_ORGANIZATION_ASSIGNMENT ( #74, #135, ( #3 ) ) ;
#152 = COORDINATED_UNIVERSAL_TIME_OFFSET ( 1, 0, .AHEAD. ) ;
#153 = EDGE_LOOP ( 'NONE', ( #172 ) ) ;
#154 = APPROVAL_PERSON_ORGANIZATION ( #222, #49, #201 ) ;
#155 = ADVANCED_FACE ( 'NONE', ( #193, #139 ), #41, .T. ) ;
#156 = DIRECTION ( 'NONE',  ( -3.491481338843133355E-15, 1.224646799147353207E-16, -1.000000000000000000 ) ) ;
#157 = DIRECTION ( 'NONE',  ( -3.491481338843133355E-15, 1.224646799147353207E-16, -1.000000000000000000 ) ) ;
#158 = DIRECTION ( 'NONE',  ( -4.285855558155653280E-31, -1.000000000000000000, -1.227517819005651552E-16 ) ) ;
#159 = FACE_OUTER_BOUND ( 'NONE', #53, .T. ) ;
#160 = PERSON ( 'UNSPECIFIED', 'UNSPECIFIED', 'UNSPECIFIED', ('UNSPECIFIED'), ('UNSPECIFIED'), ('UNSPECIFIED') ) ;
#161 = DIRECTION ( 'NONE',  ( -3.491481338843133355E-15, 1.224646799147353207E-16, -1.000000000000000000 ) ) ;
#162 = ADVANCED_BREP_SHAPE_REPRESENTATION ( '38493', ( #108, #177, #83 ), #148 ) ;
#163 = APPROVAL_DATE_TIME ( #181, #198 ) ;
#164 = ADVANCED_FACE ( 'NONE', ( #159 ), #145, .F. ) ;
#165 = COORDINATED_UNIVERSAL_TIME_OFFSET ( 1, 0, .AHEAD. ) ;
#166 = PERSON_AND_ORGANIZATION_ROLE ( 'creator' ) ;
#167 = DATE_AND_TIME ( #17, #200 ) ;
#168 = AXIS2_PLACEMENT_3D ( 'NONE', #94, #161, #76 ) ;
#169 = DATE_TIME_ROLE ( 'classification_date' ) ;
#170 = ORIENTED_EDGE ( 'NONE', *, *, #134, .F. ) ;
#171 = ORIENTED_EDGE ( 'NONE', *, *, #96, .T. ) ;
#172 = ORIENTED_EDGE ( 'NONE', *, *, #45, .T. ) ;
#173 = DIRECTION ( 'NONE',  ( 3.491481338843133355E-15, -1.224646799147353207E-16, 1.000000000000000000 ) ) ;
#174 = DIRECTION ( 'NONE',  ( 0.0000000000000000000, 1.000000000000000000, 0.0000000000000000000 ) ) ;
#175 = DIRECTION ( 'NONE',  ( 3.491481338843133355E-15, -1.227517819005651059E-16, 1.000000000000000000 ) ) ;
#176 = FACE_OUTER_BOUND ( 'NONE', #71, .T. ) ;
#177 = MANIFOLD_SOLID_BREP ( 'Corps-Déplacer/Copier1[2]', #202 ) ;
#178 = FACE_OUTER_BOUND ( 'NONE', #1, .T. ) ;
#179 = CC_DESIGN_DATE_AND_TIME_ASSIGNMENT ( #204, #169, ( #3 ) ) ;
#180 = PERSON_AND_ORGANIZATION_ROLE ( 'design_owner' ) ;
#181 = DATE_AND_TIME ( #115, #72 ) ;
#182 = CC_DESIGN_PERSON_AND_ORGANIZATION_ASSIGNMENT ( #14, #180, ( #111 ) ) ;
#183 =( NAMED_UNIT ( * ) SI_UNIT ( $, .STERADIAN. ) SOLID_ANGLE_UNIT ( ) );
#184 = DESIGN_CONTEXT ( 'detailed design', #220, 'design' ) ;
#185 = AXIS2_PLACEMENT_3D ( 'NONE', #206, #122, #144 ) ;
#186 = CALENDAR_DATE ( 2021, 1, 11 ) ;
#187 = AXIS2_PLACEMENT_3D ( 'NONE', #125, #24, #5 ) ;
#188 = EDGE_LOOP ( 'NONE', ( #120 ) ) ;
#189 = EDGE_LOOP ( 'NONE', ( #171 ) ) ;
#190 = PRODUCT_DEFINITION ( 'UNKNOWN', '', #31, #184 ) ;
#191 = ORIENTED_EDGE ( 'NONE', *, *, #33, .F. ) ;
#192 = DIRECTION ( 'NONE',  ( 3.491481338843133355E-15, -1.224646799147353207E-16, 1.000000000000000000 ) ) ;
#193 = FACE_OUTER_BOUND ( 'NONE', #153, .T. ) ;
#194 = CARTESIAN_POINT ( 'NONE',  ( 1.396592535537253027E-14, -4.910071276022603248E-16, 3.999999999999999112 ) ) ;
#195 = CARTESIAN_POINT ( 'NONE',  ( 1.326762908760390423E-13, -4.653657836759941941E-15, 38.00000000000000000 ) ) ;
#196 = CARTESIAN_POINT ( 'NONE',  ( 0.0000000000000000000, 0.0000000000000000000, 0.0000000000000000000 ) ) ;
#197 = UNCERTAINTY_MEASURE_WITH_UNIT (LENGTH_MEASURE( 1.000000000000000082E-05 ), #147, 'distance_accuracy_value', 'NONE');
#198 = APPROVAL ( #68, 'UNSPECIFIED' ) ;
#199 = DIRECTION ( 'NONE',  ( 1.000000000000000000, 0.0000000000000000000, 0.0000000000000000000 ) ) ;
#200 = LOCAL_TIME ( 10, 16, 9.000000000000000000, #152 ) ;
#201 = APPROVAL_ROLE ( '' ) ;
#202 = CLOSED_SHELL ( 'NONE', ( #16, #155, #164 ) ) ;
#203 = ORIENTED_EDGE ( 'NONE', *, *, #45, .F. ) ;
#204 = DATE_AND_TIME ( #86, #128 ) ;
#205 = ORIENTED_EDGE ( 'NONE', *, *, #134, .T. ) ;
#206 = CARTESIAN_POINT ( 'NONE',  ( 1.396592535537253027E-14, 0.0000000000000000000, 3.999999999999999112 ) ) ;
#207 = AXIS2_PLACEMENT_3D ( 'NONE', #194, #123, #77 ) ;
#208 = CC_DESIGN_APPROVAL ( #198, ( #190 ) ) ;
#209 = CC_DESIGN_PERSON_AND_ORGANIZATION_ASSIGNMENT ( #217, #131, ( #31 ) ) ;
#210 = PLANE ( 'NONE',  #219 ) ;
#211 = CARTESIAN_POINT ( 'NONE',  ( 1.396592535537253342E-14, 1.124819836996386500E-32, 4.000000000000000000 ) ) ;
#212 = DIRECTION ( 'NONE',  ( -4.275831445896958607E-31, -1.000000000000000000, -1.224646799147353207E-16 ) ) ;
#213 = CARTESIAN_POINT ( 'NONE',  ( -6.413731847436034514E-31, 0.0000000000000000000, -1.836965810494968570E-16 ) ) ;
#214 = SECURITY_CLASSIFICATION_LEVEL ( 'unclassified' ) ;
#215 = CARTESIAN_POINT ( 'NONE',  ( 1.396592535537253027E-14, -0.9500000000000005107, 3.999999999999999112 ) ) ;
#216 = COORDINATED_UNIVERSAL_TIME_OFFSET ( 1, 0, .AHEAD. ) ;
#217 = PERSON_AND_ORGANIZATION ( #160, #13 ) ;
#218 = APPROVAL ( #50, 'UNSPECIFIED' ) ;
#219 = AXIS2_PLACEMENT_3D ( 'NONE', #91, #62, #112 ) ;
#220 = APPLICATION_CONTEXT ( 'configuration controlled 3d designs of mechanical parts and assemblies' ) ;
#221 = EDGE_LOOP ( 'NONE', ( #170 ) ) ;
#222 = PERSON_AND_ORGANIZATION ( #160, #13 ) ;
#223 = ADVANCED_FACE ( 'NONE', ( #178, #2 ), #141, .T. ) ;
ENDSEC;
END-ISO-10303-21;
