ISO-10303-21;
HEADER;
FILE_DESCRIPTION (( 'STEP AP203' ),
    '1' );
FILE_NAME ('38491.step',
    '2021-11-01T09:16:08',
    ( '' ),
    ( '' ),
    'SwSTEP 2.0',
    'SolidWorks 2019',
    '' );
FILE_SCHEMA (( 'CONFIG_CONTROL_DESIGN' ));
ENDSEC;

DATA;
#1 = CALENDAR_DATE ( 2021, 1, 11 ) ;
#2 = DIRECTION ( 'NONE',  ( -4.364654651340399695E-31, -1.000000000000000000, -1.227517819005651059E-16 ) ) ;
#3 = AXIS2_PLACEMENT_3D ( 'NONE', #184, #29, #76 ) ;
#4 = DATE_AND_TIME ( #141, #157 ) ;
#5 = CARTESIAN_POINT ( 'NONE',  ( 1.187103655206664867E-14, 0.0000000000000000000, 3.399999999999998579 ) ) ;
#6 = CALENDAR_DATE ( 2021, 1, 11 ) ;
#7 = DIRECTION ( 'NONE',  ( -4.275831445896958607E-31, -1.000000000000000000, -1.224646799147353207E-16 ) ) ;
#8 = PERSON_AND_ORGANIZATION ( #30, #83 ) ;
#9 = DIRECTION ( 'NONE',  ( 3.491481338843133355E-15, -1.224646799147353207E-16, 1.000000000000000000 ) ) ;
#10 = CC_DESIGN_APPROVAL ( #48, ( #211 ) ) ;
#11 = EDGE_CURVE ( 'NONE', #96, #96, #161, .T. ) ;
#12 = CARTESIAN_POINT ( 'NONE',  ( 1.187103655206665025E-14, -0.8500000000000009770, 3.399999999999999023 ) ) ;
#13 = DIRECTION ( 'NONE',  ( 0.0000000000000000000, -1.000000000000000000, 0.0000000000000000000 ) ) ;
#14 = EDGE_LOOP ( 'NONE', ( #21 ) ) ;
#15 = LOCAL_TIME ( 10, 16, 8.000000000000000000, #45 ) ;
#16 = PRODUCT_RELATED_PRODUCT_CATEGORY ( 'detail', '', ( #58 ) ) ;
#17 = ORIENTED_EDGE ( 'NONE', *, *, #11, .F. ) ;
#18 = APPROVAL_STATUS ( 'not_yet_approved' ) ;
#19 = EDGE_LOOP ( 'NONE', ( #49 ) ) ;
#20 = ADVANCED_FACE ( 'NONE', ( #110, #90 ), #194, .T. ) ;
#21 = ORIENTED_EDGE ( 'NONE', *, *, #11, .T. ) ;
#22 = PERSON_AND_ORGANIZATION_ROLE ( 'design_supplier' ) ;
#23 = SECURITY_CLASSIFICATION_LEVEL ( 'unclassified' ) ;
#24 = DIRECTION ( 'NONE',  ( 4.275831445896958607E-31, 1.000000000000000000, 1.224646799147353207E-16 ) ) ;
#25 = DIRECTION ( 'NONE',  ( -3.491481338843133355E-15, 1.224646799147353207E-16, -1.000000000000000000 ) ) ;
#26 = MANIFOLD_SOLID_BREP ( 'Corps-Déplacer/Copier1[1]', #145 ) ;
#27 = FACE_OUTER_BOUND ( 'NONE', #217, .T. ) ;
#28 = VERTEX_POINT ( 'NONE', #147 ) ;
#29 = DIRECTION ( 'NONE',  ( 3.491481338843133355E-15, -1.224646799147353207E-16, 1.000000000000000000 ) ) ;
#30 = PERSON ( 'UNSPECIFIED', 'UNSPECIFIED', 'UNSPECIFIED', ('UNSPECIFIED'), ('UNSPECIFIED'), ('UNSPECIFIED') ) ;
#31 = EDGE_CURVE ( 'NONE', #126, #126, #191, .T. ) ;
#32 = AXIS2_PLACEMENT_3D ( 'NONE', #121, #38, #24 ) ;
#33 = EDGE_CURVE ( 'NONE', #28, #28, #120, .T. ) ;
#34 = EDGE_LOOP ( 'NONE', ( #17 ) ) ;
#35 = MECHANICAL_CONTEXT ( 'NONE', #100, 'mechanical' ) ;
#36 = APPROVAL_DATE_TIME ( #119, #48 ) ;
#37 = PERSON_AND_ORGANIZATION ( #30, #83 ) ;
#38 = DIRECTION ( 'NONE',  ( -3.491481338843133355E-15, 1.224646799147353207E-16, -1.000000000000000000 ) ) ;
#39 = APPROVAL_STATUS ( 'not_yet_approved' ) ;
#40 = AXIS2_PLACEMENT_3D ( 'NONE', #215, #195, #44 ) ;
#41 = APPROVAL_DATE_TIME ( #167, #213 ) ;
#42 = PRODUCT_DEFINITION ( 'UNKNOWN', '', #123, #218 ) ;
#43 = LOCAL_TIME ( 10, 16, 8.000000000000000000, #155 ) ;
#44 = DIRECTION ( 'NONE',  ( -4.275831445896958607E-31, -1.000000000000000000, -1.224646799147353207E-16 ) ) ;
#45 = COORDINATED_UNIVERSAL_TIME_OFFSET ( 1, 0, .AHEAD. ) ;
#46 = AXIS2_PLACEMENT_3D ( 'NONE', #111, #86, #93 ) ;
#47 = EDGE_LOOP ( 'NONE', ( #137 ) ) ;
#48 = APPROVAL ( #39, 'UNSPECIFIED' ) ;
#49 = ORIENTED_EDGE ( 'NONE', *, *, #97, .F. ) ;
#50 = APPROVAL_STATUS ( 'not_yet_approved' ) ;
#51 = CYLINDRICAL_SURFACE ( 'NONE', #32, 1.499999999999994005 ) ;
#52 = CC_DESIGN_DATE_AND_TIME_ASSIGNMENT ( #105, #159, ( #42 ) ) ;
#53 = DIRECTION ( 'NONE',  ( 3.491481338843133355E-15, -1.227517819005651059E-16, 1.000000000000000000 ) ) ;
#54 = DIRECTION ( 'NONE',  ( 0.0000000000000000000, 1.000000000000000000, 0.0000000000000000000 ) ) ;
#55 = COORDINATED_UNIVERSAL_TIME_OFFSET ( 1, 0, .AHEAD. ) ;
#56 = DIRECTION ( 'NONE',  ( -4.285855558155653280E-31, -1.000000000000000000, -1.227517819005651059E-16 ) ) ;
#57 = CARTESIAN_POINT ( 'NONE',  ( 1.187103655206665025E-14, -4.173560584619212219E-16, 3.399999999999999023 ) ) ;
#58 = PRODUCT ( '38491', '38491', '', ( #35 ) ) ;
#59 = FACE_OUTER_BOUND ( 'NONE', #101, .T. ) ;
#60 = CC_DESIGN_SECURITY_CLASSIFICATION ( #211, ( #123 ) ) ;
#61 = DIRECTION ( 'NONE',  ( 3.491481338843133355E-15, -1.227517819005651059E-16, 1.000000000000000000 ) ) ;
#62 = VERTEX_POINT ( 'NONE', #112 ) ;
#63 = CC_DESIGN_PERSON_AND_ORGANIZATION_ASSIGNMENT ( #71, #205, ( #211 ) ) ;
#64 = LOCAL_TIME ( 10, 16, 8.000000000000000000, #175 ) ;
#65 = DATE_TIME_ROLE ( 'classification_date' ) ;
#66 = DIRECTION ( 'NONE',  ( 3.491481338843133355E-15, -1.227517819005651059E-16, 1.000000000000000000 ) ) ;
#67 = ADVANCED_FACE ( 'NONE', ( #154, #106 ), #187, .F. ) ;
#68 = CIRCLE ( 'NONE', #172, 0.8499999999999996447 ) ;
#69 = PERSON_AND_ORGANIZATION ( #30, #83 ) ;
#70 = CC_DESIGN_PERSON_AND_ORGANIZATION_ASSIGNMENT ( #222, #22, ( #123 ) ) ;
#71 = PERSON_AND_ORGANIZATION ( #30, #83 ) ;
#72 =( LENGTH_UNIT ( ) NAMED_UNIT ( * ) SI_UNIT ( .MILLI., .METRE. ) );
#73 = ADVANCED_FACE ( 'NONE', ( #91 ), #140, .T. ) ;
#74 = AXIS2_PLACEMENT_3D ( 'NONE', #5, #53, #2 ) ;
#75 = ADVANCED_FACE ( 'NONE', ( #174, #178 ), #88, .T. ) ;
#76 = DIRECTION ( 'NONE',  ( -4.275831445896958607E-31, -1.000000000000000000, -1.224646799147353207E-16 ) ) ;
#77 = PERSON_AND_ORGANIZATION ( #30, #83 ) ;
#78 = EDGE_LOOP ( 'NONE', ( #220 ) ) ;
#79 = UNCERTAINTY_MEASURE_WITH_UNIT (LENGTH_MEASURE( 1.000000000000000082E-05 ), #72, 'distance_accuracy_value', 'NONE');
#80 =( NAMED_UNIT ( * ) SI_UNIT ( $, .STERADIAN. ) SOLID_ANGLE_UNIT ( ) );
#81 = EDGE_LOOP ( 'NONE', ( #118 ) ) ;
#82 = APPROVAL_ROLE ( '' ) ;
#83 = ORGANIZATION ( 'UNSPECIFIED', 'UNSPECIFIED', '' ) ;
#84 = ORIENTED_EDGE ( 'NONE', *, *, #162, .F. ) ;
#85 = EDGE_CURVE ( 'NONE', #62, #62, #68, .T. ) ;
#86 = DIRECTION ( 'NONE',  ( -3.491481338843133355E-15, 1.227517819005651059E-16, -1.000000000000000000 ) ) ;
#87 = DATE_AND_TIME ( #204, #43 ) ;
#88 = CYLINDRICAL_SURFACE ( 'NONE', #109, 0.8500000000000000888 ) ;
#89 = APPROVAL_ROLE ( '' ) ;
#90 = FACE_BOUND ( 'NONE', #152, .T. ) ;
#91 = FACE_OUTER_BOUND ( 'NONE', #47, .T. ) ;
#92 = PERSON_AND_ORGANIZATION_ROLE ( 'creator' ) ;
#93 = DIRECTION ( 'NONE',  ( 0.0000000000000000000, 1.000000000000000000, 0.0000000000000000000 ) ) ;
#94 = VERTEX_POINT ( 'NONE', #95 ) ;
#95 = CARTESIAN_POINT ( 'NONE',  ( 1.187103655206665025E-14, -0.8500000000000009770, 3.399999999999999023 ) ) ;
#96 = VERTEX_POINT ( 'NONE', #182 ) ;
#97 = EDGE_CURVE ( 'NONE', #94, #94, #185, .T. ) ;
#98 = MANIFOLD_SOLID_BREP ( 'Corps-Déplacer/Copier1[2]', #179 ) ;
#99 = CALENDAR_DATE ( 2021, 1, 11 ) ;
#100 = APPLICATION_CONTEXT ( 'configuration controlled 3d designs of mechanical parts and assemblies' ) ;
#101 = EDGE_LOOP ( 'NONE', ( #168 ) ) ;
#102 = APPROVAL_PERSON_ORGANIZATION ( #69, #48, #189 ) ;
#103 = APPLICATION_PROTOCOL_DEFINITION ( 'international standard', 'config_control_design', 1994, #117 ) ;
#104 = CARTESIAN_POINT ( 'NONE',  ( 0.0000000000000000000, 0.0000000000000000000, 0.0000000000000000000 ) ) ;
#105 = DATE_AND_TIME ( #6, #115 ) ;
#106 = FACE_OUTER_BOUND ( 'NONE', #81, .T. ) ;
#107 = COORDINATED_UNIVERSAL_TIME_OFFSET ( 1, 0, .AHEAD. ) ;
#108 = CARTESIAN_POINT ( 'NONE',  ( 1.326762908760390423E-13, -4.653657836759941941E-15, 38.00000000000000000 ) ) ;
#109 = AXIS2_PLACEMENT_3D ( 'NONE', #223, #142, #143 ) ;
#110 = FACE_OUTER_BOUND ( 'NONE', #34, .T. ) ;
#111 = CARTESIAN_POINT ( 'NONE',  ( 2.289964183339115088E-14, -3.877382746112936507E-16, 6.558718094417400835 ) ) ;
#112 = CARTESIAN_POINT ( 'NONE',  ( -7.285954448864607773E-31, -0.8499999999999996447, -2.086780292309605863E-16 ) ) ;
#113 = AXIS2_PLACEMENT_3D ( 'NONE', #190, #193, #54 ) ;
#114 = FACE_OUTER_BOUND ( 'NONE', #78, .T. ) ;
#115 = LOCAL_TIME ( 10, 16, 8.000000000000000000, #55 ) ;
#116 = APPLICATION_PROTOCOL_DEFINITION ( 'international standard', 'config_control_design', 1994, #100 ) ;
#117 = APPLICATION_CONTEXT ( 'configuration controlled 3d designs of mechanical parts and assemblies' ) ;
#118 = ORIENTED_EDGE ( 'NONE', *, *, #31, .T. ) ;
#119 = DATE_AND_TIME ( #1, #64 ) ;
#120 = CIRCLE ( 'NONE', #113, 1.199999999999995515 ) ;
#121 = CARTESIAN_POINT ( 'NONE',  ( 0.0000000000000000000, 0.0000000000000000000, 0.0000000000000000000 ) ) ;
#122 = DIRECTION ( 'NONE',  ( 0.0000000000000000000, 1.000000000000000000, 0.0000000000000000000 ) ) ;
#123 = PRODUCT_DEFINITION_FORMATION_WITH_SPECIFIED_SOURCE ( 'ANY', '', #58, .NOT_KNOWN. ) ;
#124 = ADVANCED_FACE ( 'NONE', ( #177, #188 ), #51, .T. ) ;
#125 =( NAMED_UNIT ( * ) PLANE_ANGLE_UNIT ( ) SI_UNIT ( $, .RADIAN. ) );
#126 = VERTEX_POINT ( 'NONE', #216 ) ;
#127 = CC_DESIGN_APPROVAL ( #213, ( #42 ) ) ;
#128 = CARTESIAN_POINT ( 'NONE',  ( 1.187103655206665025E-14, -4.173560584619212219E-16, 3.399999999999999023 ) ) ;
#129 = PLANE ( 'NONE',  #3 ) ;
#130 = CC_DESIGN_PERSON_AND_ORGANIZATION_ASSIGNMENT ( #37, #173, ( #123 ) ) ;
#131 = DIRECTION ( 'NONE',  ( 4.275831445896958607E-31, 1.000000000000000000, 1.224646799147353207E-16 ) ) ;
#132 = ADVANCED_BREP_SHAPE_REPRESENTATION ( '38491', ( #26, #98, #197 ), #169 ) ;
#133 = PERSON_AND_ORGANIZATION_ROLE ( 'design_owner' ) ;
#134 = CC_DESIGN_PERSON_AND_ORGANIZATION_ASSIGNMENT ( #208, #92, ( #42 ) ) ;
#135 = AXIS2_PLACEMENT_3D ( 'NONE', #128, #61, #13 ) ;
#136 = DIRECTION ( 'NONE',  ( 0.0000000000000000000, 0.0000000000000000000, 1.000000000000000000 ) ) ;
#137 = ORIENTED_EDGE ( 'NONE', *, *, #97, .T. ) ;
#138 = DIRECTION ( 'NONE',  ( 0.0000000000000000000, -1.000000000000000000, 0.0000000000000000000 ) ) ;
#139 = APPROVAL_PERSON_ORGANIZATION ( #8, #209, #89 ) ;
#140 = PLANE ( 'NONE',  #214 ) ;
#141 = CALENDAR_DATE ( 2021, 1, 11 ) ;
#142 = DIRECTION ( 'NONE',  ( 3.491481338843133355E-15, -1.227517819005651059E-16, 1.000000000000000000 ) ) ;
#143 = DIRECTION ( 'NONE',  ( -4.285855558155654155E-31, -1.000000000000000000, -1.227517819005651059E-16 ) ) ;
#144 = CARTESIAN_POINT ( 'NONE',  ( 1.326762908760390423E-13, 8.998558695971044381E-33, 38.00000000000000000 ) ) ;
#145 = CLOSED_SHELL ( 'NONE', ( #124, #20, #196, #67, #171 ) ) ;
#146 = PLANE ( 'NONE',  #164 ) ;
#147 = CARTESIAN_POINT ( 'NONE',  ( 1.326762908760390423E-13, 1.199999999999991074, 38.00000000000000000 ) ) ;
#148 = ORIENTED_EDGE ( 'NONE', *, *, #162, .T. ) ;
#149 = PERSON_AND_ORGANIZATION ( #30, #83 ) ;
#150 = EDGE_LOOP ( 'NONE', ( #219 ) ) ;
#151 = CC_DESIGN_APPROVAL ( #209, ( #123 ) ) ;
#152 = EDGE_LOOP ( 'NONE', ( #166 ) ) ;
#153 = SHAPE_DEFINITION_REPRESENTATION ( #192, #132 ) ;
#154 = FACE_OUTER_BOUND ( 'NONE', #203, .T. ) ;
#155 = COORDINATED_UNIVERSAL_TIME_OFFSET ( 1, 0, .AHEAD. ) ;
#156 = APPROVAL_DATE_TIME ( #87, #209 ) ;
#157 = LOCAL_TIME ( 10, 16, 8.000000000000000000, #107 ) ;
#158 = DIRECTION ( 'NONE',  ( -3.491481338843133355E-15, 1.224646799147353207E-16, -1.000000000000000000 ) ) ;
#159 = DATE_TIME_ROLE ( 'creation_date' ) ;
#160 = CARTESIAN_POINT ( 'NONE',  ( 1.187103655206665183E-14, 1.124819836996386500E-32, 3.399999999999999911 ) ) ;
#161 = CIRCLE ( 'NONE', #186, 1.499999999999996003 ) ;
#162 = EDGE_CURVE ( 'NONE', #163, #163, #181, .T. ) ;
#163 = VERTEX_POINT ( 'NONE', #12 ) ;
#164 = AXIS2_PLACEMENT_3D ( 'NONE', #144, #212, #131 ) ;
#165 = PLANE ( 'NONE',  #40 ) ;
#166 = ORIENTED_EDGE ( 'NONE', *, *, #33, .T. ) ;
#167 = DATE_AND_TIME ( #99, #15 ) ;
#168 = ORIENTED_EDGE ( 'NONE', *, *, #85, .F. ) ;
#169 =( GEOMETRIC_REPRESENTATION_CONTEXT ( 3 ) GLOBAL_UNCERTAINTY_ASSIGNED_CONTEXT ( ( #79 ) ) GLOBAL_UNIT_ASSIGNED_CONTEXT ( ( #72, #125, #80 ) ) REPRESENTATION_CONTEXT ( 'NONE', 'WORKASPACE' ) );
#170 = DIRECTION ( 'NONE',  ( 1.000000000000000000, 0.0000000000000000000, 0.0000000000000000000 ) ) ;
#171 = ADVANCED_FACE ( 'NONE', ( #27 ), #165, .F. ) ;
#172 = AXIS2_PLACEMENT_3D ( 'NONE', #207, #66, #56 ) ;
#173 = PERSON_AND_ORGANIZATION_ROLE ( 'creator' ) ;
#174 = FACE_OUTER_BOUND ( 'NONE', #200, .T. ) ;
#175 = COORDINATED_UNIVERSAL_TIME_OFFSET ( 1, 0, .AHEAD. ) ;
#176 = CC_DESIGN_PERSON_AND_ORGANIZATION_ASSIGNMENT ( #77, #133, ( #58 ) ) ;
#177 = FACE_OUTER_BOUND ( 'NONE', #14, .T. ) ;
#178 = FACE_OUTER_BOUND ( 'NONE', #19, .T. ) ;
#179 = CLOSED_SHELL ( 'NONE', ( #73, #75, #199 ) ) ;
#180 = DIRECTION ( 'NONE',  ( 0.0000000000000000000, 1.000000000000000000, 0.0000000000000000000 ) ) ;
#181 = CIRCLE ( 'NONE', #135, 0.8500000000000005329 ) ;
#182 = CARTESIAN_POINT ( 'NONE',  ( 1.316288464743861212E-13, 1.499999999999991340, 37.69999999999999574 ) ) ;
#183 = CC_DESIGN_DATE_AND_TIME_ASSIGNMENT ( #4, #65, ( #211 ) ) ;
#184 = CARTESIAN_POINT ( 'NONE',  ( -1.068955699180124799E-30, 3.749391872347842254E-32, -3.061610804811898009E-16 ) ) ;
#185 = CIRCLE ( 'NONE', #202, 0.8500000000000005329 ) ;
#186 = AXIS2_PLACEMENT_3D ( 'NONE', #206, #158, #122 ) ;
#187 = TOROIDAL_SURFACE ( 'NONE', #74, 8.849999999999999645, 8.000000000000000000 ) ;
#188 = FACE_OUTER_BOUND ( 'NONE', #150, .T. ) ;
#189 = APPROVAL_ROLE ( '' ) ;
#190 = CARTESIAN_POINT ( 'NONE',  ( 1.326762908760390423E-13, -4.653657836759941941E-15, 38.00000000000000000 ) ) ;
#191 = CIRCLE ( 'NONE', #46, 1.499999999999994005 ) ;
#192 = PRODUCT_DEFINITION_SHAPE ( 'NONE', 'NONE',  #42 ) ;
#193 = DIRECTION ( 'NONE',  ( -3.491481338843133355E-15, 1.224646799147353207E-16, -1.000000000000000000 ) ) ;
#194 = CONICAL_SURFACE ( 'NONE', #201, 1.199999999999995515, 0.7853981633974461696 ) ;
#195 = DIRECTION ( 'NONE',  ( 3.491481338843133355E-15, -1.224646799147353207E-16, 1.000000000000000000 ) ) ;
#196 = ADVANCED_FACE ( 'NONE', ( #114 ), #146, .F. ) ;
#197 = AXIS2_PLACEMENT_3D ( 'NONE', #104, #136, #170 ) ;
#198 = ORIENTED_EDGE ( 'NONE', *, *, #85, .T. ) ;
#199 = ADVANCED_FACE ( 'NONE', ( #59 ), #129, .F. ) ;
#200 = EDGE_LOOP ( 'NONE', ( #198 ) ) ;
#201 = AXIS2_PLACEMENT_3D ( 'NONE', #108, #25, #180 ) ;
#202 = AXIS2_PLACEMENT_3D ( 'NONE', #57, #210, #138 ) ;
#203 = EDGE_LOOP ( 'NONE', ( #148 ) ) ;
#204 = CALENDAR_DATE ( 2021, 1, 11 ) ;
#205 = PERSON_AND_ORGANIZATION_ROLE ( 'classification_officer' ) ;
#206 = CARTESIAN_POINT ( 'NONE',  ( 1.316288464743861212E-13, -4.616918432785521081E-15, 37.69999999999999574 ) ) ;
#207 = CARTESIAN_POINT ( 'NONE',  ( -3.642977224432303886E-31, -9.741282687068007117E-33, -1.043390146154802931E-16 ) ) ;
#208 = PERSON_AND_ORGANIZATION ( #30, #83 ) ;
#209 = APPROVAL ( #50, 'UNSPECIFIED' ) ;
#210 = DIRECTION ( 'NONE',  ( 3.491481338843133355E-15, -1.227517819005651059E-16, 1.000000000000000000 ) ) ;
#211 = SECURITY_CLASSIFICATION ( '', '', #23 ) ;
#212 = DIRECTION ( 'NONE',  ( -3.491481338843133355E-15, 1.224646799147353207E-16, -1.000000000000000000 ) ) ;
#213 = APPROVAL ( #18, 'UNSPECIFIED' ) ;
#214 = AXIS2_PLACEMENT_3D ( 'NONE', #160, #9, #7 ) ;
#215 = CARTESIAN_POINT ( 'NONE',  ( 1.187103655206665183E-14, 1.124819836996386500E-32, 3.399999999999999911 ) ) ;
#216 = CARTESIAN_POINT ( 'NONE',  ( 2.289964183339115088E-14, 1.499999999999993561, 6.558718094417400835 ) ) ;
#217 = EDGE_LOOP ( 'NONE', ( #84 ) ) ;
#218 = DESIGN_CONTEXT ( 'detailed design', #117, 'design' ) ;
#219 = ORIENTED_EDGE ( 'NONE', *, *, #31, .F. ) ;
#220 = ORIENTED_EDGE ( 'NONE', *, *, #33, .F. ) ;
#221 = APPROVAL_PERSON_ORGANIZATION ( #149, #213, #82 ) ;
#222 = PERSON_AND_ORGANIZATION ( #30, #83 ) ;
#223 = CARTESIAN_POINT ( 'NONE',  ( -6.413731847436034514E-31, 0.0000000000000000000, -1.836965810494968570E-16 ) ) ;
ENDSEC;
END-ISO-10303-21;
