ISO-10303-21;
HEADER;
FILE_DESCRIPTION (( 'STEP AP203' ),
    '1' );
FILE_NAME ('38490.step',
    '2021-11-01T09:16:08',
    ( '' ),
    ( '' ),
    'SwSTEP 2.0',
    'SolidWorks 2019',
    '' );
FILE_SCHEMA (( 'CONFIG_CONTROL_DESIGN' ));
ENDSEC;

DATA;
#1 = LOCAL_TIME ( 10, 16, 8.000000000000000000, #193 ) ;
#2 = CARTESIAN_POINT ( 'NONE',  ( 0.0000000000000000000, 0.0000000000000000000, 0.0000000000000000000 ) ) ;
#3 = ADVANCED_BREP_SHAPE_REPRESENTATION ( '38490', ( #217, #149, #85 ), #153 ) ;
#4 = COORDINATED_UNIVERSAL_TIME_OFFSET ( 1, 0, .AHEAD. ) ;
#5 = FACE_OUTER_BOUND ( 'NONE', #151, .T. ) ;
#6 = AXIS2_PLACEMENT_3D ( 'NONE', #66, #99, #171 ) ;
#7 = EDGE_LOOP ( 'NONE', ( #183 ) ) ;
#8 = EDGE_LOOP ( 'NONE', ( #112 ) ) ;
#9 = ADVANCED_FACE ( 'NONE', ( #5 ), #128, .F. ) ;
#10 = DIRECTION ( 'NONE',  ( 3.491481338843133355E-15, -1.224646799147353207E-16, 1.000000000000000000 ) ) ;
#11 = DIRECTION ( 'NONE',  ( 3.491481338843133355E-15, -1.224646799147353207E-16, 1.000000000000000000 ) ) ;
#12 = DIRECTION ( 'NONE',  ( 4.275831445896958607E-31, 1.000000000000000000, 1.224646799147353207E-16 ) ) ;
#13 = AXIS2_PLACEMENT_3D ( 'NONE', #118, #11, #31 ) ;
#14 = VERTEX_POINT ( 'NONE', #158 ) ;
#15 = DIRECTION ( 'NONE',  ( 0.0000000000000000000, 1.000000000000000000, 0.0000000000000000000 ) ) ;
#16 = ADVANCED_FACE ( 'NONE', ( #109, #177 ), #75, .T. ) ;
#17 = APPROVAL_ROLE ( '' ) ;
#18 = AXIS2_PLACEMENT_3D ( 'NONE', #139, #84, #205 ) ;
#19 = APPLICATION_PROTOCOL_DEFINITION ( 'international standard', 'config_control_design', 1994, #20 ) ;
#20 = APPLICATION_CONTEXT ( 'configuration controlled 3d designs of mechanical parts and assemblies' ) ;
#21 = AXIS2_PLACEMENT_3D ( 'NONE', #116, #154, #168 ) ;
#22 = APPROVAL_ROLE ( '' ) ;
#23 = ADVANCED_FACE ( 'NONE', ( #30 ), #27, .T. ) ;
#24 = CALENDAR_DATE ( 2021, 1, 11 ) ;
#25 = AXIS2_PLACEMENT_3D ( 'NONE', #117, #47, #50 ) ;
#26 = EDGE_LOOP ( 'NONE', ( #62 ) ) ;
#27 = PLANE ( 'NONE',  #92 ) ;
#28 = DIRECTION ( 'NONE',  ( 3.491481338843133355E-15, -1.227517819005651059E-16, 1.000000000000000000 ) ) ;
#29 = DIRECTION ( 'NONE',  ( -4.285855558155653280E-31, -1.000000000000000000, -1.227517819005651305E-16 ) ) ;
#30 = FACE_OUTER_BOUND ( 'NONE', #218, .T. ) ;
#31 = DIRECTION ( 'NONE',  ( -4.275831445896958607E-31, -1.000000000000000000, -1.224646799147353207E-16 ) ) ;
#32 =( NAMED_UNIT ( * ) PLANE_ANGLE_UNIT ( ) SI_UNIT ( $, .RADIAN. ) );
#33 = AXIS2_PLACEMENT_3D ( 'NONE', #38, #206, #15 ) ;
#34 = VERTEX_POINT ( 'NONE', #106 ) ;
#35 = PRODUCT ( '38490', '38490', '', ( #145 ) ) ;
#36 = DIRECTION ( 'NONE',  ( -3.491481338843133355E-15, 1.224646799147353207E-16, -1.000000000000000000 ) ) ;
#37 = CIRCLE ( 'NONE', #21, 0.8000000000000008216 ) ;
#38 = CARTESIAN_POINT ( 'NONE',  ( 1.326762908760390423E-13, -4.653657836759941941E-15, 38.00000000000000000 ) ) ;
#39 = APPROVAL_ROLE ( '' ) ;
#40 = EDGE_LOOP ( 'NONE', ( #199 ) ) ;
#41 = APPROVAL_PERSON_ORGANIZATION ( #160, #78, #39 ) ;
#42 = AXIS2_PLACEMENT_3D ( 'NONE', #98, #80, #114 ) ;
#43 = DIRECTION ( 'NONE',  ( -4.364889172451069102E-31, -1.000000000000000000, -1.227517819005651059E-16 ) ) ;
#44 = CC_DESIGN_DATE_AND_TIME_ASSIGNMENT ( #194, #101, ( #147 ) ) ;
#45 = DIRECTION ( 'NONE',  ( -3.491481338843133355E-15, 1.224646799147353207E-16, -1.000000000000000000 ) ) ;
#46 = PRODUCT_DEFINITION_SHAPE ( 'NONE', 'NONE',  #144 ) ;
#47 = DIRECTION ( 'NONE',  ( 3.491481338843133355E-15, -1.224646799147353207E-16, 1.000000000000000000 ) ) ;
#48 = LOCAL_TIME ( 10, 16, 8.000000000000000000, #55 ) ;
#49 = CARTESIAN_POINT ( 'NONE',  ( 1.326762908760390423E-13, -4.653657836759941941E-15, 38.00000000000000000 ) ) ;
#50 = DIRECTION ( 'NONE',  ( -4.275831445896958607E-31, -1.000000000000000000, -1.224646799147353207E-16 ) ) ;
#51 = PERSON_AND_ORGANIZATION_ROLE ( 'creator' ) ;
#52 = APPROVAL_PERSON_ORGANIZATION ( #191, #200, #17 ) ;
#53 =( LENGTH_UNIT ( ) NAMED_UNIT ( * ) SI_UNIT ( .MILLI., .METRE. ) );
#54 = APPROVAL_DATE_TIME ( #74, #119 ) ;
#55 = COORDINATED_UNIVERSAL_TIME_OFFSET ( 1, 0, .AHEAD. ) ;
#56 = EDGE_CURVE ( 'NONE', #136, #136, #121, .T. ) ;
#57 = COORDINATED_UNIVERSAL_TIME_OFFSET ( 1, 0, .AHEAD. ) ;
#58 = ORIENTED_EDGE ( 'NONE', *, *, #222, .T. ) ;
#59 = DATE_AND_TIME ( #197, #150 ) ;
#60 = ORIENTED_EDGE ( 'NONE', *, *, #204, .T. ) ;
#61 = PRODUCT_DEFINITION_FORMATION_WITH_SPECIFIED_SOURCE ( 'ANY', '', #35, .NOT_KNOWN. ) ;
#62 = ORIENTED_EDGE ( 'NONE', *, *, #115, .T. ) ;
#63 = AXIS2_PLACEMENT_3D ( 'NONE', #126, #36, #195 ) ;
#64 = CC_DESIGN_PERSON_AND_ORGANIZATION_ASSIGNMENT ( #87, #91, ( #61 ) ) ;
#65 = AXIS2_PLACEMENT_3D ( 'NONE', #157, #28, #43 ) ;
#66 = CARTESIAN_POINT ( 'NONE',  ( -3.428684446524520609E-31, -1.049468268505620488E-32, -9.820142552045201813E-17 ) ) ;
#67 = FACE_OUTER_BOUND ( 'NONE', #8, .T. ) ;
#68 = CARTESIAN_POINT ( 'NONE',  ( 1.316288464743861212E-13, 1.499999999999991340, 37.69999999999999574 ) ) ;
#69 = ORGANIZATION ( 'UNSPECIFIED', 'UNSPECIFIED', '' ) ;
#70 = ADVANCED_FACE ( 'NONE', ( #221, #159 ), #186, .T. ) ;
#71 = DIRECTION ( 'NONE',  ( 0.0000000000000000000, -1.000000000000000000, 0.0000000000000000000 ) ) ;
#72 =( NAMED_UNIT ( * ) SI_UNIT ( $, .STERADIAN. ) SOLID_ANGLE_UNIT ( ) );
#73 = PERSON_AND_ORGANIZATION ( #214, #69 ) ;
#74 = DATE_AND_TIME ( #210, #129 ) ;
#75 = CONICAL_SURFACE ( 'NONE', #33, 1.199999999999995515, 0.7853981633974461696 ) ;
#76 = ORIENTED_EDGE ( 'NONE', *, *, #204, .F. ) ;
#77 = ORIENTED_EDGE ( 'NONE', *, *, #56, .F. ) ;
#78 = APPROVAL ( #182, 'UNSPECIFIED' ) ;
#79 = FACE_OUTER_BOUND ( 'NONE', #180, .T. ) ;
#80 = DIRECTION ( 'NONE',  ( -3.491481338843133355E-15, 1.224646799147353207E-16, -1.000000000000000000 ) ) ;
#81 = AXIS2_PLACEMENT_3D ( 'NONE', #2, #45, #12 ) ;
#82 = PLANE ( 'NONE',  #25 ) ;
#83 = CARTESIAN_POINT ( 'NONE',  ( 1.117274028429802516E-14, -3.928057020818082697E-16, 3.199999999999999289 ) ) ;
#84 = DIRECTION ( 'NONE',  ( -3.491481338843133355E-15, 1.227517819005651059E-16, -1.000000000000000000 ) ) ;
#85 = AXIS2_PLACEMENT_3D ( 'NONE', #105, #141, #212 ) ;
#86 = APPROVAL_STATUS ( 'not_yet_approved' ) ;
#87 = PERSON_AND_ORGANIZATION ( #214, #69 ) ;
#88 = CC_DESIGN_PERSON_AND_ORGANIZATION_ASSIGNMENT ( #125, #123, ( #147 ) ) ;
#89 = APPROVAL_STATUS ( 'not_yet_approved' ) ;
#90 = APPROVAL_PERSON_ORGANIZATION ( #190, #119, #22 ) ;
#91 = PERSON_AND_ORGANIZATION_ROLE ( 'design_supplier' ) ;
#92 = AXIS2_PLACEMENT_3D ( 'NONE', #100, #10, #188 ) ;
#93 = ORIENTED_EDGE ( 'NONE', *, *, #208, .F. ) ;
#94 = EDGE_CURVE ( 'NONE', #185, #185, #135, .T. ) ;
#95 = EDGE_LOOP ( 'NONE', ( #166 ) ) ;
#96 = ADVANCED_FACE ( 'NONE', ( #220 ), #82, .F. ) ;
#97 = FACE_OUTER_BOUND ( 'NONE', #95, .T. ) ;
#98 = CARTESIAN_POINT ( 'NONE',  ( 1.316288464743861212E-13, -4.616918432785521081E-15, 37.69999999999999574 ) ) ;
#99 = DIRECTION ( 'NONE',  ( 3.491481338843133355E-15, -1.227517819005651059E-16, 1.000000000000000000 ) ) ;
#100 = CARTESIAN_POINT ( 'NONE',  ( 1.117274028429802674E-14, 1.124819836996386500E-32, 3.200000000000000178 ) ) ;
#101 = DATE_TIME_ROLE ( 'classification_date' ) ;
#102 = CC_DESIGN_APPROVAL ( #78, ( #147 ) ) ;
#103 = ADVANCED_FACE ( 'NONE', ( #79, #67 ), #152, .T. ) ;
#104 = PERSON_AND_ORGANIZATION ( #214, #69 ) ;
#105 = CARTESIAN_POINT ( 'NONE',  ( 0.0000000000000000000, 0.0000000000000000000, 0.0000000000000000000 ) ) ;
#106 = CARTESIAN_POINT ( 'NONE',  ( 1.117274028429802516E-14, -0.8000000000000012657, 3.199999999999999289 ) ) ;
#107 = CC_DESIGN_APPROVAL ( #200, ( #144 ) ) ;
#108 = CALENDAR_DATE ( 2021, 1, 11 ) ;
#109 = FACE_OUTER_BOUND ( 'NONE', #216, .T. ) ;
#110 = AXIS2_PLACEMENT_3D ( 'NONE', #187, #219, #29 ) ;
#111 = APPROVAL_DATE_TIME ( #59, #78 ) ;
#112 = ORIENTED_EDGE ( 'NONE', *, *, #222, .F. ) ;
#113 = FACE_OUTER_BOUND ( 'NONE', #198, .T. ) ;
#114 = DIRECTION ( 'NONE',  ( 0.0000000000000000000, 1.000000000000000000, 0.0000000000000000000 ) ) ;
#115 = EDGE_CURVE ( 'NONE', #14, #14, #156, .T. ) ;
#116 = CARTESIAN_POINT ( 'NONE',  ( 1.117274028429802516E-14, -3.928057020818082697E-16, 3.199999999999999289 ) ) ;
#117 = CARTESIAN_POINT ( 'NONE',  ( 1.117274028429802674E-14, 1.124819836996386500E-32, 3.200000000000000178 ) ) ;
#118 = CARTESIAN_POINT ( 'NONE',  ( -1.068955699180124799E-30, 3.749391872347842254E-32, -3.061610804811898009E-16 ) ) ;
#119 = APPROVAL ( #86, 'UNSPECIFIED' ) ;
#120 = DATE_AND_TIME ( #24, #178 ) ;
#121 = CIRCLE ( 'NONE', #18, 1.499999999999994005 ) ;
#122 = CALENDAR_DATE ( 2021, 1, 11 ) ;
#123 = PERSON_AND_ORGANIZATION_ROLE ( 'classification_officer' ) ;
#124 = PRODUCT_RELATED_PRODUCT_CATEGORY ( 'detail', '', ( #35 ) ) ;
#125 = PERSON_AND_ORGANIZATION ( #214, #69 ) ;
#126 = CARTESIAN_POINT ( 'NONE',  ( 1.326762908760390423E-13, 8.998558695971044381E-33, 38.00000000000000000 ) ) ;
#127 = CC_DESIGN_PERSON_AND_ORGANIZATION_ASSIGNMENT ( #73, #51, ( #144 ) ) ;
#128 = PLANE ( 'NONE',  #63 ) ;
#129 = LOCAL_TIME ( 10, 16, 8.000000000000000000, #4 ) ;
#130 = EDGE_LOOP ( 'NONE', ( #60 ) ) ;
#131 = CLOSED_SHELL ( 'NONE', ( #70, #16, #9, #140, #96 ) ) ;
#132 = EDGE_LOOP ( 'NONE', ( #77 ) ) ;
#133 = DIRECTION ( 'NONE',  ( 3.491481338843133355E-15, -1.227517819005651059E-16, 1.000000000000000000 ) ) ;
#134 = DESIGN_CONTEXT ( 'detailed design', #20, 'design' ) ;
#135 = CIRCLE ( 'NONE', #148, 1.199999999999995515 ) ;
#136 = VERTEX_POINT ( 'NONE', #202 ) ;
#137 = DIRECTION ( 'NONE',  ( -3.491481338843133355E-15, 1.224646799147353207E-16, -1.000000000000000000 ) ) ;
#138 = CLOSED_SHELL ( 'NONE', ( #23, #103, #196 ) ) ;
#139 = CARTESIAN_POINT ( 'NONE',  ( 2.259900971801676072E-14, -4.017191550935429310E-16, 6.472613634390699922 ) ) ;
#140 = ADVANCED_FACE ( 'NONE', ( #184, #97 ), #165, .F. ) ;
#141 = DIRECTION ( 'NONE',  ( 0.0000000000000000000, 0.0000000000000000000, 1.000000000000000000 ) ) ;
#142 = COORDINATED_UNIVERSAL_TIME_OFFSET ( 1, 0, .AHEAD. ) ;
#143 = DATE_TIME_ROLE ( 'creation_date' ) ;
#144 = PRODUCT_DEFINITION ( 'UNKNOWN', '', #61, #134 ) ;
#145 = MECHANICAL_CONTEXT ( 'NONE', #169, 'mechanical' ) ;
#146 = PERSON_AND_ORGANIZATION_ROLE ( 'creator' ) ;
#147 = SECURITY_CLASSIFICATION ( '', '', #162 ) ;
#148 = AXIS2_PLACEMENT_3D ( 'NONE', #49, #137, #203 ) ;
#149 = MANIFOLD_SOLID_BREP ( 'Corps-Déplacer/Copier1[2]', #138 ) ;
#150 = LOCAL_TIME ( 10, 16, 8.000000000000000000, #57 ) ;
#151 = EDGE_LOOP ( 'NONE', ( #179 ) ) ;
#152 = CYLINDRICAL_SURFACE ( 'NONE', #110, 0.8000000000000001554 ) ;
#153 =( GEOMETRIC_REPRESENTATION_CONTEXT ( 3 ) GLOBAL_UNCERTAINTY_ASSIGNED_CONTEXT ( ( #155 ) ) GLOBAL_UNIT_ASSIGNED_CONTEXT ( ( #53, #32, #72 ) ) REPRESENTATION_CONTEXT ( 'NONE', 'WORKASPACE' ) );
#154 = DIRECTION ( 'NONE',  ( 3.491481338843133355E-15, -1.227517819005651059E-16, 1.000000000000000000 ) ) ;
#155 = UNCERTAINTY_MEASURE_WITH_UNIT (LENGTH_MEASURE( 1.000000000000000082E-05 ), #53, 'distance_accuracy_value', 'NONE');
#156 = CIRCLE ( 'NONE', #209, 0.8000000000000008216 ) ;
#157 = CARTESIAN_POINT ( 'NONE',  ( 1.117274028429802516E-14, 0.0000000000000000000, 3.199999999999999289 ) ) ;
#158 = CARTESIAN_POINT ( 'NONE',  ( 1.117274028429802516E-14, -0.8000000000000012657, 3.199999999999999289 ) ) ;
#159 = FACE_OUTER_BOUND ( 'NONE', #132, .T. ) ;
#160 = PERSON_AND_ORGANIZATION ( #214, #69 ) ;
#161 = APPROVAL_DATE_TIME ( #120, #200 ) ;
#162 = SECURITY_CLASSIFICATION_LEVEL ( 'unclassified' ) ;
#163 = PERSON_AND_ORGANIZATION ( #214, #69 ) ;
#164 = CC_DESIGN_DATE_AND_TIME_ASSIGNMENT ( #211, #143, ( #144 ) ) ;
#165 = TOROIDAL_SURFACE ( 'NONE', #65, 8.800000000000000711, 8.000000000000000000 ) ;
#166 = ORIENTED_EDGE ( 'NONE', *, *, #56, .T. ) ;
#167 = ORIENTED_EDGE ( 'NONE', *, *, #208, .T. ) ;
#168 = DIRECTION ( 'NONE',  ( 0.0000000000000000000, -1.000000000000000000, 0.0000000000000000000 ) ) ;
#169 = APPLICATION_CONTEXT ( 'configuration controlled 3d designs of mechanical parts and assemblies' ) ;
#170 = PLANE ( 'NONE',  #13 ) ;
#171 = DIRECTION ( 'NONE',  ( -4.285855558155653280E-31, -1.000000000000000000, -1.227517819005651059E-16 ) ) ;
#172 = CARTESIAN_POINT ( 'NONE',  ( 1.326762908760390423E-13, 1.199999999999991074, 38.00000000000000000 ) ) ;
#173 = CARTESIAN_POINT ( 'NONE',  ( -6.857368893049041218E-31, -0.7999999999999994893, -1.964028510409040363E-16 ) ) ;
#174 = CIRCLE ( 'NONE', #6, 0.7999999999999994893 ) ;
#175 = PERSON_AND_ORGANIZATION_ROLE ( 'design_owner' ) ;
#176 = CC_DESIGN_APPROVAL ( #119, ( #61 ) ) ;
#177 = FACE_BOUND ( 'NONE', #40, .T. ) ;
#178 = LOCAL_TIME ( 10, 16, 8.000000000000000000, #142 ) ;
#179 = ORIENTED_EDGE ( 'NONE', *, *, #94, .F. ) ;
#180 = EDGE_LOOP ( 'NONE', ( #167 ) ) ;
#181 = CC_DESIGN_PERSON_AND_ORGANIZATION_ASSIGNMENT ( #163, #175, ( #35 ) ) ;
#182 = APPROVAL_STATUS ( 'not_yet_approved' ) ;
#183 = ORIENTED_EDGE ( 'NONE', *, *, #115, .F. ) ;
#184 = FACE_OUTER_BOUND ( 'NONE', #26, .T. ) ;
#185 = VERTEX_POINT ( 'NONE', #172 ) ;
#186 = CYLINDRICAL_SURFACE ( 'NONE', #81, 1.499999999999994005 ) ;
#187 = CARTESIAN_POINT ( 'NONE',  ( -6.413731847436034514E-31, 0.0000000000000000000, -1.836965810494968570E-16 ) ) ;
#188 = DIRECTION ( 'NONE',  ( -4.275831445896958607E-31, -1.000000000000000000, -1.224646799147353207E-16 ) ) ;
#189 = CC_DESIGN_SECURITY_CLASSIFICATION ( #147, ( #61 ) ) ;
#190 = PERSON_AND_ORGANIZATION ( #214, #69 ) ;
#191 = PERSON_AND_ORGANIZATION ( #214, #69 ) ;
#192 = VERTEX_POINT ( 'NONE', #173 ) ;
#193 = COORDINATED_UNIVERSAL_TIME_OFFSET ( 1, 0, .AHEAD. ) ;
#194 = DATE_AND_TIME ( #108, #1 ) ;
#195 = DIRECTION ( 'NONE',  ( 4.275831445896958607E-31, 1.000000000000000000, 1.224646799147353207E-16 ) ) ;
#196 = ADVANCED_FACE ( 'NONE', ( #113 ), #170, .F. ) ;
#197 = CALENDAR_DATE ( 2021, 1, 11 ) ;
#198 = EDGE_LOOP ( 'NONE', ( #93 ) ) ;
#199 = ORIENTED_EDGE ( 'NONE', *, *, #94, .T. ) ;
#200 = APPROVAL ( #89, 'UNSPECIFIED' ) ;
#201 = CIRCLE ( 'NONE', #42, 1.499999999999996003 ) ;
#202 = CARTESIAN_POINT ( 'NONE',  ( 2.259900971801676072E-14, 1.499999999999993561, 6.472613634390699922 ) ) ;
#203 = DIRECTION ( 'NONE',  ( 0.0000000000000000000, 1.000000000000000000, 0.0000000000000000000 ) ) ;
#204 = EDGE_CURVE ( 'NONE', #223, #223, #201, .T. ) ;
#205 = DIRECTION ( 'NONE',  ( 0.0000000000000000000, 1.000000000000000000, 0.0000000000000000000 ) ) ;
#206 = DIRECTION ( 'NONE',  ( -3.491481338843133355E-15, 1.224646799147353207E-16, -1.000000000000000000 ) ) ;
#207 = APPLICATION_PROTOCOL_DEFINITION ( 'international standard', 'config_control_design', 1994, #169 ) ;
#208 = EDGE_CURVE ( 'NONE', #192, #192, #174, .T. ) ;
#209 = AXIS2_PLACEMENT_3D ( 'NONE', #83, #133, #71 ) ;
#210 = CALENDAR_DATE ( 2021, 1, 11 ) ;
#211 = DATE_AND_TIME ( #122, #48 ) ;
#212 = DIRECTION ( 'NONE',  ( 1.000000000000000000, 0.0000000000000000000, 0.0000000000000000000 ) ) ;
#213 = CC_DESIGN_PERSON_AND_ORGANIZATION_ASSIGNMENT ( #104, #146, ( #61 ) ) ;
#214 = PERSON ( 'UNSPECIFIED', 'UNSPECIFIED', 'UNSPECIFIED', ('UNSPECIFIED'), ('UNSPECIFIED'), ('UNSPECIFIED') ) ;
#215 = SHAPE_DEFINITION_REPRESENTATION ( #46, #3 ) ;
#216 = EDGE_LOOP ( 'NONE', ( #76 ) ) ;
#217 = MANIFOLD_SOLID_BREP ( 'Corps-Déplacer/Copier1[1]', #131 ) ;
#218 = EDGE_LOOP ( 'NONE', ( #58 ) ) ;
#219 = DIRECTION ( 'NONE',  ( 3.491481338843133355E-15, -1.227517819005651059E-16, 1.000000000000000000 ) ) ;
#220 = FACE_OUTER_BOUND ( 'NONE', #7, .T. ) ;
#221 = FACE_OUTER_BOUND ( 'NONE', #130, .T. ) ;
#222 = EDGE_CURVE ( 'NONE', #34, #34, #37, .T. ) ;
#223 = VERTEX_POINT ( 'NONE', #68 ) ;
ENDSEC;
END-ISO-10303-21;
