ISO-10303-21;
HEADER;
FILE_DESCRIPTION (( 'STEP AP203' ),
    '1' );
FILE_NAME ('38489.step',
    '2021-11-01T09:16:07',
    ( '' ),
    ( '' ),
    'SwSTEP 2.0',
    'SolidWorks 2019',
    '' );
FILE_SCHEMA (( 'CONFIG_CONTROL_DESIGN' ));
ENDSEC;

DATA;
#1 = APPLICATION_CONTEXT ( 'configuration controlled 3d designs of mechanical parts and assemblies' ) ;
#2 = EDGE_LOOP ( 'NONE', ( #167 ) ) ;
#3 = APPROVAL ( #110, 'UNSPECIFIED' ) ;
#4 = FACE_OUTER_BOUND ( 'NONE', #186, .T. ) ;
#5 = CARTESIAN_POINT ( 'NONE',  ( 1.047444401652939691E-14, 0.0000000000000000000, 2.999999999999999112 ) ) ;
#6 = ADVANCED_FACE ( 'NONE', ( #68, #13 ), #29, .T. ) ;
#7 = CARTESIAN_POINT ( 'NONE',  ( 2.228241503965247029E-14, -4.151388316452684599E-16, 6.381937314617159629 ) ) ;
#8 = DIRECTION ( 'NONE',  ( 0.0000000000000000000, -1.000000000000000000, 0.0000000000000000000 ) ) ;
#9 = COORDINATED_UNIVERSAL_TIME_OFFSET ( 1, 0, .AHEAD. ) ;
#10 = VERTEX_POINT ( 'NONE', #23 ) ;
#11 = CALENDAR_DATE ( 2021, 1, 11 ) ;
#12 = EDGE_CURVE ( 'NONE', #37, #37, #202, .T. ) ;
#13 = FACE_BOUND ( 'NONE', #138, .T. ) ;
#14 = CLOSED_SHELL ( 'NONE', ( #39, #6, #140, #36, #185 ) ) ;
#15 = EDGE_LOOP ( 'NONE', ( #122 ) ) ;
#16 = ORIENTED_EDGE ( 'NONE', *, *, #104, .F. ) ;
#17 = DIRECTION ( 'NONE',  ( -4.365125093687771441E-31, -1.000000000000000000, -1.227517819005651059E-16 ) ) ;
#18 = FACE_OUTER_BOUND ( 'NONE', #204, .T. ) ;
#19 = ADVANCED_FACE ( 'NONE', ( #198 ), #44, .F. ) ;
#20 = CARTESIAN_POINT ( 'NONE',  ( 1.047444401652940007E-14, 1.124819836996386500E-32, 3.000000000000000000 ) ) ;
#21 = DIRECTION ( 'NONE',  ( 0.0000000000000000000, -1.000000000000000000, 0.0000000000000000000 ) ) ;
#22 = DIRECTION ( 'NONE',  ( 3.491481338843133355E-15, -1.227517819005651059E-16, 1.000000000000000000 ) ) ;
#23 = CARTESIAN_POINT ( 'NONE',  ( 1.047444401652939691E-14, -0.7499999999999995559, 2.999999999999999112 ) ) ;
#24 = EDGE_CURVE ( 'NONE', #103, #103, #48, .T. ) ;
#25 = CARTESIAN_POINT ( 'NONE',  ( 1.047444401652939691E-14, -0.7499999999999995559, 2.999999999999999112 ) ) ;
#26 = APPROVAL_ROLE ( '' ) ;
#27 = APPROVAL ( #200, 'UNSPECIFIED' ) ;
#28 = PERSON_AND_ORGANIZATION_ROLE ( 'design_supplier' ) ;
#29 = CONICAL_SURFACE ( 'NONE', #84, 1.199999999999995515, 0.7853981633974461696 ) ;
#30 = AXIS2_PLACEMENT_3D ( 'NONE', #91, #192, #8 ) ;
#31 = APPROVAL_ROLE ( '' ) ;
#32 = ORIENTED_EDGE ( 'NONE', *, *, #203, .F. ) ;
#33 = DATE_AND_TIME ( #190, #67 ) ;
#34 = COORDINATED_UNIVERSAL_TIME_OFFSET ( 1, 0, .AHEAD. ) ;
#35 = ORIENTED_EDGE ( 'NONE', *, *, #24, .T. ) ;
#36 = ADVANCED_FACE ( 'NONE', ( #18, #194 ), #154, .F. ) ;
#37 = VERTEX_POINT ( 'NONE', #62 ) ;
#38 = FACE_OUTER_BOUND ( 'NONE', #53, .T. ) ;
#39 = ADVANCED_FACE ( 'NONE', ( #146, #106 ), #87, .T. ) ;
#40 = DIRECTION ( 'NONE',  ( -3.491481338843133355E-15, 1.224646799147353207E-16, -1.000000000000000000 ) ) ;
#41 = DIRECTION ( 'NONE',  ( 3.491481338843133355E-15, -1.227517819005651059E-16, 1.000000000000000000 ) ) ;
#42 = CLOSED_SHELL ( 'NONE', ( #90, #76, #19 ) ) ;
#43 = LOCAL_TIME ( 10, 16, 7.000000000000000000, #181 ) ;
#44 = PLANE ( 'NONE',  #157 ) ;
#45 = PRODUCT_RELATED_PRODUCT_CATEGORY ( 'detail', '', ( #171 ) ) ;
#46 = PERSON_AND_ORGANIZATION ( #99, #49 ) ;
#47 = PERSON_AND_ORGANIZATION_ROLE ( 'creator' ) ;
#48 = CIRCLE ( 'NONE', #63, 1.199999999999995515 ) ;
#49 = ORGANIZATION ( 'UNSPECIFIED', 'UNSPECIFIED', '' ) ;
#50 = CC_DESIGN_PERSON_AND_ORGANIZATION_ASSIGNMENT ( #131, #47, ( #197 ) ) ;
#51 =( NAMED_UNIT ( * ) SI_UNIT ( $, .STERADIAN. ) SOLID_ANGLE_UNIT ( ) );
#52 = AXIS2_PLACEMENT_3D ( 'NONE', #162, #71, #176 ) ;
#53 = EDGE_LOOP ( 'NONE', ( #55 ) ) ;
#54 = EDGE_LOOP ( 'NONE', ( #172 ) ) ;
#55 = ORIENTED_EDGE ( 'NONE', *, *, #188, .T. ) ;
#56 = DIRECTION ( 'NONE',  ( -3.491481338843133355E-15, 1.224646799147353207E-16, -1.000000000000000000 ) ) ;
#57 = CIRCLE ( 'NONE', #150, 0.7499999999999992228 ) ;
#58 = DIRECTION ( 'NONE',  ( 3.491481338843133355E-15, -1.224646799147353207E-16, 1.000000000000000000 ) ) ;
#59 = DIRECTION ( 'NONE',  ( -3.491481338843133355E-15, 1.227517819005651059E-16, -1.000000000000000000 ) ) ;
#60 = DIRECTION ( 'NONE',  ( 4.275831445896958607E-31, 1.000000000000000000, 1.224646799147353207E-16 ) ) ;
#61 = MANIFOLD_SOLID_BREP ( 'Corps-Déplacer/Copier1[1]', #14 ) ;
#62 = CARTESIAN_POINT ( 'NONE',  ( 1.316288464743861212E-13, 1.499999999999991340, 37.69999999999999574 ) ) ;
#63 = AXIS2_PLACEMENT_3D ( 'NONE', #179, #40, #161 ) ;
#64 = DATE_AND_TIME ( #77, #85 ) ;
#65 = APPLICATION_PROTOCOL_DEFINITION ( 'international standard', 'config_control_design', 1994, #1 ) ;
#66 = LOCAL_TIME ( 10, 16, 7.000000000000000000, #80 ) ;
#67 = LOCAL_TIME ( 10, 16, 7.000000000000000000, #34 ) ;
#68 = FACE_OUTER_BOUND ( 'NONE', #54, .T. ) ;
#69 = ORIENTED_EDGE ( 'NONE', *, *, #24, .F. ) ;
#70 = APPROVAL_PERSON_ORGANIZATION ( #46, #3, #120 ) ;
#71 = DIRECTION ( 'NONE',  ( 3.491481338843133355E-15, -1.227517819005651059E-16, 1.000000000000000000 ) ) ;
#72 = DIRECTION ( 'NONE',  ( 0.0000000000000000000, 1.000000000000000000, 0.0000000000000000000 ) ) ;
#73 = FACE_OUTER_BOUND ( 'NONE', #2, .T. ) ;
#74 = FACE_OUTER_BOUND ( 'NONE', #170, .T. ) ;
#75 = DIRECTION ( 'NONE',  ( -3.491481338843133355E-15, 1.224646799147353207E-16, -1.000000000000000000 ) ) ;
#76 = ADVANCED_FACE ( 'NONE', ( #38, #73 ), #208, .T. ) ;
#77 = CALENDAR_DATE ( 2021, 1, 11 ) ;
#78 = AXIS2_PLACEMENT_3D ( 'NONE', #145, #56, #60 ) ;
#79 = CALENDAR_DATE ( 2021, 1, 11 ) ;
#80 = COORDINATED_UNIVERSAL_TIME_OFFSET ( 1, 0, .AHEAD. ) ;
#81 = APPROVAL_DATE_TIME ( #115, #27 ) ;
#82 = SECURITY_CLASSIFICATION_LEVEL ( 'unclassified' ) ;
#83 = ORIENTED_EDGE ( 'NONE', *, *, #188, .F. ) ;
#84 = AXIS2_PLACEMENT_3D ( 'NONE', #153, #222, #137 ) ;
#85 = LOCAL_TIME ( 10, 16, 7.000000000000000000, #9 ) ;
#86 = DIRECTION ( 'NONE',  ( -4.275831445896958607E-31, -1.000000000000000000, -1.224646799147353207E-16 ) ) ;
#87 = CYLINDRICAL_SURFACE ( 'NONE', #212, 1.499999999999994005 ) ;
#88 = DIRECTION ( 'NONE',  ( 3.491481338843133355E-15, -1.224646799147353207E-16, 1.000000000000000000 ) ) ;
#89 = CC_DESIGN_APPROVAL ( #3, ( #136 ) ) ;
#90 = ADVANCED_FACE ( 'NONE', ( #209 ), #144, .T. ) ;
#91 = CARTESIAN_POINT ( 'NONE',  ( 1.047444401652939691E-14, -3.682553457016952190E-16, 2.999999999999999112 ) ) ;
#92 = DIRECTION ( 'NONE',  ( -3.491481338843133355E-15, 1.224646799147353207E-16, -1.000000000000000000 ) ) ;
#93 = COORDINATED_UNIVERSAL_TIME_OFFSET ( 1, 0, .AHEAD. ) ;
#94 = DATE_AND_TIME ( #79, #66 ) ;
#95 = PERSON_AND_ORGANIZATION ( #99, #49 ) ;
#96 = DESIGN_CONTEXT ( 'detailed design', #1, 'design' ) ;
#97 = EDGE_LOOP ( 'NONE', ( #83 ) ) ;
#98 = SHAPE_DEFINITION_REPRESENTATION ( #159, #195 ) ;
#99 = PERSON ( 'UNSPECIFIED', 'UNSPECIFIED', 'UNSPECIFIED', ('UNSPECIFIED'), ('UNSPECIFIED'), ('UNSPECIFIED') ) ;
#100 = EDGE_LOOP ( 'NONE', ( #16 ) ) ;
#101 = AXIS2_PLACEMENT_3D ( 'NONE', #7, #59, #141 ) ;
#102 = APPLICATION_CONTEXT ( 'configuration controlled 3d designs of mechanical parts and assemblies' ) ;
#103 = VERTEX_POINT ( 'NONE', #174 ) ;
#104 = EDGE_CURVE ( 'NONE', #142, #142, #117, .T. ) ;
#105 = CARTESIAN_POINT ( 'NONE',  ( -3.214391668616739084E-31, -1.124808268304439581E-32, -9.206383642542380474E-17 ) ) ;
#106 = FACE_OUTER_BOUND ( 'NONE', #100, .T. ) ;
#107 = CC_DESIGN_PERSON_AND_ORGANIZATION_ASSIGNMENT ( #219, #147, ( #136 ) ) ;
#108 = CARTESIAN_POINT ( 'NONE',  ( -1.068955699180124799E-30, 3.749391872347842254E-32, -3.061610804811898009E-16 ) ) ;
#109 = LOCAL_TIME ( 10, 16, 7.000000000000000000, #93 ) ;
#110 = APPROVAL_STATUS ( 'not_yet_approved' ) ;
#111 = CALENDAR_DATE ( 2021, 1, 11 ) ;
#112 = AXIS2_PLACEMENT_3D ( 'NONE', #20, #88, #86 ) ;
#113 = APPROVAL_PERSON_ORGANIZATION ( #116, #143, #31 ) ;
#114 = MECHANICAL_CONTEXT ( 'NONE', #102, 'mechanical' ) ;
#115 = DATE_AND_TIME ( #11, #109 ) ;
#116 = PERSON_AND_ORGANIZATION ( #99, #49 ) ;
#117 = CIRCLE ( 'NONE', #101, 1.499999999999994005 ) ;
#118 = CC_DESIGN_APPROVAL ( #27, ( #187 ) ) ;
#119 = ORIENTED_EDGE ( 'NONE', *, *, #104, .T. ) ;
#120 = APPROVAL_ROLE ( '' ) ;
#121 = CIRCLE ( 'NONE', #30, 0.7499999999999992228 ) ;
#122 = ORIENTED_EDGE ( 'NONE', *, *, #220, .T. ) ;
#123 = EDGE_LOOP ( 'NONE', ( #189 ) ) ;
#124 = DIRECTION ( 'NONE',  ( -4.285855558155653280E-31, -1.000000000000000000, -1.227517819005651059E-16 ) ) ;
#125 = DIRECTION ( 'NONE',  ( 3.491481338843133355E-15, -1.227517819005651059E-16, 1.000000000000000000 ) ) ;
#126 = DIRECTION ( 'NONE',  ( 3.491481338843133355E-15, -1.224646799147353207E-16, 1.000000000000000000 ) ) ;
#127 = PLANE ( 'NONE',  #135 ) ;
#128 = AXIS2_PLACEMENT_3D ( 'NONE', #129, #75, #72 ) ;
#129 = CARTESIAN_POINT ( 'NONE',  ( 1.316288464743861212E-13, -4.616918432785521081E-15, 37.69999999999999574 ) ) ;
#130 = DATE_TIME_ROLE ( 'classification_date' ) ;
#131 = PERSON_AND_ORGANIZATION ( #99, #49 ) ;
#132 =( GEOMETRIC_REPRESENTATION_CONTEXT ( 3 ) GLOBAL_UNCERTAINTY_ASSIGNED_CONTEXT ( ( #152 ) ) GLOBAL_UNIT_ASSIGNED_CONTEXT ( ( #165, #183, #51 ) ) REPRESENTATION_CONTEXT ( 'NONE', 'WORKASPACE' ) );
#133 = APPROVAL_DATE_TIME ( #94, #143 ) ;
#134 = CARTESIAN_POINT ( 'NONE',  ( 0.0000000000000000000, 0.0000000000000000000, 0.0000000000000000000 ) ) ;
#135 = AXIS2_PLACEMENT_3D ( 'NONE', #196, #58, #211 ) ;
#136 = SECURITY_CLASSIFICATION ( '', '', #82 ) ;
#137 = DIRECTION ( 'NONE',  ( 0.0000000000000000000, 1.000000000000000000, 0.0000000000000000000 ) ) ;
#138 = EDGE_LOOP ( 'NONE', ( #35 ) ) ;
#139 = ORIENTED_EDGE ( 'NONE', *, *, #203, .T. ) ;
#140 = ADVANCED_FACE ( 'NONE', ( #74 ), #206, .F. ) ;
#141 = DIRECTION ( 'NONE',  ( 0.0000000000000000000, 1.000000000000000000, 0.0000000000000000000 ) ) ;
#142 = VERTEX_POINT ( 'NONE', #207 ) ;
#143 = APPROVAL ( #201, 'UNSPECIFIED' ) ;
#144 = PLANE ( 'NONE',  #112 ) ;
#145 = CARTESIAN_POINT ( 'NONE',  ( 1.326762908760390423E-13, 8.998558695971044381E-33, 38.00000000000000000 ) ) ;
#146 = FACE_OUTER_BOUND ( 'NONE', #123, .T. ) ;
#147 = PERSON_AND_ORGANIZATION_ROLE ( 'classification_officer' ) ;
#148 = DIRECTION ( 'NONE',  ( 0.0000000000000000000, 0.0000000000000000000, 1.000000000000000000 ) ) ;
#149 = PERSON_AND_ORGANIZATION ( #99, #49 ) ;
#150 = AXIS2_PLACEMENT_3D ( 'NONE', #158, #125, #21 ) ;
#151 = PERSON_AND_ORGANIZATION_ROLE ( 'creator' ) ;
#152 = UNCERTAINTY_MEASURE_WITH_UNIT (LENGTH_MEASURE( 1.000000000000000082E-05 ), #165, 'distance_accuracy_value', 'NONE');
#153 = CARTESIAN_POINT ( 'NONE',  ( 1.326762908760390423E-13, -4.653657836759941941E-15, 38.00000000000000000 ) ) ;
#154 = TOROIDAL_SURFACE ( 'NONE', #184, 8.749999999999998224, 8.000000000000000000 ) ;
#155 = AXIS2_PLACEMENT_3D ( 'NONE', #134, #148, #180 ) ;
#156 = CC_DESIGN_PERSON_AND_ORGANIZATION_ASSIGNMENT ( #149, #151, ( #187 ) ) ;
#157 = AXIS2_PLACEMENT_3D ( 'NONE', #108, #126, #163 ) ;
#158 = CARTESIAN_POINT ( 'NONE',  ( 1.047444401652939691E-14, -3.682553457016952190E-16, 2.999999999999999112 ) ) ;
#159 = PRODUCT_DEFINITION_SHAPE ( 'NONE', 'NONE',  #197 ) ;
#160 = CARTESIAN_POINT ( 'NONE',  ( 0.0000000000000000000, 0.0000000000000000000, 0.0000000000000000000 ) ) ;
#161 = DIRECTION ( 'NONE',  ( 0.0000000000000000000, 1.000000000000000000, 0.0000000000000000000 ) ) ;
#162 = CARTESIAN_POINT ( 'NONE',  ( -6.413731847436034514E-31, 0.0000000000000000000, -1.836965810494968570E-16 ) ) ;
#163 = DIRECTION ( 'NONE',  ( -4.275831445896958607E-31, -1.000000000000000000, -1.224646799147353207E-16 ) ) ;
#164 = PERSON_AND_ORGANIZATION ( #99, #49 ) ;
#165 =( LENGTH_UNIT ( ) NAMED_UNIT ( * ) SI_UNIT ( .MILLI., .METRE. ) );
#166 = CC_DESIGN_DATE_AND_TIME_ASSIGNMENT ( #217, #215, ( #197 ) ) ;
#167 = ORIENTED_EDGE ( 'NONE', *, *, #220, .F. ) ;
#168 = CIRCLE ( 'NONE', #221, 0.7499999999999997780 ) ;
#169 = APPROVAL_DATE_TIME ( #33, #3 ) ;
#170 = EDGE_LOOP ( 'NONE', ( #69 ) ) ;
#171 = PRODUCT ( '38489', '38489', '', ( #114 ) ) ;
#172 = ORIENTED_EDGE ( 'NONE', *, *, #12, .F. ) ;
#173 = APPROVAL_PERSON_ORGANIZATION ( #95, #27, #26 ) ;
#174 = CARTESIAN_POINT ( 'NONE',  ( 1.326762908760390423E-13, 1.199999999999991074, 38.00000000000000000 ) ) ;
#175 = CARTESIAN_POINT ( 'NONE',  ( -6.428783337233478168E-31, -0.7499999999999997780, -1.841276728508476095E-16 ) ) ;
#176 = DIRECTION ( 'NONE',  ( -4.285855558155653280E-31, -1.000000000000000000, -1.227517819005651059E-16 ) ) ;
#177 = DIRECTION ( 'NONE',  ( 4.275831445896958607E-31, 1.000000000000000000, 1.224646799147353207E-16 ) ) ;
#178 = CC_DESIGN_PERSON_AND_ORGANIZATION_ASSIGNMENT ( #182, #28, ( #187 ) ) ;
#179 = CARTESIAN_POINT ( 'NONE',  ( 1.326762908760390423E-13, -4.653657836759941941E-15, 38.00000000000000000 ) ) ;
#180 = DIRECTION ( 'NONE',  ( 1.000000000000000000, 0.0000000000000000000, 0.0000000000000000000 ) ) ;
#181 = COORDINATED_UNIVERSAL_TIME_OFFSET ( 1, 0, .AHEAD. ) ;
#182 = PERSON_AND_ORGANIZATION ( #99, #49 ) ;
#183 =( NAMED_UNIT ( * ) PLANE_ANGLE_UNIT ( ) SI_UNIT ( $, .RADIAN. ) );
#184 = AXIS2_PLACEMENT_3D ( 'NONE', #5, #22, #17 ) ;
#185 = ADVANCED_FACE ( 'NONE', ( #4 ), #127, .F. ) ;
#186 = EDGE_LOOP ( 'NONE', ( #32 ) ) ;
#187 = PRODUCT_DEFINITION_FORMATION_WITH_SPECIFIED_SOURCE ( 'ANY', '', #171, .NOT_KNOWN. ) ;
#188 = EDGE_CURVE ( 'NONE', #193, #193, #168, .T. ) ;
#189 = ORIENTED_EDGE ( 'NONE', *, *, #12, .T. ) ;
#190 = CALENDAR_DATE ( 2021, 1, 11 ) ;
#191 = CC_DESIGN_PERSON_AND_ORGANIZATION_ASSIGNMENT ( #164, #199, ( #171 ) ) ;
#192 = DIRECTION ( 'NONE',  ( 3.491481338843133355E-15, -1.227517819005651059E-16, 1.000000000000000000 ) ) ;
#193 = VERTEX_POINT ( 'NONE', #175 ) ;
#194 = FACE_OUTER_BOUND ( 'NONE', #223, .T. ) ;
#195 = ADVANCED_BREP_SHAPE_REPRESENTATION ( '38489', ( #61, #205, #155 ), #132 ) ;
#196 = CARTESIAN_POINT ( 'NONE',  ( 1.047444401652940007E-14, 1.124819836996386500E-32, 3.000000000000000000 ) ) ;
#197 = PRODUCT_DEFINITION ( 'UNKNOWN', '', #187, #96 ) ;
#198 = FACE_OUTER_BOUND ( 'NONE', #97, .T. ) ;
#199 = PERSON_AND_ORGANIZATION_ROLE ( 'design_owner' ) ;
#200 = APPROVAL_STATUS ( 'not_yet_approved' ) ;
#201 = APPROVAL_STATUS ( 'not_yet_approved' ) ;
#202 = CIRCLE ( 'NONE', #128, 1.499999999999996003 ) ;
#203 = EDGE_CURVE ( 'NONE', #10, #10, #57, .T. ) ;
#204 = EDGE_LOOP ( 'NONE', ( #139 ) ) ;
#205 = MANIFOLD_SOLID_BREP ( 'Corps-Déplacer/Copier1[2]', #42 ) ;
#206 = PLANE ( 'NONE',  #78 ) ;
#207 = CARTESIAN_POINT ( 'NONE',  ( 2.228241503965247029E-14, 1.499999999999993561, 6.381937314617159629 ) ) ;
#208 = CYLINDRICAL_SURFACE ( 'NONE', #52, 0.7499999999999995559 ) ;
#209 = FACE_OUTER_BOUND ( 'NONE', #15, .T. ) ;
#210 = CC_DESIGN_DATE_AND_TIME_ASSIGNMENT ( #64, #130, ( #136 ) ) ;
#211 = DIRECTION ( 'NONE',  ( -4.275831445896958607E-31, -1.000000000000000000, -1.224646799147353207E-16 ) ) ;
#212 = AXIS2_PLACEMENT_3D ( 'NONE', #160, #92, #177 ) ;
#213 = CC_DESIGN_APPROVAL ( #143, ( #197 ) ) ;
#214 = CC_DESIGN_SECURITY_CLASSIFICATION ( #136, ( #187 ) ) ;
#215 = DATE_TIME_ROLE ( 'creation_date' ) ;
#216 = APPLICATION_PROTOCOL_DEFINITION ( 'international standard', 'config_control_design', 1994, #102 ) ;
#217 = DATE_AND_TIME ( #111, #43 ) ;
#218 = VERTEX_POINT ( 'NONE', #25 ) ;
#219 = PERSON_AND_ORGANIZATION ( #99, #49 ) ;
#220 = EDGE_CURVE ( 'NONE', #218, #218, #121, .T. ) ;
#221 = AXIS2_PLACEMENT_3D ( 'NONE', #105, #41, #124 ) ;
#222 = DIRECTION ( 'NONE',  ( -3.491481338843133355E-15, 1.224646799147353207E-16, -1.000000000000000000 ) ) ;
#223 = EDGE_LOOP ( 'NONE', ( #119 ) ) ;
ENDSEC;
END-ISO-10303-21;
